  0
SECTION
  2
HEADER
  9
$ACADVER
  1
AC1015
  9
$ACADMAINTVER
 70
     6
  9
$DWGCODEPAGE
  3
ANSI_932
  9
$INSBASE
 10
591.7209567771588
 20
8.110360254358852
 30
0.0
  9
$EXTMIN
 10
591.7209567771588
 20
8.110360254358852
 30
0.0
  9
$EXTMAX
 10
962.9709641969546
 20
270.610365500679
 30
0.0
  9
$LIMMIN
 10
591.7209567771588
 20
8.110360254358852
  9
$LIMMAX
 10
962.9709641969546
 20
270.610365500679
  9
$ORTHOMODE
 70
     0
  9
$REGENMODE
 70
     1
  9
$FILLMODE
 70
     1
  9
$QTEXTMODE
 70
     0
  9
$MIRRTEXT
 70
     1
  9
$LTSCALE
 40
1.0
  9
$ATTMODE
 70
     1
  9
$TEXTSIZE
 40
2.5
  9
$TRACEWID
 40
1.0
  9
$TEXTSTYLE
  7
FX_VECTOR
  9
$CLAYER
  8
0
  9
$CELTYPE
  6
ByLayer
  9
$CECOLOR
 62
   256
  9
$CELTSCALE
 40
1.0
  9
$DISPSILH
 70
     0
  9
$DIMSCALE
 40
1.0
  9
$DIMASZ
 40
2.0
  9
$DIMEXO
 40
2.0
  9
$DIMDLI
 40
7.0
  9
$DIMRND
 40
0.0
  9
$DIMDLE
 40
6.0
  9
$DIMEXE
 40
1.0
  9
$DIMTP
 40
0.0
  9
$DIMTM
 40
0.0
  9
$DIMTXT
 40
3.5
  9
$DIMCEN
 40
2.5
  9
$DIMTSZ
 40
0.0
  9
$DIMTOL
 70
     0
  9
$DIMLIM
 70
     0
  9
$DIMTIH
 70
     0
  9
$DIMTOH
 70
     0
  9
$DIMSE1
 70
     0
  9
$DIMSE2
 70
     0
  9
$DIMTAD
 70
     1
  9
$DIMZIN
 70
     8
  9
$DIMBLK
  1

  9
$DIMASO
 70
     1
  9
$DIMSHO
 70
     1
  9
$DIMPOST
  1

  9
$DIMAPOST
  1

  9
$DIMALT
 70
     0
  9
$DIMALTD
 70
     3
  9
$DIMALTF
 40
0.03937
  9
$DIMLFAC
 40
1.0
  9
$DIMTOFL
 70
     1
  9
$DIMTVP
 40
0.0
  9
$DIMTIX
 70
     0
  9
$DIMSOXD
 70
     0
  9
$DIMSAH
 70
     1
  9
$DIMBLK1
  1
FXTIP_ARROW_S
  9
$DIMBLK2
  1
FXTIP_ARROW_E
  9
$DIMSTYLE
  2
FXDIMINFO
  9
$DIMCLRD
 70
     7
  9
$DIMCLRE
 70
     7
  9
$DIMCLRT
 70
     7
  9
$DIMTFAC
 40
1.0
  9
$DIMGAP
 40
1.0
  9
$DIMJUST
 70
     0
  9
$DIMSD1
 70
     0
  9
$DIMSD2
 70
     0
  9
$DIMTOLJ
 70
     1
  9
$DIMTZIN
 70
     8
  9
$DIMALTZ
 70
     0
  9
$DIMALTTZ
 70
     0
  9
$DIMUPT
 70
     0
  9
$DIMDEC
 70
     2
  9
$DIMTDEC
 70
     2
  9
$DIMALTU
 70
     2
  9
$DIMALTTD
 70
     3
  9
$DIMTXSTY
  7
FX_VECTOR
  9
$DIMAUNIT
 70
     0
  9
$DIMADEC
 70
     2
  9
$DIMALTRND
 40
0.0
  9
$DIMAZIN
 70
     2
  9
$DIMDSEP
 70
    46
  9
$DIMATFIT
 70
     3
  9
$DIMFRAC
 70
     0
  9
$DIMLDRBLK
  1
FXTIP_ARROW_S
  9
$DIMLUNIT
 70
     2
  9
$DIMLWD
 70
    -2
  9
$DIMLWE
 70
    -2
  9
$DIMTMOVE
 70
     0
  9
$LUNITS
 70
     2
  9
$LUPREC
 70
     4
  9
$SKETCHINC
 40
1.0
  9
$FILLETRAD
 40
10.0
  9
$AUNITS
 70
     0
  9
$AUPREC
 70
     0
  9
$MENU
  1
.
  9
$ELEVATION
 40
0.0
  9
$PELEVATION
 40
0.0
  9
$THICKNESS
 40
0.0
  9
$LIMCHECK
 70
     0
  9
$CHAMFERA
 40
10.0
  9
$CHAMFERB
 40
10.0
  9
$CHAMFERC
 40
20.0
  9
$CHAMFERD
 40
0.0
  9
$SKPOLY
 70
     0
  9
$TDCREATE
 40
2455507.680688113
  9
$TDUCREATE
 40
2455507.305688113
  9
$TDUPDATE
 40
2455507.680688125
  9
$TDUUPDATE
 40
2455507.305688125
  9
$TDINDWG
 40
0.0000000116
  9
$TDUSRTIMER
 40
0.0000000116
  9
$USRTIMER
 70
     1
  9
$ANGBASE
 50
0.0
  9
$ANGDIR
 70
     0
  9
$PDMODE
 70
     0
  9
$PDSIZE
 40
0.0
  9
$PLINEWID
 40
0.0
  9
$SPLFRAME
 70
     0
  9
$SPLINETYPE
 70
     6
  9
$SPLINESEGS
 70
     8
  9
$HANDSEED
  5
249
  9
$SURFTAB1
 70
     6
  9
$SURFTAB2
 70
     6
  9
$SURFTYPE
 70
     6
  9
$SURFU
 70
     6
  9
$SURFV
 70
     6
  9
$UCSBASE
  2

  9
$UCSNAME
  2

  9
$UCSORG
 10
0.0
 20
0.0
 30
0.0
  9
$UCSXDIR
 10
1.0
 20
0.0
 30
0.0
  9
$UCSYDIR
 10
0.0
 20
1.0
 30
0.0
  9
$UCSORTHOREF
  2

  9
$UCSORTHOVIEW
 70
     0
  9
$UCSORGTOP
 10
0.0
 20
0.0
 30
0.0
  9
$UCSORGBOTTOM
 10
0.0
 20
0.0
 30
0.0
  9
$UCSORGLEFT
 10
0.0
 20
0.0
 30
0.0
  9
$UCSORGRIGHT
 10
0.0
 20
0.0
 30
0.0
  9
$UCSORGFRONT
 10
0.0
 20
0.0
 30
0.0
  9
$UCSORGBACK
 10
0.0
 20
0.0
 30
0.0
  9
$PUCSBASE
  2

  9
$PUCSNAME
  2

  9
$PUCSORG
 10
0.0
 20
0.0
 30
0.0
  9
$PUCSXDIR
 10
1.0
 20
0.0
 30
0.0
  9
$PUCSYDIR
 10
0.0
 20
1.0
 30
0.0
  9
$PUCSORTHOREF
  2

  9
$PUCSORTHOVIEW
 70
     0
  9
$PUCSORGTOP
 10
0.0
 20
0.0
 30
0.0
  9
$PUCSORGBOTTOM
 10
0.0
 20
0.0
 30
0.0
  9
$PUCSORGLEFT
 10
0.0
 20
0.0
 30
0.0
  9
$PUCSORGRIGHT
 10
0.0
 20
0.0
 30
0.0
  9
$PUCSORGFRONT
 10
0.0
 20
0.0
 30
0.0
  9
$PUCSORGBACK
 10
0.0
 20
0.0
 30
0.0
  9
$USERI1
 70
     0
  9
$USERI2
 70
     0
  9
$USERI3
 70
     0
  9
$USERI4
 70
     0
  9
$USERI5
 70
     0
  9
$USERR1
 40
0.0
  9
$USERR2
 40
0.0
  9
$USERR3
 40
0.0
  9
$USERR4
 40
0.0
  9
$USERR5
 40
0.0
  9
$WORLDVIEW
 70
     1
  9
$SHADEDGE
 70
     3
  9
$SHADEDIF
 70
    70
  9
$TILEMODE
 70
     1
  9
$MAXACTVP
 70
    64
  9
$PINSBASE
 10
0.0
 20
0.0
 30
0.0
  9
$PLIMCHECK
 70
     0
  9
$PEXTMIN
 10
1.000000000000000E+20
 20
1.000000000000000E+20
 30
1.000000000000000E+20
  9
$PEXTMAX
 10
-1.000000000000000E+20
 20
-1.000000000000000E+20
 30
-1.000000000000000E+20
  9
$PLIMMIN
 10
0.0
 20
0.0
  9
$PLIMMAX
 10
420.0
 20
297.0
  9
$UNITMODE
 70
     0
  9
$VISRETAIN
 70
     1
  9
$PLINEGEN
 70
     0
  9
$PSLTSCALE
 70
     1
  9
$TREEDEPTH
 70
  3020
  9
$CMLSTYLE
  2
Standard
  9
$CMLJUST
 70
     0
  9
$CMLSCALE
 40
20.0
  9
$PROXYGRAPHICS
 70
     1
  9
$MEASUREMENT
 70
     1
  9
$CELWEIGHT
370
    -1
  9
$ENDCAPS
280
     0
  9
$JOINSTYLE
280
     0
  9
$LWDISPLAY
290
     0
  9
$INSUNITS
 70
     4
  9
$HYPERLINKBASE
  1

  9
$STYLESHEET
  1

  9
$XEDIT
290
     1
  9
$CEPSNTYPE
380
     0
  9
$PSTYLEMODE
290
     1
  9
$FINGERPRINTGUID
  2
{E8740FD9-713F-4E25-B15B-47AE674522FF}
  9
$VERSIONGUID
  2
{FAEB1C32-E019-11D5-929B-00C0DF256EC4}
  9
$EXTNAMES
290
     1
  9
$PSVPSCALE
 40
0.0
  9
$OLESTARTUP
290
     0
  0
ENDSEC
  0
SECTION
  2
CLASSES
  0
CLASS
  1
ACDBDICTIONARYWDFLT
  2
AcDbDictionaryWithDefault
  3
ObjectDBX Classes
 90
        0
280
     0
281
     0
  0
CLASS
  1
VISUALSTYLE
  2
AcDbVisualStyle
  3
ObjectDBX Classes
 90
     4095
280
     0
281
     0
  0
CLASS
  1
MATERIAL
  2
AcDbMaterial
  3
ObjectDBX Classes
 90
     1153
280
     0
281
     0
  0
CLASS
  1
SCALE
  2
AcDbScale
  3
ObjectDBX Classes
 90
     1153
280
     0
281
     0
  0
CLASS
  1
DICTIONARYVAR
  2
AcDbDictionaryVar
  3
ObjectDBX Classes
 90
        0
280
     0
281
     0
  0
CLASS
  1
ACDBPLACEHOLDER
  2
AcDbPlaceHolder
  3
ObjectDBX Classes
 90
        0
280
     0
281
     0
  0
CLASS
  1
LAYOUT
  2
AcDbLayout
  3
ObjectDBX Classes
 90
        0
280
     0
281
     0
  0
ENDSEC
  0
SECTION
  2
TABLES
  0
TABLE
  2
VPORT
  5
8
330
0
100
AcDbSymbolTable
 70
     1
  0
VPORT
  5
29
330
8
100
AcDbSymbolTableRecord
100
AcDbViewportTableRecord
  2
*Active
 70
     0
 10
0.0
 20
0.0
 11
1.0
 21
1.0
 12
777.3459604870567
 22
139.3603628775189
 13
0.0
 23
0.0
 14
10.0
 24
10.0
 15
10.0
 25
10.0
 16
0.0
 26
0.0
 36
1.0
 17
0.0
 27
0.0
 37
0.0
 40
262.5000052463201
 41
1.414285714285715
 42
50.0
 43
0.0
 44
0.0
 50
0.0
 51
0.0
 71
     0
 72
   100
 73
     1
 74
     3
 75
     0
 76
     0
 77
     0
 78
     0
281
     0
 65
     1
110
0.0
120
0.0
130
0.0
111
1.0
121
0.0
131
0.0
112
0.0
122
1.0
132
0.0
 79
     0
146
0.0
  0
ENDTAB
  0
TABLE
  2
LTYPE
  5
5
330
0
100
AcDbSymbolTable
 70
     5
  0
LTYPE
  5
14
330
5
100
AcDbSymbolTableRecord
100
AcDbLinetypeTableRecord
  2
ByBlock
 70
     0
  3

 72
    65
 73
     0
 40
0.0
  0
LTYPE
  5
15
330
5
100
AcDbSymbolTableRecord
100
AcDbLinetypeTableRecord
  2
ByLayer
 70
     0
  3

 72
    65
 73
     0
 40
0.0
  0
LTYPE
  5
16
330
5
100
AcDbSymbolTableRecord
100
AcDbLinetypeTableRecord
  2
Continuous
 70
     0
  3
Continuous ___________________________________
 72
    65
 73
     0
 40
0.0
  0
LTYPE
  5
40
330
5
100
AcDbSymbolTableRecord
100
AcDbLinetypeTableRecord
  2
DOT
 70
     0
  3
Dot . . . . . . . . . . . . . . . . . . . . . .
 72
    65
 73
     2
 40
6.3
 49
0.0
 74
     0
 49
-6.3
 74
     0
  0
ENDTAB
  0
TABLE
  2
LAYER
  5
2
330
0
100
AcDbSymbolTable
 70
     6
  0
LAYER
  5
10
330
2
100
AcDbSymbolTableRecord
100
AcDbLayerTableRecord
  2
0
 70
     0
 62
     7
  6
Continuous
370
    -3
390
F
  0
LAYER
  5
AD
330
2
100
AcDbSymbolTableRecord
100
AcDbLayerTableRecord
  2
Defpoints
 70
     0
 62
     7
  6
Continuous
290
     0
370
    -3
390
F
  0
LAYER
  5
AE
330
2
100
AcDbSymbolTableRecord
100
AcDbLayerTableRecord
  2
GR1_01
 70
     0
 62
     7
  6
Continuous
370
    -3
390
F
  0
LAYER
  5
ED
330
2
100
AcDbSymbolTableRecord
100
AcDbLayerTableRecord
  2
0_01
 70
     0
 62
     7
  6
Continuous
370
    -3
390
F
  0
ENDTAB
  0
TABLE
  2
STYLE
  5
3
330
0
100
AcDbSymbolTable
 70
     3
  0
STYLE
  5
11
330
3
100
AcDbSymbolTableRecord
100
AcDbTextStyleTableRecord
  2
Standard
 70
     0
 40
0.0
 41
1.0
 50
0.0
 71
     0
 42
2.5
  3
txt
  4

  0
STYLE
  5
45
330
3
100
AcDbSymbolTableRecord
100
AcDbTextStyleTableRecord
  2
FX_VECTOR
 70
     0
 40
0.0
 41
1.0
 50
0.0
 71
     0
 42
0.2
  3
MONOTXT.SHX
  4
BigFont.shx
  0
STYLE
  5
BD
330
3
100
AcDbSymbolTableRecord
100
AcDbTextStyleTableRecord
  2
STYLE003
 70
     0
 40
0.0
 41
1.0
 50
0.0
 71
     0
 42
0.2
  3

  4

1001
ACAD
1000
ＭＳ ゴシック
1071
    32817
  0
ENDTAB
  0
TABLE
  2
VIEW
  5
6
330
0
100
AcDbSymbolTable
 70
     0
  0
ENDTAB
  0
TABLE
  2
UCS
  5
7
330
0
100
AcDbSymbolTable
 70
     0
  0
ENDTAB
  0
TABLE
  2
APPID
  5
9
330
0
100
AcDbSymbolTable
 70
     1
  0
APPID
  5
12
330
9
100
AcDbSymbolTableRecord
100
AcDbRegAppTableRecord
  2
ACAD
 70
     0
  0
ENDTAB
  0
TABLE
  2
DIMSTYLE
  5
A
330
0
100
AcDbSymbolTable
 70
     2
100
AcDbDimStyleTable
  0
DIMSTYLE
105
27
330
A
100
AcDbSymbolTableRecord
100
AcDbDimStyleTableRecord
  2
ISO-25
 70
     0
 41
2.5
 42
0.625
 43
3.75
 44
1.25
 73
     0
 74
     0
 77
     1
 78
     8
140
2.5
141
2.5
143
0.03937007874016
147
0.625
171
     3
172
     1
271
     2
272
     2
274
     3
278
    44
283
     0
284
     8
340
11
  0
DIMSTYLE
105
AC
330
A
100
AcDbSymbolTableRecord
100
AcDbDimStyleTableRecord
  2
FXDIMINFO
 70
     0
 41
2.0
 42
2.0
 43
7.0
 44
1.0
 46
6.0
 73
     0
 74
     0
 77
     1
 78
     8
 79
     2
140
3.5
141
2.5
143
0.03937
147
1.0
171
     3
172
     1
173
     1
176
     7
177
     7
178
     7
179
     2
271
     2
272
     2
274
     3
284
     8
340
45
341
46
343
46
344
4C
  0
ENDTAB
  0
TABLE
  2
BLOCK_RECORD
  5
1
330
0
100
AcDbSymbolTable
 70
    37
  0
BLOCK_RECORD
  5
1F
330
1
100
AcDbSymbolTableRecord
100
AcDbBlockTableRecord
  2
*Model_Space
340
22
  0
BLOCK_RECORD
  5
1B
330
1
100
AcDbSymbolTableRecord
100
AcDbBlockTableRecord
  2
*Paper_Space
340
1E
  0
BLOCK_RECORD
  5
23
330
1
100
AcDbSymbolTableRecord
100
AcDbBlockTableRecord
  2
*Paper_Space0
340
26
  0
BLOCK_RECORD
  5
46
330
1
100
AcDbSymbolTableRecord
100
AcDbBlockTableRecord
  2
FXTIP_ARROW_S
340
0
102
{BLKREFS
331
1A6
331
1AC
331
1B1
331
1B6
331
1BB
331
1C0
331
1C6
331
1CB
331
1D0
331
1D6
331
1DC
331
1E1
331
1E6
331
1EC
331
1F1
331
1F7
331
1FD
331
206
331
20B
102
}
  0
BLOCK_RECORD
  5
4C
330
1
100
AcDbSymbolTableRecord
100
AcDbBlockTableRecord
  2
FXTIP_ARROW_E
340
0
102
{BLKREFS
331
1A7
331
1AD
331
1B2
331
1B7
331
1BC
331
1C1
331
1C7
331
1CC
331
1D1
331
1D7
331
1DD
331
1E2
331
1E7
331
1ED
331
1F2
331
1F8
331
1FE
331
207
331
20C
102
}
  0
BLOCK_RECORD
  5
52
330
1
100
AcDbSymbolTableRecord
100
AcDbBlockTableRecord
  2
FXTIP_BLACKDOT_S
340
0
  0
BLOCK_RECORD
  5
58
330
1
100
AcDbSymbolTableRecord
100
AcDbBlockTableRecord
  2
FXTIP_BLACKDOT_E
340
0
  0
BLOCK_RECORD
  5
5E
330
1
100
AcDbSymbolTableRecord
100
AcDbBlockTableRecord
  2
FXTIP_TRIANGLE_S
340
0
  0
BLOCK_RECORD
  5
65
330
1
100
AcDbSymbolTableRecord
100
AcDbBlockTableRecord
  2
FXTIP_TRIANGLE_E
340
0
  0
BLOCK_RECORD
  5
6C
330
1
100
AcDbSymbolTableRecord
100
AcDbBlockTableRecord
  2
FXTIP_ARCHITECT_S
340
0
  0
BLOCK_RECORD
  5
72
330
1
100
AcDbSymbolTableRecord
100
AcDbBlockTableRecord
  2
FXTIP_ARCHITECT_E
340
0
  0
BLOCK_RECORD
  5
78
330
1
100
AcDbSymbolTableRecord
100
AcDbBlockTableRecord
  2
FXTIP_CIVIL_S
340
0
  0
BLOCK_RECORD
  5
7E
330
1
100
AcDbSymbolTableRecord
100
AcDbBlockTableRecord
  2
FXTIP_CIVIL_E
340
0
  0
BLOCK_RECORD
  5
84
330
1
100
AcDbSymbolTableRecord
100
AcDbBlockTableRecord
  2
FXTIP_WHITEDOT_S
340
0
  0
BLOCK_RECORD
  5
89
330
1
100
AcDbSymbolTableRecord
100
AcDbBlockTableRecord
  2
FXTIP_WHITEDOT_E
340
0
  0
BLOCK_RECORD
  5
8E
330
1
100
AcDbSymbolTableRecord
100
AcDbBlockTableRecord
  2
FXTIP_UPARROW_S
340
0
  0
BLOCK_RECORD
  5
93
330
1
100
AcDbSymbolTableRecord
100
AcDbBlockTableRecord
  2
FXTIP_UPARROW_E
340
0
  0
BLOCK_RECORD
  5
98
330
1
100
AcDbSymbolTableRecord
100
AcDbBlockTableRecord
  2
FXTIP_DOWNARROW_S
340
0
  0
BLOCK_RECORD
  5
9D
330
1
100
AcDbSymbolTableRecord
100
AcDbBlockTableRecord
  2
FXTIP_DOWNARROW_E
340
0
  0
BLOCK_RECORD
  5
A2
330
1
100
AcDbSymbolTableRecord
100
AcDbBlockTableRecord
  2
FXTIP_BLACKTRIANGLE_S
340
0
  0
BLOCK_RECORD
  5
A7
330
1
100
AcDbSymbolTableRecord
100
AcDbBlockTableRecord
  2
FXTIP_BLACKTRIANGLE_E
340
0
  0
BLOCK_RECORD
  5
EA
330
1
100
AcDbSymbolTableRecord
100
AcDbBlockTableRecord
  2
BLKF022
340
0
102
{BLKREFS
331
EE
102
}
  0
BLOCK_RECORD
  5
F9
330
1
100
AcDbSymbolTableRecord
100
AcDbBlockTableRecord
  2
BLKF023
340
0
102
{BLKREFS
331
FC
102
}
  0
BLOCK_RECORD
  5
102
330
1
100
AcDbSymbolTableRecord
100
AcDbBlockTableRecord
  2
BLKF024
340
0
102
{BLKREFS
331
105
102
}
  0
BLOCK_RECORD
  5
10F
330
1
100
AcDbSymbolTableRecord
100
AcDbBlockTableRecord
  2
BLKF025
340
0
102
{BLKREFS
331
112
102
}
  0
BLOCK_RECORD
  5
117
330
1
100
AcDbSymbolTableRecord
100
AcDbBlockTableRecord
  2
BLKF026
340
0
102
{BLKREFS
331
11A
102
}
  0
BLOCK_RECORD
  5
11F
330
1
100
AcDbSymbolTableRecord
100
AcDbBlockTableRecord
  2
BLKF027
340
0
102
{BLKREFS
331
122
102
}
  0
BLOCK_RECORD
  5
127
330
1
100
AcDbSymbolTableRecord
100
AcDbBlockTableRecord
  2
BLKF028
340
0
102
{BLKREFS
331
12A
102
}
  0
BLOCK_RECORD
  5
133
330
1
100
AcDbSymbolTableRecord
100
AcDbBlockTableRecord
  2
BLKF029
340
0
102
{BLKREFS
331
136
102
}
  0
BLOCK_RECORD
  5
13B
330
1
100
AcDbSymbolTableRecord
100
AcDbBlockTableRecord
  2
BLKF030
340
0
102
{BLKREFS
331
13E
102
}
  0
BLOCK_RECORD
  5
143
330
1
100
AcDbSymbolTableRecord
100
AcDbBlockTableRecord
  2
BLKF031
340
0
102
{BLKREFS
331
146
102
}
  0
BLOCK_RECORD
  5
151
330
1
100
AcDbSymbolTableRecord
100
AcDbBlockTableRecord
  2
BLKF032
340
0
102
{BLKREFS
331
154
102
}
  0
BLOCK_RECORD
  5
158
330
1
100
AcDbSymbolTableRecord
100
AcDbBlockTableRecord
  2
BLKF033
340
0
102
{BLKREFS
331
15B
102
}
  0
BLOCK_RECORD
  5
15F
330
1
100
AcDbSymbolTableRecord
100
AcDbBlockTableRecord
  2
BLKF034
340
0
102
{BLKREFS
331
162
102
}
  0
BLOCK_RECORD
  5
167
330
1
100
AcDbSymbolTableRecord
100
AcDbBlockTableRecord
  2
BLKF035
340
0
102
{BLKREFS
331
16A
102
}
  0
BLOCK_RECORD
  5
16E
330
1
100
AcDbSymbolTableRecord
100
AcDbBlockTableRecord
  2
BLKF036
340
0
102
{BLKREFS
331
171
102
}
  0
BLOCK_RECORD
  5
178
330
1
100
AcDbSymbolTableRecord
100
AcDbBlockTableRecord
  2
BLKF037
340
0
102
{BLKREFS
331
17B
102
}
  0
BLOCK_RECORD
  5
17F
330
1
100
AcDbSymbolTableRecord
100
AcDbBlockTableRecord
  2
BLKF038
340
0
102
{BLKREFS
331
182
102
}
  0
BLOCK_RECORD
  5
188
330
1
100
AcDbSymbolTableRecord
100
AcDbBlockTableRecord
  2
BLKF039
340
0
102
{BLKREFS
331
18B
102
}
  0
ENDTAB
  0
ENDSEC
  0
SECTION
  2
BLOCKS
  0
BLOCK
  5
20
330
1F
100
AcDbEntity
  8
0
100
AcDbBlockBegin
  2
*Model_Space
 70
     0
 10
0.0
 20
0.0
 30
0.0
  3
*Model_Space
  1

  0
ENDBLK
  5
21
330
1F
100
AcDbEntity
  8
0
100
AcDbBlockEnd
  0
BLOCK
  5
1C
330
1B
100
AcDbEntity
 67
     1
  8
0
100
AcDbBlockBegin
  2
*Paper_Space
 70
     0
 10
0.0
 20
0.0
 30
0.0
  3
*Paper_Space
  1

  0
ENDBLK
  5
1D
330
1B
100
AcDbEntity
 67
     1
  8
0
100
AcDbBlockEnd
  0
BLOCK
  5
24
330
23
100
AcDbEntity
  8
0
100
AcDbBlockBegin
  2
*Paper_Space0
 70
     0
 10
0.0
 20
0.0
 30
0.0
  3
*Paper_Space0
  1

  0
ENDBLK
  5
25
330
23
100
AcDbEntity
  8
0
100
AcDbBlockEnd
  0
BLOCK
  5
47
330
46
100
AcDbEntity
  8
0
100
AcDbBlockBegin
  2
FXTIP_ARROW_S
 70
     0
 10
0.0
 20
0.0
 30
0.0
  3
FXTIP_ARROW_S
  1

  0
LINE
  5
49
330
46
100
AcDbEntity
  8
0
  6
Continuous
 62
     0
370
    -2
100
AcDbLine
 10
0.0
 20
0.0
 30
0.0
 11
-1.0
 21
0.0000000000000001
 31
0.0
  0
LINE
  5
4A
330
46
100
AcDbEntity
  8
0
  6
Continuous
 62
     0
370
    -2
100
AcDbLine
 10
0.0
 20
0.0
 30
0.0
 11
-0.9659258262890683
 21
-0.2588190451025206
 31
0.0
  0
LINE
  5
4B
330
46
100
AcDbEntity
  8
0
  6
Continuous
 62
     0
370
    -2
100
AcDbLine
 10
0.0
 20
0.0
 30
0.0
 11
-0.9659258262890683
 21
0.2588190451025209
 31
0.0
  0
ENDBLK
  5
48
330
46
100
AcDbEntity
  8
0
100
AcDbBlockEnd
  0
BLOCK
  5
4D
330
4C
100
AcDbEntity
  8
0
100
AcDbBlockBegin
  2
FXTIP_ARROW_E
 70
     0
 10
0.0
 20
0.0
 30
0.0
  3
FXTIP_ARROW_E
  1

  0
LINE
  5
4F
330
4C
100
AcDbEntity
  8
0
  6
Continuous
 62
     0
370
    -2
100
AcDbLine
 10
0.0
 20
0.0
 30
0.0
 11
-1.0
 21
0.0
 31
0.0
  0
LINE
  5
50
330
4C
100
AcDbEntity
  8
0
  6
Continuous
 62
     0
370
    -2
100
AcDbLine
 10
0.0
 20
0.0
 30
0.0
 11
-0.9659258262890683
 21
0.2588190451025207
 31
0.0
  0
LINE
  5
51
330
4C
100
AcDbEntity
  8
0
  6
Continuous
 62
     0
370
    -2
100
AcDbLine
 10
0.0
 20
0.0
 30
0.0
 11
-0.9659258262890683
 21
-0.2588190451025207
 31
0.0
  0
ENDBLK
  5
4E
330
4C
100
AcDbEntity
  8
0
100
AcDbBlockEnd
  0
BLOCK
  5
53
330
52
100
AcDbEntity
  8
0
100
AcDbBlockBegin
  2
FXTIP_BLACKDOT_S
 70
     0
 10
0.0
 20
0.0
 30
0.0
  3
FXTIP_BLACKDOT_S
  1

  0
LINE
  5
55
330
52
100
AcDbEntity
  8
0
  6
Continuous
 62
     0
370
    -2
100
AcDbLine
 10
0.0
 20
0.0
 30
0.0
 11
-1.0
 21
0.0000000000000001
 31
0.0
  0
LWPOLYLINE
  5
56
330
52
100
AcDbEntity
  8
0
  6
Continuous
 62
     0
370
    -2
100
AcDbPolyline
 90
        2
 70
     1
 10
-0.25
 20
0.0
 40
0.5
 41
0.5
 42
1.0
 10
0.25
 20
0.0
 40
0.5
 41
0.5
 42
1.0
  0
CIRCLE
  5
57
330
52
100
AcDbEntity
  8
0
  6
Continuous
 62
     0
370
    -2
100
AcDbCircle
 10
0.0
 20
0.0
 30
0.0
 40
0.5
  0
ENDBLK
  5
54
330
52
100
AcDbEntity
  8
0
100
AcDbBlockEnd
  0
BLOCK
  5
59
330
58
100
AcDbEntity
  8
0
100
AcDbBlockBegin
  2
FXTIP_BLACKDOT_E
 70
     0
 10
0.0
 20
0.0
 30
0.0
  3
FXTIP_BLACKDOT_E
  1

  0
LINE
  5
5B
330
58
100
AcDbEntity
  8
0
  6
Continuous
 62
     0
370
    -2
100
AcDbLine
 10
0.0
 20
0.0
 30
0.0
 11
-1.0
 21
0.0
 31
0.0
  0
LWPOLYLINE
  5
5C
330
58
100
AcDbEntity
  8
0
  6
Continuous
 62
     0
370
    -2
100
AcDbPolyline
 90
        2
 70
     1
 10
-0.25
 20
0.0
 40
0.5
 41
0.5
 42
1.0
 10
0.25
 20
0.0
 40
0.5
 41
0.5
 42
1.0
  0
CIRCLE
  5
5D
330
58
100
AcDbEntity
  8
0
  6
Continuous
 62
     0
370
    -2
100
AcDbCircle
 10
0.0
 20
0.0
 30
0.0
 40
0.5
  0
ENDBLK
  5
5A
330
58
100
AcDbEntity
  8
0
100
AcDbBlockEnd
  0
BLOCK
  5
5F
330
5E
100
AcDbEntity
  8
0
100
AcDbBlockBegin
  2
FXTIP_TRIANGLE_S
 70
     0
 10
0.0
 20
0.0
 30
0.0
  3
FXTIP_TRIANGLE_S
  1

  0
LINE
  5
61
330
5E
100
AcDbEntity
  8
0
  6
Continuous
 62
     0
370
    -2
100
AcDbLine
 10
0.0
 20
0.0
 30
0.0
 11
-1.0
 21
0.0000000000000001
 31
0.0
  0
LINE
  5
62
330
5E
100
AcDbEntity
  8
0
  6
Continuous
 62
     0
370
    -2
100
AcDbLine
 10
0.0
 20
0.0
 30
0.0
 11
-0.9659258262890683
 21
-0.2588190451025206
 31
0.0
  0
LINE
  5
63
330
5E
100
AcDbEntity
  8
0
  6
Continuous
 62
     0
370
    -2
100
AcDbLine
 10
0.0
 20
0.0
 30
0.0
 11
-0.9659258262890683
 21
0.2588190451025209
 31
0.0
  0
LINE
  5
64
330
5E
100
AcDbEntity
  8
0
  6
Continuous
 62
     0
370
    -2
100
AcDbLine
 10
-0.9659258262890683
 20
-0.2588190451025206
 30
0.0
 11
-0.9659258262890683
 21
0.2588190451025209
 31
0.0
  0
ENDBLK
  5
60
330
5E
100
AcDbEntity
  8
0
100
AcDbBlockEnd
  0
BLOCK
  5
66
330
65
100
AcDbEntity
  8
0
100
AcDbBlockBegin
  2
FXTIP_TRIANGLE_E
 70
     0
 10
0.0
 20
0.0
 30
0.0
  3
FXTIP_TRIANGLE_E
  1

  0
LINE
  5
68
330
65
100
AcDbEntity
  8
0
  6
Continuous
 62
     0
370
    -2
100
AcDbLine
 10
0.0
 20
0.0
 30
0.0
 11
-1.0
 21
0.0
 31
0.0
  0
LINE
  5
69
330
65
100
AcDbEntity
  8
0
  6
Continuous
 62
     0
370
    -2
100
AcDbLine
 10
0.0
 20
0.0
 30
0.0
 11
-0.9659258262890683
 21
0.2588190451025207
 31
0.0
  0
LINE
  5
6A
330
65
100
AcDbEntity
  8
0
  6
Continuous
 62
     0
370
    -2
100
AcDbLine
 10
0.0
 20
0.0
 30
0.0
 11
-0.9659258262890683
 21
-0.2588190451025207
 31
0.0
  0
LINE
  5
6B
330
65
100
AcDbEntity
  8
0
  6
Continuous
 62
     0
370
    -2
100
AcDbLine
 10
-0.9659258262890683
 20
0.2588190451025207
 30
0.0
 11
-0.9659258262890683
 21
-0.2588190451025207
 31
0.0
  0
ENDBLK
  5
67
330
65
100
AcDbEntity
  8
0
100
AcDbBlockEnd
  0
BLOCK
  5
6D
330
6C
100
AcDbEntity
  8
0
100
AcDbBlockBegin
  2
FXTIP_ARCHITECT_S
 70
     0
 10
0.0
 20
0.0
 30
0.0
  3
FXTIP_ARCHITECT_S
  1

  0
LINE
  5
6F
330
6C
100
AcDbEntity
  8
0
  6
Continuous
 62
     0
370
    -2
100
AcDbLine
 10
0.0
 20
0.0
 30
0.0
 11
-1.0
 21
0.0000000000000001
 31
0.0
  0
LINE
  5
70
330
6C
100
AcDbEntity
  8
0
  6
Continuous
 62
     0
370
    -2
100
AcDbLine
 10
0.0
 20
0.0
 30
0.0
 11
-0.7071067811865476
 21
-0.7071067811865474
 31
0.0
  0
LINE
  5
71
330
6C
100
AcDbEntity
  8
0
  6
Continuous
 62
     0
370
    -2
100
AcDbLine
 10
0.0
 20
0.0
 30
0.0
 11
0.7071067811865476
 21
0.7071067811865474
 31
0.0
  0
ENDBLK
  5
6E
330
6C
100
AcDbEntity
  8
0
100
AcDbBlockEnd
  0
BLOCK
  5
73
330
72
100
AcDbEntity
  8
0
100
AcDbBlockBegin
  2
FXTIP_ARCHITECT_E
 70
     0
 10
0.0
 20
0.0
 30
0.0
  3
FXTIP_ARCHITECT_E
  1

  0
LINE
  5
75
330
72
100
AcDbEntity
  8
0
  6
Continuous
 62
     0
370
    -2
100
AcDbLine
 10
0.0
 20
0.0
 30
0.0
 11
-1.0
 21
0.0
 31
0.0
  0
LINE
  5
76
330
72
100
AcDbEntity
  8
0
  6
Continuous
 62
     0
370
    -2
100
AcDbLine
 10
0.0
 20
0.0
 30
0.0
 11
0.7071067811865475
 21
0.7071067811865475
 31
0.0
  0
LINE
  5
77
330
72
100
AcDbEntity
  8
0
  6
Continuous
 62
     0
370
    -2
100
AcDbLine
 10
0.0
 20
0.0
 30
0.0
 11
-0.7071067811865475
 21
-0.7071067811865475
 31
0.0
  0
ENDBLK
  5
74
330
72
100
AcDbEntity
  8
0
100
AcDbBlockEnd
  0
BLOCK
  5
79
330
78
100
AcDbEntity
  8
0
100
AcDbBlockBegin
  2
FXTIP_CIVIL_S
 70
     0
 10
0.0
 20
0.0
 30
0.0
  3
FXTIP_CIVIL_S
  1

  0
LINE
  5
7B
330
78
100
AcDbEntity
  8
0
  6
Continuous
 62
     0
370
    -2
100
AcDbLine
 10
0.0
 20
0.0
 30
0.0
 11
-1.0
 21
0.0000000000000002
 31
0.0
  0
LINE
  5
7C
330
78
100
AcDbEntity
  8
0
  6
Continuous
 62
     0
370
    -2
100
AcDbLine
 10
0.0
 20
-0.125
 30
0.0
 11
-1.0
 21
-0.1249999999999998
 31
0.0
  0
LINE
  5
7D
330
78
100
AcDbEntity
  8
0
  6
Continuous
 62
     0
370
    -2
100
AcDbLine
 10
0.0
 20
-0.25
 30
0.0
 11
-1.0
 21
-0.2499999999999999
 31
0.0
  0
ENDBLK
  5
7A
330
78
100
AcDbEntity
  8
0
100
AcDbBlockEnd
  0
BLOCK
  5
7F
330
7E
100
AcDbEntity
  8
0
100
AcDbBlockBegin
  2
FXTIP_CIVIL_E
 70
     0
 10
0.0
 20
0.0
 30
0.0
  3
FXTIP_CIVIL_E
  1

  0
LINE
  5
81
330
7E
100
AcDbEntity
  8
0
  6
Continuous
 62
     0
370
    -2
100
AcDbLine
 10
0.0
 20
0.0
 30
0.0
 11
-1.0
 21
0.0
 31
0.0
  0
LINE
  5
82
330
7E
100
AcDbEntity
  8
0
  6
Continuous
 62
     0
370
    -2
100
AcDbLine
 10
0.0
 20
0.125
 30
0.0
 11
-1.0
 21
0.125
 31
0.0
  0
LINE
  5
83
330
7E
100
AcDbEntity
  8
0
  6
Continuous
 62
     0
370
    -2
100
AcDbLine
 10
0.0
 20
0.25
 30
0.0
 11
-1.0
 21
0.25
 31
0.0
  0
ENDBLK
  5
80
330
7E
100
AcDbEntity
  8
0
100
AcDbBlockEnd
  0
BLOCK
  5
85
330
84
100
AcDbEntity
  8
0
100
AcDbBlockBegin
  2
FXTIP_WHITEDOT_S
 70
     0
 10
0.0
 20
0.0
 30
0.0
  3
FXTIP_WHITEDOT_S
  1

  0
LINE
  5
87
330
84
100
AcDbEntity
  8
0
  6
Continuous
 62
     0
370
    -2
100
AcDbLine
 10
0.0
 20
0.0
 30
0.0
 11
-1.0
 21
0.0000000000000001
 31
0.0
  0
CIRCLE
  5
88
330
84
100
AcDbEntity
  8
0
  6
Continuous
 62
     0
370
    -2
100
AcDbCircle
 10
0.0
 20
0.0
 30
0.0
 40
0.5
  0
ENDBLK
  5
86
330
84
100
AcDbEntity
  8
0
100
AcDbBlockEnd
  0
BLOCK
  5
8A
330
89
100
AcDbEntity
  8
0
100
AcDbBlockBegin
  2
FXTIP_WHITEDOT_E
 70
     0
 10
0.0
 20
0.0
 30
0.0
  3
FXTIP_WHITEDOT_E
  1

  0
LINE
  5
8C
330
89
100
AcDbEntity
  8
0
  6
Continuous
 62
     0
370
    -2
100
AcDbLine
 10
0.0
 20
0.0
 30
0.0
 11
-1.0
 21
0.0
 31
0.0
  0
CIRCLE
  5
8D
330
89
100
AcDbEntity
  8
0
  6
Continuous
 62
     0
370
    -2
100
AcDbCircle
 10
0.0
 20
0.0
 30
0.0
 40
0.5
  0
ENDBLK
  5
8B
330
89
100
AcDbEntity
  8
0
100
AcDbBlockEnd
  0
BLOCK
  5
8F
330
8E
100
AcDbEntity
  8
0
100
AcDbBlockBegin
  2
FXTIP_UPARROW_S
 70
     0
 10
0.0
 20
0.0
 30
0.0
  3
FXTIP_UPARROW_S
  1

  0
LINE
  5
91
330
8E
100
AcDbEntity
  8
0
  6
Continuous
 62
     0
370
    -2
100
AcDbLine
 10
0.0
 20
0.0
 30
0.0
 11
-1.0
 21
0.0000000000000001
 31
0.0
  0
LINE
  5
92
330
8E
100
AcDbEntity
  8
0
  6
Continuous
 62
     0
370
    -2
100
AcDbLine
 10
0.0
 20
0.0
 30
0.0
 11
-0.9659258262890683
 21
-0.2588190451025206
 31
0.0
  0
ENDBLK
  5
90
330
8E
100
AcDbEntity
  8
0
100
AcDbBlockEnd
  0
BLOCK
  5
94
330
93
100
AcDbEntity
  8
0
100
AcDbBlockBegin
  2
FXTIP_UPARROW_E
 70
     0
 10
0.0
 20
0.0
 30
0.0
  3
FXTIP_UPARROW_E
  1

  0
LINE
  5
96
330
93
100
AcDbEntity
  8
0
  6
Continuous
 62
     0
370
    -2
100
AcDbLine
 10
0.0
 20
0.0
 30
0.0
 11
-1.0
 21
0.0
 31
0.0
  0
LINE
  5
97
330
93
100
AcDbEntity
  8
0
  6
Continuous
 62
     0
370
    -2
100
AcDbLine
 10
0.0
 20
0.0
 30
0.0
 11
-0.9659258262890683
 21
0.2588190451025207
 31
0.0
  0
ENDBLK
  5
95
330
93
100
AcDbEntity
  8
0
100
AcDbBlockEnd
  0
BLOCK
  5
99
330
98
100
AcDbEntity
  8
0
100
AcDbBlockBegin
  2
FXTIP_DOWNARROW_S
 70
     0
 10
0.0
 20
0.0
 30
0.0
  3
FXTIP_DOWNARROW_S
  1

  0
LINE
  5
9B
330
98
100
AcDbEntity
  8
0
  6
Continuous
 62
     0
370
    -2
100
AcDbLine
 10
0.0
 20
0.0
 30
0.0
 11
-1.0
 21
0.0000000000000001
 31
0.0
  0
LINE
  5
9C
330
98
100
AcDbEntity
  8
0
  6
Continuous
 62
     0
370
    -2
100
AcDbLine
 10
0.0
 20
0.0
 30
0.0
 11
-0.9659258262890683
 21
0.2588190451025209
 31
0.0
  0
ENDBLK
  5
9A
330
98
100
AcDbEntity
  8
0
100
AcDbBlockEnd
  0
BLOCK
  5
9E
330
9D
100
AcDbEntity
  8
0
100
AcDbBlockBegin
  2
FXTIP_DOWNARROW_E
 70
     0
 10
0.0
 20
0.0
 30
0.0
  3
FXTIP_DOWNARROW_E
  1

  0
LINE
  5
A0
330
9D
100
AcDbEntity
  8
0
  6
Continuous
 62
     0
370
    -2
100
AcDbLine
 10
0.0
 20
0.0
 30
0.0
 11
-1.0
 21
0.0
 31
0.0
  0
LINE
  5
A1
330
9D
100
AcDbEntity
  8
0
  6
Continuous
 62
     0
370
    -2
100
AcDbLine
 10
0.0
 20
0.0
 30
0.0
 11
-0.9659258262890683
 21
-0.2588190451025207
 31
0.0
  0
ENDBLK
  5
9F
330
9D
100
AcDbEntity
  8
0
100
AcDbBlockEnd
  0
BLOCK
  5
A3
330
A2
100
AcDbEntity
  8
0
100
AcDbBlockBegin
  2
FXTIP_BLACKTRIANGLE_S
 70
     0
 10
0.0
 20
0.0
 30
0.0
  3
FXTIP_BLACKTRIANGLE_S
  1

  0
LINE
  5
A5
330
A2
100
AcDbEntity
  8
0
  6
Continuous
 62
     0
370
    -2
100
AcDbLine
 10
0.0
 20
0.0
 30
0.0
 11
-1.0
 21
0.0000000000000001
 31
0.0
  0
SOLID
  5
A6
330
A2
100
AcDbEntity
  8
0
  6
Continuous
 62
     0
370
    -2
100
AcDbTrace
 10
0.0
 20
0.0
 30
0.0
 11
-0.9659258262890683
 21
-0.2588190451025206
 31
0.0
 12
-0.9659258262890683
 22
0.2588190451025209
 32
0.0
 13
-0.9659258262890683
 23
0.2588190451025209
 33
0.0
  0
ENDBLK
  5
A4
330
A2
100
AcDbEntity
  8
0
100
AcDbBlockEnd
  0
BLOCK
  5
A8
330
A7
100
AcDbEntity
  8
0
100
AcDbBlockBegin
  2
FXTIP_BLACKTRIANGLE_E
 70
     0
 10
0.0
 20
0.0
 30
0.0
  3
FXTIP_BLACKTRIANGLE_E
  1

  0
LINE
  5
AA
330
A7
100
AcDbEntity
  8
0
  6
Continuous
 62
     0
370
    -2
100
AcDbLine
 10
0.0
 20
0.0
 30
0.0
 11
-1.0
 21
0.0
 31
0.0
  0
SOLID
  5
AB
330
A7
100
AcDbEntity
  8
0
  6
Continuous
 62
     0
370
    -2
100
AcDbTrace
 10
0.0
 20
0.0
 30
0.0
 11
-0.9659258262890683
 21
0.2588190451025207
 31
0.0
 12
-0.9659258262890683
 22
-0.2588190451025207
 32
0.0
 13
-0.9659258262890683
 23
-0.2588190451025207
 33
0.0
  0
ENDBLK
  5
A9
330
A7
100
AcDbEntity
  8
0
100
AcDbBlockEnd
  0
BLOCK
  5
EB
330
EA
100
AcDbEntity
  8
0
100
AcDbBlockBegin
  2
BLKF022
 70
     0
 10
0.0
 20
0.0
 30
0.0
  3
BLKF022
  1

  0
LINE
  5
EF
330
EA
100
AcDbEntity
  8
0_01
  6
Continuous
 62
     4
370
    25
100
AcDbLine
 10
690.7774329463967
 20
159.3603629065851
 30
0.0
 11
726.7774329463967
 21
159.3603629065851
 31
0.0
  0
LINE
  5
F0
330
EA
100
AcDbEntity
  8
0_01
  6
Continuous
 62
     4
370
    25
100
AcDbLine
 10
726.7774329463967
 20
159.3603629065851
 30
0.0
 11
726.7774329463967
 21
148.1103629065851
 31
0.0
  0
ARC
  5
F1
330
EA
100
AcDbEntity
  8
0_01
  6
Continuous
 62
     4
370
    25
100
AcDbCircle
 10
726.7774329463967
 20
146.8603629065851
 30
0.0
 40
1.25
100
AcDbArc
 50
90.0
 51
270.0
  0
LINE
  5
F2
330
EA
100
AcDbEntity
  8
0_01
  6
Continuous
 62
     4
370
    25
100
AcDbLine
 10
726.7774329463967
 20
145.6103629065851
 30
0.0
 11
726.7774329463967
 21
125.8603629065851
 31
0.0
  0
LINE
  5
F3
330
EA
100
AcDbEntity
  8
0_01
  6
Continuous
 62
     4
370
    25
100
AcDbLine
 10
726.7774329463967
 20
125.8603629065851
 30
0.0
 11
725.2774329463967
 21
124.3603629065851
 31
0.0
  0
LINE
  5
F4
330
EA
100
AcDbEntity
  8
0_01
  6
Continuous
 62
     4
370
    25
100
AcDbLine
 10
725.2774329463967
 20
124.3603629065851
 30
0.0
 11
692.2774329463967
 21
124.3603629065851
 31
0.0
  0
LINE
  5
F5
330
EA
100
AcDbEntity
  8
0_01
  6
Continuous
 62
     4
370
    25
100
AcDbLine
 10
692.2774329463967
 20
124.3603629065851
 30
0.0
 11
690.7774329463967
 21
125.8603629065851
 31
0.0
  0
LINE
  5
F6
330
EA
100
AcDbEntity
  8
0_01
  6
Continuous
 62
     4
370
    25
100
AcDbLine
 10
690.7774329463967
 20
125.8603629065851
 30
0.0
 11
690.7774329463967
 21
145.6103629065851
 31
0.0
  0
ARC
  5
F7
330
EA
100
AcDbEntity
  8
0_01
  6
Continuous
 62
     4
370
    25
100
AcDbCircle
 10
690.7774329463967
 20
146.8603629065851
 30
0.0
 40
1.25
100
AcDbArc
 50
270.0
 51
90.0
  0
LINE
  5
F8
330
EA
100
AcDbEntity
  8
0_01
  6
Continuous
 62
     4
370
    25
100
AcDbLine
 10
690.7774329463967
 20
148.1103629065851
 30
0.0
 11
690.7774329463967
 21
159.3603629065851
 31
0.0
  0
ENDBLK
  5
EC
330
EA
100
AcDbEntity
  8
0
100
AcDbBlockEnd
  0
BLOCK
  5
FA
330
F9
100
AcDbEntity
  8
0
100
AcDbBlockBegin
  2
BLKF023
 70
     0
 10
0.0
 20
0.0
 30
0.0
  3
BLKF023
  1

  0
LINE
  5
FD
330
F9
100
AcDbEntity
  8
0_01
  6
Continuous
 62
     4
370
    25
100
AcDbLine
 10
690.7774329463967
 20
155.3603629065851
 30
0.0
 11
701.1510385463969
 21
152.3964756065851
 31
0.0
  0
ARC
  5
FE
330
F9
100
AcDbEntity
  8
0_01
  6
Continuous
 62
     4
370
    25
100
AcDbCircle
 10
699.7774296718785
 20
147.5888533871251
 30
0.0
 40
5.000003274519031
100
AcDbArc
 50
0.0
 51
74.05457626587283
  0
LINE
  5
FF
330
F9
100
AcDbEntity
  8
0_01
  6
Continuous
 62
     4
370
    25
100
AcDbLine
 10
704.7774329463967
 20
147.5888558065851
 30
0.0
 11
704.7774329463967
 21
138.631869906585
 31
0.0
  0
ARC
  5
100
330
F9
100
AcDbEntity
  8
0_01
  6
Continuous
 62
     4
370
    25
100
AcDbCircle
 10
699.7774297381648
 20
138.631872376045
 30
0.0
 40
5.000003208232556
100
AcDbArc
 50
285.9454231611698
 51
0.0
  0
LINE
  5
101
330
F9
100
AcDbEntity
  8
0_01
  6
Continuous
 62
     4
370
    25
100
AcDbLine
 10
701.1510385463969
 20
133.8242502065851
 30
0.0
 11
690.7774329463967
 21
130.8603629065851
 31
0.0
  0
ENDBLK
  5
FB
330
F9
100
AcDbEntity
  8
0
100
AcDbBlockEnd
  0
BLOCK
  5
103
330
102
100
AcDbEntity
  8
0
100
AcDbBlockBegin
  2
BLKF024
 70
     0
 10
0.0
 20
0.0
 30
0.0
  3
BLKF024
  1

  0
LINE
  5
106
330
102
100
AcDbEntity
  8
0_01
  6
Continuous
 62
     4
370
    25
100
AcDbLine
 10
726.7774329463967
 20
155.3603629065851
 30
0.0
 11
716.4038272463969
 21
152.3964756065851
 31
0.0
  0
ARC
  5
107
330
102
100
AcDbEntity
  8
0_01
  6
Continuous
 62
     4
370
    25
100
AcDbCircle
 10
717.7774361709153
 20
147.5888534534118
 30
0.0
 40
5.000003224518968
100
AcDbArc
 50
105.9454244937148
 51
180.0
  0
LINE
  5
108
330
102
100
AcDbEntity
  8
0_01
  6
Continuous
 62
     4
370
    25
100
AcDbLine
 10
712.7774329463967
 20
147.5888558065851
 30
0.0
 11
712.7774329463967
 21
138.631869906585
 31
0.0
  0
ARC
  5
109
330
102
100
AcDbEntity
  8
0_01
  6
Continuous
 62
     4
370
    25
100
AcDbCircle
 10
717.7774361046284
 20
138.6318723097584
 30
0.0
 40
5.000003158232312
100
AcDbArc
 50
180.0
 51
254.0545760792443
  0
LINE
  5
10A
330
102
100
AcDbEntity
  8
0_01
  6
Continuous
 62
     4
370
    25
100
AcDbLine
 10
716.4038272463969
 20
133.8242502065851
 30
0.0
 11
726.7774329463967
 21
130.8603629065851
 31
0.0
  0
ENDBLK
  5
104
330
102
100
AcDbEntity
  8
0
100
AcDbBlockEnd
  0
BLOCK
  5
110
330
10F
100
AcDbEntity
  8
0
100
AcDbBlockBegin
  2
BLKF025
 70
     0
 10
0.0
 20
0.0
 30
0.0
  3
BLKF025
  1

  0
LINE
  5
113
330
10F
100
AcDbEntity
  8
0_01
  6
Continuous
 62
     4
370
    25
100
AcDbLine
 10
703.2774329463967
 20
134.8603629065851
 30
0.0
 11
703.2774329463967
 21
130.8603629065852
 31
0.0
  0
LINE
  5
114
330
10F
100
AcDbEntity
  8
0_01
  6
Continuous
 62
     4
370
    25
100
AcDbLine
 10
703.7774329463967
 20
131.3603629065852
 30
0.0
 11
713.7774329463967
 21
131.3603629065852
 31
0.0
  0
LINE
  5
115
330
10F
100
AcDbEntity
  8
0_01
  6
Continuous
 62
     4
370
    25
100
AcDbLine
 10
714.2774329463967
 20
130.8603629065852
 30
0.0
 11
714.2774329463967
 21
134.8603629065851
 31
0.0
  0
LINE
  5
116
330
10F
100
AcDbEntity
  8
0_01
  6
Continuous
 62
     4
370
    25
100
AcDbLine
 10
714.2774329463967
 20
134.8603629065851
 30
0.0
 11
703.2774329463967
 21
134.8603629065851
 31
0.0
  0
ENDBLK
  5
111
330
10F
100
AcDbEntity
  8
0
100
AcDbBlockEnd
  0
BLOCK
  5
118
330
117
100
AcDbEntity
  8
0
100
AcDbBlockBegin
  2
BLKF026
 70
     0
 10
0.0
 20
0.0
 30
0.0
  3
BLKF026
  1

  0
LINE
  5
11B
330
117
100
AcDbEntity
  8
0_01
  6
Continuous
 62
     4
370
    25
100
AcDbLine
 10
714.2774329463967
 20
151.3603629065851
 30
0.0
 11
714.2774329463967
 21
156.3603629065851
 31
0.0
  0
LINE
  5
11C
330
117
100
AcDbEntity
  8
0_01
  6
Continuous
 62
     4
370
    25
100
AcDbLine
 10
713.7774329463967
 20
155.8603629065851
 30
0.0
 11
703.7774329463967
 21
155.8603629065851
 31
0.0
  0
LINE
  5
11D
330
117
100
AcDbEntity
  8
0_01
  6
Continuous
 62
     4
370
    25
100
AcDbLine
 10
703.2774329463967
 20
156.3603629065851
 30
0.0
 11
703.2774329463967
 21
151.3603629065851
 31
0.0
  0
LINE
  5
11E
330
117
100
AcDbEntity
  8
0_01
  6
Continuous
 62
     4
370
    25
100
AcDbLine
 10
703.2774329463967
 20
151.3603629065851
 30
0.0
 11
714.2774329463967
 21
151.3603629065851
 31
0.0
  0
ENDBLK
  5
119
330
117
100
AcDbEntity
  8
0
100
AcDbBlockEnd
  0
BLOCK
  5
120
330
11F
100
AcDbEntity
  8
0
100
AcDbBlockBegin
  2
BLKF027
 70
     0
 10
0.0
 20
0.0
 30
0.0
  3
BLKF027
  1

  0
LINE
  5
123
330
11F
100
AcDbEntity
  8
0_01
  6
Continuous
 62
     4
370
    25
100
AcDbLine
 10
807.1924076148794
 20
154.3603629011581
 30
0.0
 11
807.1924076148794
 21
124.3603629011581
 31
0.0
  0
LINE
  5
124
330
11F
100
AcDbEntity
  8
0_01
  6
Continuous
 62
     4
370
    25
100
AcDbLine
 10
807.1924076148794
 20
124.3603629011581
 30
0.0
 11
843.1924076148794
 21
124.3603629011581
 31
0.0
  0
LINE
  5
125
330
11F
100
AcDbEntity
  8
0_01
  6
Continuous
 62
     4
370
    25
100
AcDbLine
 10
843.1924076148794
 20
124.3603629011581
 30
0.0
 11
843.1924076148794
 21
154.3603629011581
 31
0.0
  0
LINE
  5
126
330
11F
100
AcDbEntity
  8
0_01
  6
Continuous
 62
     4
370
    25
100
AcDbLine
 10
843.1924076148794
 20
154.3603629011581
 30
0.0
 11
807.1924076148794
 21
154.3603629011581
 31
0.0
  0
ENDBLK
  5
121
330
11F
100
AcDbEntity
  8
0
100
AcDbBlockEnd
  0
BLOCK
  5
128
330
127
100
AcDbEntity
  8
0
100
AcDbBlockBegin
  2
BLKF028
 70
     0
 10
0.0
 20
0.0
 30
0.0
  3
BLKF028
  1

  0
LINE
  5
12B
330
127
100
AcDbEntity
  8
0_01
  6
Continuous
 62
     4
370
    25
100
AcDbLine
 10
817.6924076148794
 20
152.860362901158
 30
0.0
 11
817.6924076148794
 21
139.017798701158
 31
0.0
  0
LINE
  5
12C
330
127
100
AcDbEntity
  8
0_01
  6
Continuous
 62
     4
370
    25
100
AcDbLine
 10
817.6924076148794
 20
139.017798701158
 30
0.0
 11
808.6924076148794
 21
138.017798701158
 31
0.0
  0
LINE
  5
12D
330
127
100
AcDbEntity
  8
0_01
  6
Continuous
 62
     4
370
    25
100
AcDbLine
 10
808.6924076148794
 20
138.017798701158
 30
0.0
 11
808.6924076148794
 21
125.8603629011581
 31
0.0
  0
LINE
  5
12E
330
127
100
AcDbEntity
  8
0_01
  6
Continuous
 62
     4
370
    25
100
AcDbLine
 10
808.6924076148794
 20
125.8603629011581
 30
0.0
 11
841.6924076148794
 21
125.8603629011581
 31
0.0
  0
LINE
  5
12F
330
127
100
AcDbEntity
  8
0_01
  6
Continuous
 62
     4
370
    25
100
AcDbLine
 10
841.6924076148794
 20
125.8603629011581
 30
0.0
 11
841.6924076148794
 21
138.017798701158
 31
0.0
  0
LINE
  5
130
330
127
100
AcDbEntity
  8
0_01
  6
Continuous
 62
     4
370
    25
100
AcDbLine
 10
841.6924076148794
 20
138.017798701158
 30
0.0
 11
832.6924076148794
 21
139.017798701158
 31
0.0
  0
LINE
  5
131
330
127
100
AcDbEntity
  8
0_01
  6
Continuous
 62
     4
370
    25
100
AcDbLine
 10
832.6924076148794
 20
139.017798701158
 30
0.0
 11
832.6924076148794
 21
152.860362901158
 31
0.0
  0
LINE
  5
132
330
127
100
AcDbEntity
  8
0_01
  6
Continuous
 62
     4
370
    25
100
AcDbLine
 10
832.6924076148794
 20
152.860362901158
 30
0.0
 11
817.6924076148794
 21
152.860362901158
 31
0.0
  0
ENDBLK
  5
129
330
127
100
AcDbEntity
  8
0
100
AcDbBlockEnd
  0
BLOCK
  5
134
330
133
100
AcDbEntity
  8
0
100
AcDbBlockBegin
  2
BLKF029
 70
     0
 10
0.0
 20
0.0
 30
0.0
  3
BLKF029
  1

  0
LINE
  5
137
330
133
100
AcDbEntity
  8
0_01
  6
Continuous
 62
     4
370
    25
100
AcDbLine
 10
808.6924076148794
 20
138.017798701158
 30
0.0
 11
807.1924076148794
 21
139.360362901158
 31
0.0
  0
LINE
  5
138
330
133
100
AcDbEntity
  8
0_01
  6
Continuous
 62
     4
370
    25
100
AcDbLine
 10
807.1924076148794
 20
139.360362901158
 30
0.0
 11
816.1924076148794
 21
140.360362901158
 31
0.0
  0
LINE
  5
139
330
133
100
AcDbEntity
  8
0_01
  6
Continuous
 62
     4
370
    25
100
AcDbLine
 10
816.1924076148794
 20
140.360362901158
 30
0.0
 11
816.1924076148794
 21
154.3603629011581
 31
0.0
  0
LINE
  5
13A
330
133
100
AcDbEntity
  8
0_01
  6
Continuous
 62
     4
370
    25
100
AcDbLine
 10
816.1924076148794
 20
154.3603629011581
 30
0.0
 11
817.6924076148794
 21
152.860362901158
 31
0.0
  0
ENDBLK
  5
135
330
133
100
AcDbEntity
  8
0
100
AcDbBlockEnd
  0
BLOCK
  5
13C
330
13B
100
AcDbEntity
  8
0
100
AcDbBlockBegin
  2
BLKF030
 70
     0
 10
0.0
 20
0.0
 30
0.0
  3
BLKF030
  1

  0
LINE
  5
13F
330
13B
100
AcDbEntity
  8
0_01
  6
Continuous
 62
     4
370
    25
100
AcDbLine
 10
832.6924076148794
 20
152.860362901158
 30
0.0
 11
834.1924076148794
 21
154.3603629011581
 31
0.0
  0
LINE
  5
140
330
13B
100
AcDbEntity
  8
0_01
  6
Continuous
 62
     4
370
    25
100
AcDbLine
 10
834.1924076148794
 20
154.3603629011581
 30
0.0
 11
834.1924076148794
 21
140.360362901158
 31
0.0
  0
LINE
  5
141
330
13B
100
AcDbEntity
  8
0_01
  6
Continuous
 62
     4
370
    25
100
AcDbLine
 10
834.1924076148794
 20
140.360362901158
 30
0.0
 11
843.1924076148794
 21
139.360362901158
 31
0.0
  0
LINE
  5
142
330
13B
100
AcDbEntity
  8
0_01
  6
Continuous
 62
     4
370
    25
100
AcDbLine
 10
843.1924076148794
 20
139.360362901158
 30
0.0
 11
841.6924076148794
 21
138.017798701158
 31
0.0
  0
ENDBLK
  5
13D
330
13B
100
AcDbEntity
  8
0
100
AcDbBlockEnd
  0
BLOCK
  5
144
330
143
100
AcDbEntity
  8
0
100
AcDbBlockBegin
  2
BLKF031
 70
     0
 10
0.0
 20
0.0
 30
0.0
  3
BLKF031
  1

  0
LINE
  5
147
330
143
100
AcDbEntity
  8
0_01
  6
Continuous
 62
     4
370
    25
100
AcDbLine
 10
819.6924076148794
 20
154.3603629011581
 30
0.0
 11
820.1924076148794
 21
155.960362901158
 31
0.0
  0
LINE
  5
148
330
143
100
AcDbEntity
  8
0_01
  6
Continuous
 62
     4
370
    25
100
AcDbLine
 10
820.1924076148794
 20
155.960362901158
 30
0.0
 11
830.1924076148794
 21
155.960362901158
 31
0.0
  0
LINE
  5
149
330
143
100
AcDbEntity
  8
0_01
  6
Continuous
 62
     4
370
    25
100
AcDbLine
 10
830.1924076148794
 20
155.960362901158
 30
0.0
 11
830.6924076148794
 21
154.3603629011581
 31
0.0
  0
ENDBLK
  5
145
330
143
100
AcDbEntity
  8
0
100
AcDbBlockEnd
  0
BLOCK
  5
152
330
151
100
AcDbEntity
  8
0
100
AcDbBlockBegin
  2
BLKF032
 70
     0
 10
0.0
 20
0.0
 30
0.0
  3
BLKF032
  1

  0
LINE
  5
155
330
151
100
AcDbEntity
  8
0_01
  6
Continuous
 62
     4
370
    25
100
AcDbLine
 10
769.0959607935844
 20
154.360362877519
 30
0.0
 11
773.07759344318
 21
142.4352178759844
 31
0.0
  0
ARC
  5
156
330
151
100
AcDbEntity
  8
0_01
  6
Continuous
 62
     4
370
    25
100
AcDbCircle
 10
777.3459607737401
 20
143.8603625431927
 30
0.0
 40
4.499999665673704
100
AcDbArc
 50
198.4634016251569
 51
341.5365982284282
  0
LINE
  5
157
330
151
100
AcDbEntity
  8
0_01
  6
Continuous
 62
     4
370
    25
100
AcDbLine
 10
781.6143281006582
 20
142.4352178650767
 30
0.0
 11
785.5959608254497
 21
154.3603629011581
 31
0.0
  0
ENDBLK
  5
153
330
151
100
AcDbEntity
  8
0
100
AcDbBlockEnd
  0
BLOCK
  5
159
330
158
100
AcDbEntity
  8
0
100
AcDbBlockBegin
  2
BLKF033
 70
     0
 10
0.0
 20
0.0
 30
0.0
  3
BLKF033
  1

  0
LINE
  5
15C
330
158
100
AcDbEntity
  8
0_01
  6
Continuous
 62
     4
370
    25
100
AcDbLine
 10
769.0959607935844
 20
154.360362877519
 30
0.0
 11
769.0959607648352
 21
131.860255312584
 31
0.0
  0
LINE
  5
15D
330
158
100
AcDbEntity
  8
0_01
  6
Continuous
 62
     4
370
    25
100
AcDbLine
 10
769.0959607648352
 20
131.860255312584
 30
0.0
 11
785.5959607967011
 21
131.860255336223
 31
0.0
  0
LINE
  5
15E
330
158
100
AcDbEntity
  8
0_01
  6
Continuous
 62
     4
370
    25
100
AcDbLine
 10
785.5959607967011
 20
131.860255336223
 30
0.0
 11
785.5959608254497
 21
154.3603629011581
 31
0.0
  0
ENDBLK
  5
15A
330
158
100
AcDbEntity
  8
0
100
AcDbBlockEnd
  0
BLOCK
  5
160
330
15F
100
AcDbEntity
  8
0
100
AcDbBlockBegin
  2
BLKF034
 70
     0
 10
0.0
 20
0.0
 30
0.0
  3
BLKF034
  1

  0
LINE
  5
163
330
15F
100
AcDbEntity
  8
0_01
  6
Continuous
 62
     4
370
    25
100
AcDbLine
 10
765.0959607788899
 20
139.3602553037202
 30
0.0
 11
765.095960812112
 21
130.3602553473227
 31
0.0
  0
LINE
  5
164
330
15F
100
AcDbEntity
  8
0_01
  6
Continuous
 62
     4
370
    25
100
AcDbLine
 10
765.095960812112
 20
130.3602553473227
 30
0.0
 11
779.8459608070809
 21
130.3602553015524
 31
0.0
  0
LINE
  5
165
330
15F
100
AcDbEntity
  8
0_01
  6
Continuous
 62
     4
370
    25
100
AcDbLine
 10
789.5959607455912
 20
130.3602552712973
 30
0.0
 11
789.5959607762566
 21
154.3603628513257
 31
0.0
  0
LINE
  5
166
330
15F
100
AcDbEntity
  8
0_01
  6
Continuous
 62
     4
370
    25
100
AcDbLine
 10
782.3459608070809
 20
130.3602552937946
 30
0.0
 11
789.5959607455912
 21
130.3602552712973
 31
0.0
  0
ENDBLK
  5
161
330
15F
100
AcDbEntity
  8
0
100
AcDbBlockEnd
  0
BLOCK
  5
168
330
167
100
AcDbEntity
  8
0
100
AcDbBlockBegin
  2
BLKF035
 70
     0
 10
0.0
 20
0.0
 30
0.0
  3
BLKF035
  1

  0
LINE
  5
16B
330
167
100
AcDbEntity
  8
0_01
  6
Continuous
 62
     4
370
    25
100
AcDbLine
 10
785.5959607871179
 20
124.3602552607552
 30
0.0
 11
786.0959607498553
 21
126.2602552792346
 31
0.0
  0
LINE
  5
16C
330
167
100
AcDbEntity
  8
0_01
  6
Continuous
 62
     4
370
    25
100
AcDbLine
 10
786.0959607498553
 20
126.2602552792346
 30
0.0
 11
790.5959607951362
 21
126.2602552734852
 31
0.0
  0
LINE
  5
16D
330
167
100
AcDbEntity
  8
0_01
  6
Continuous
 62
     4
370
    25
100
AcDbLine
 10
790.5959607951362
 20
126.2602552734852
 30
0.0
 11
791.0959607977398
 21
124.3602553431705
 31
0.0
  0
ENDBLK
  5
169
330
167
100
AcDbEntity
  8
0
100
AcDbBlockEnd
  0
BLOCK
  5
16F
330
16E
100
AcDbEntity
  8
0
100
AcDbBlockBegin
  2
BLKF036
 70
     0
 10
0.0
 20
0.0
 30
0.0
  3
BLKF036
  1

  0
LINE
  5
172
330
16E
100
AcDbEntity
  8
0_01
  6
Continuous
 62
     4
370
    25
100
AcDbLine
 10
765.0959608044456
 20
124.3602552869482
 30
0.0
 11
765.595960767183
 21
126.2602553054281
 31
0.0
  0
LINE
  5
173
330
16E
100
AcDbEntity
  8
0_01
  6
Continuous
 62
     4
370
    25
100
AcDbLine
 10
765.595960767183
 20
126.2602553054281
 30
0.0
 11
769.5959608074326
 21
126.2602553003171
 31
0.0
  0
LINE
  5
174
330
16E
100
AcDbEntity
  8
0_01
  6
Continuous
 62
     4
370
    25
100
AcDbLine
 10
769.5959608074326
 20
126.2602553003171
 30
0.0
 11
770.0959607205938
 21
124.3602553252811
 31
0.0
  0
ENDBLK
  5
170
330
16E
100
AcDbEntity
  8
0
100
AcDbBlockEnd
  0
BLOCK
  5
179
330
178
100
AcDbEntity
  8
0
100
AcDbBlockBegin
  2
BLKF037
 70
     0
 10
0.0
 20
0.0
 30
0.0
  3
BLKF037
  1

  0
LINE
  5
17C
330
178
100
AcDbEntity
  8
0_01
  6
Continuous
 62
     4
370
    25
100
AcDbLine
 10
765.0959607935843
 20
154.3603628462138
 30
0.0
 11
765.5959607935841
 21
155.9603628250839
 31
0.0
  0
LINE
  5
17D
330
178
100
AcDbEntity
  8
0_01
  6
Continuous
 62
     4
370
    25
100
AcDbLine
 10
765.5959607935841
 20
155.9603628250839
 30
0.0
 11
768.2959607935843
 21
155.9603628518211
 31
0.0
  0
LINE
  5
17E
330
178
100
AcDbEntity
  8
0_01
  6
Continuous
 62
     4
370
    25
100
AcDbLine
 10
768.2959607935843
 20
155.9603628518211
 30
0.0
 11
769.0959607856825
 21
154.3603628762412
 31
0.0
  0
ENDBLK
  5
17A
330
178
100
AcDbEntity
  8
0
100
AcDbBlockEnd
  0
BLOCK
  5
180
330
17F
100
AcDbEntity
  8
0
100
AcDbBlockBegin
  2
BLKF038
 70
     0
 10
0.0
 20
0.0
 30
0.0
  3
BLKF038
  1

  0
LINE
  5
183
330
17F
100
AcDbEntity
  8
0_01
  6
Continuous
 62
     4
370
    25
100
AcDbLine
 10
785.5959608254497
 20
154.3603629011581
 30
0.0
 11
786.0959608329082
 21
155.9603627889882
 31
0.0
  0
LINE
  5
184
330
17F
100
AcDbEntity
  8
0_01
  6
Continuous
 62
     4
370
    25
100
AcDbLine
 10
786.0959608329082
 20
155.9603627889882
 30
0.0
 11
790.0959608329082
 21
155.9603627838772
 31
0.0
  0
LINE
  5
185
330
17F
100
AcDbEntity
  8
0_01
  6
Continuous
 62
     4
370
    25
100
AcDbLine
 10
790.0959608329082
 20
155.9603627838772
 30
0.0
 11
790.5959607460693
 21
154.3603628500479
 31
0.0
  0
ENDBLK
  5
181
330
17F
100
AcDbEntity
  8
0
100
AcDbBlockEnd
  0
BLOCK
  5
189
330
188
100
AcDbEntity
  8
0
100
AcDbBlockBegin
  2
BLKF039
 70
     0
 10
0.0
 20
0.0
 30
0.0
  3
BLKF039
  1

  0
LINE
  5
18C
330
188
100
AcDbEntity
  8
0_01
  6
Continuous
 62
     4
370
    25
100
AcDbLine
 10
760.0959607901053
 20
140.360255357439
 30
0.0
 11
767.5959608053238
 21
140.3602553105884
 31
0.0
  0
LINE
  5
18D
330
188
100
AcDbEntity
  8
0_01
  6
Continuous
 62
     4
370
    25
100
AcDbLine
 10
767.5959608053238
 20
140.3602553105884
 30
0.0
 11
765.0959607788899
 21
139.3602553037202
 31
0.0
  0
LINE
  5
18E
330
188
100
AcDbEntity
  8
0_01
  6
Continuous
 62
     4
370
    25
100
AcDbLine
 10
765.0959607788899
 20
139.3602553037202
 30
0.0
 11
760.0959607888926
 21
139.3602553445098
 31
0.0
  0
ENDBLK
  5
18A
330
188
100
AcDbEntity
  8
0
100
AcDbBlockEnd
  0
ENDSEC
  0
SECTION
  2
ENTITIES
  0
LINE
  5
AF
330
1F
100
AcDbEntity
  8
GR1_01
  6
Continuous
 62
     3
370
    35
100
AcDbLine
 10
915.8459631723163
 20
234.3603628775189
 30
0.0
 11
638.8459735971592
 21
234.3603628775189
 31
0.0
  0
LINE
  5
B0
330
1F
100
AcDbEntity
  8
GR1_01
  6
Continuous
 62
     3
370
    35
100
AcDbLine
 10
638.8459735971592
 20
234.3603628775189
 30
0.0
 11
638.8459583230394
 21
44.36036287751899
 31
0.0
  0
LINE
  5
B1
330
1F
100
AcDbEntity
  8
GR1_01
  6
Continuous
 62
     3
370
    35
100
AcDbLine
 10
638.8459583230394
 20
44.36036287751899
 30
0.0
 11
915.8459578017973
 21
44.36036287751895
 31
0.0
  0
LINE
  5
B2
330
1F
100
AcDbEntity
  8
GR1_01
  6
Continuous
 62
     3
370
    35
100
AcDbLine
 10
915.8459578017973
 20
44.36036287751895
 30
0.0
 11
915.8459631723163
 21
234.3603628775189
 31
0.0
  0
LINE
  5
B3
330
1F
100
AcDbEntity
  8
GR1_01
  6
Continuous
 62
     3
370
    35
100
AcDbLine
 10
914.8459631440505
 20
233.3603628775189
 30
0.0
 11
639.8459735167694
 21
233.360362877519
 31
0.0
  0
LINE
  5
B4
330
1F
100
AcDbEntity
  8
GR1_01
  6
Continuous
 62
     3
370
    35
100
AcDbLine
 10
639.8459735167694
 20
233.360362877519
 30
0.0
 11
639.8459584034297
 21
45.36036287751899
 31
0.0
  0
LINE
  5
B5
330
1F
100
AcDbEntity
  8
GR1_01
  6
Continuous
 62
     3
370
    35
100
AcDbLine
 10
639.8459584034297
 20
45.36036287751899
 30
0.0
 11
914.8459578300631
 21
45.36036287751895
 31
0.0
  0
LINE
  5
B6
330
1F
100
AcDbEntity
  8
GR1_01
  6
Continuous
 62
     3
370
    35
100
AcDbLine
 10
914.8459578300631
 20
45.36036287751895
 30
0.0
 11
914.8459631440505
 21
233.3603628775189
 31
0.0
  0
LINE
  5
B7
330
1F
100
AcDbEntity
  8
GR1_01
  6
Continuous
 62
     4
370
    25
100
AcDbLine
 10
836.7932121129081
 20
66.86116845022475
 30
0.0
 11
911.7932365269706
 21
66.86116845022475
 31
0.0
  0
LINE
  5
B8
330
1F
100
AcDbEntity
  8
GR1_01
  6
Continuous
 62
     4
370
    25
100
AcDbLine
 10
911.7932365269706
 20
60.86116845022475
 30
0.0
 11
836.7932121129081
 21
60.86116845022475
 31
0.0
  0
LINE
  5
B9
330
1F
100
AcDbEntity
  8
GR1_01
  6
Continuous
 62
     4
370
    25
100
AcDbLine
 10
836.7932121129081
 20
54.86117150198257
 30
0.0
 11
911.7932365269706
 21
54.86117150198257
 31
0.0
  0
LINE
  5
BA
330
1F
100
AcDbEntity
  8
GR1_01
  6
Continuous
 62
     4
370
    25
100
AcDbLine
 10
836.7932121129081
 20
48.86116997610365
 30
0.0
 11
836.7932121129081
 21
66.86116845022475
 31
0.0
  0
LINE
  5
BB
330
1F
100
AcDbEntity
  8
GR1_01
  6
Continuous
 62
     4
370
    25
100
AcDbLine
 10
851.7932121129081
 20
66.86116845022475
 30
0.0
 11
851.7932121129081
 21
54.86117150198257
 31
0.0
  0
LINE
  5
BC
330
1F
100
AcDbEntity
  8
GR1_01
  6
Continuous
 62
     4
370
    25
100
AcDbLine
 10
874.2932243199393
 20
54.86117150198257
 30
0.0
 11
874.2932243199393
 21
60.86116845022475
 31
0.0
  0
TEXT
  5
E0
330
1F
100
AcDbEntity
  8
GR1_01
  6
Continuous
 62
     7
370
    13
100
AcDbText
 10
841.7432617187501
 20
62.33593139648438
 30
0.0
 40
2.693359375
  1
図名
 41
0.728286927866312
  7
STYLE003
 11
841.7432617187501
 21
63.68261108398438
 31
0.0
100
AcDbText
 73
     2
  0
TEXT
  5
E1
330
1F
100
AcDbEntity
  8
GR1_01
  6
Continuous
 62
     7
370
    13
100
AcDbText
 10
841.7432617187501
 20
56.30437622070313
 30
0.0
 40
2.693359375
  1
尺度
 41
0.728286927866312
  7
STYLE003
 11
841.7432617187501
 21
57.65105590820313
 31
0.0
100
AcDbText
 73
     2
  0
TEXT
  5
E2
330
1F
100
AcDbEntity
  8
GR1_01
  6
Continuous
 62
     7
370
    13
100
AcDbText
 10
876.4431640625
 20
56.30437622070313
 30
0.0
 40
2.693359375
  1
参考重量
 41
0.7639872681351801
  7
STYLE003
 11
876.4431640625
 21
57.65105590820313
 31
0.0
100
AcDbText
 73
     2
  0
TEXT
  5
E3
330
1F
100
AcDbEntity
  8
GR1_01
  6
Continuous
 62
     7
370
    13
100
AcDbText
 10
854.9431640625
 20
50.27282104492188
 30
0.0
 40
2.693359375
  1
小倉セメント製品工業株式会社
 41
0.7894875111843715
  7
STYLE003
 11
854.9431640625
 21
51.61950073242188
 31
0.0
100
AcDbText
 73
     2
  0
LINE
  5
E4
330
1F
100
AcDbEntity
  8
GR1_01
  6
Continuous
 62
     4
370
    25
100
AcDbLine
 10
889.2932731480644
 20
60.86116845022475
 30
0.0
 11
889.2932731480644
 21
54.86117150198257
 31
0.0
  0
TEXT
  5
E5
330
1F
100
AcDbEntity
  8
GR1_01
  6
Continuous
 62
     7
370
    13
100
AcDbText
 10
858.4431640625
 20
56.46738891601563
 30
0.0
 40
2.693359375
  1
１／１０
 41
0.6568862473285756
  7
STYLE003
 11
858.4431640625
 21
57.81406860351563
 31
0.0
100
AcDbText
 73
     2
  0
TEXT
  5
E6
330
1F
100
AcDbEntity
  8
GR1_01
  6
Continuous
 62
     7
370
    13
100
AcDbText
 10
892.451953125
 20
56.30437622070313
 30
0.0
 40
2.693359375
  1
４９　ｋｇ
 41
0.6568862473285756
  7
STYLE003
 11
892.451953125
 21
57.65105590820313
 31
0.0
100
AcDbText
 73
     2
  0
TEXT
  5
E7
330
1F
100
AcDbEntity
  8
GR1_01
  6
Continuous
 62
     7
370
    13
100
AcDbText
 10
860.22509765625
 20
62.26218872070313
 30
0.0
 40
2.693359375
  1
エコンインセクター　基本ブロック
 41
0.6568862473285755
  7
STYLE003
 11
860.22509765625
 21
63.60886840820313
 31
0.0
100
AcDbText
 73
     2
  0
LINE
  5
E8
330
1F
100
AcDbEntity
  8
GR1_01
  6
Continuous
 62
     4
370
    25
100
AcDbLine
 10
911.7932365269706
 20
66.86116845022475
 30
0.0
 11
911.7932365269706
 21
48.86116997610365
 31
0.0
  0
LINE
  5
E9
330
1F
100
AcDbEntity
  8
GR1_01
  6
Continuous
 62
     4
370
    25
100
AcDbLine
 10
836.7932121129081
 20
48.86116997610366
 30
0.0
 11
911.7932365269706
 21
48.86116997610365
 31
0.0
  0
INSERT
  5
EE
330
1F
100
AcDbEntity
  8
0_01
  6
Continuous
 62
     4
370
    25
100
AcDbBlockReference
  2
BLKF022
 10
0.0
 20
0.0
 30
0.0
  0
INSERT
  5
FC
330
1F
100
AcDbEntity
  8
0_01
  6
Continuous
 62
     4
370
    25
100
AcDbBlockReference
  2
BLKF023
 10
0.0
 20
0.0
 30
0.0
  0
INSERT
  5
105
330
1F
100
AcDbEntity
  8
0_01
  6
Continuous
 62
     4
370
    25
100
AcDbBlockReference
  2
BLKF024
 10
0.0
 20
0.0
 30
0.0
  0
LINE
  5
10B
330
1F
100
AcDbEntity
  8
0_01
  6
Continuous
 62
     4
370
    25
100
AcDbLine
 10
716.2774329463967
 20
124.3603629065851
 30
0.0
 11
717.7774329463967
 21
125.8603629065851
 31
0.0
  0
LINE
  5
10C
330
1F
100
AcDbEntity
  8
0_01
  6
Continuous
 62
     4
370
    25
100
AcDbLine
 10
717.7774329463967
 20
125.8603629065851
 30
0.0
 11
717.7774329463967
 21
133.3603629065851
 31
0.0
  0
LINE
  5
10D
330
1F
100
AcDbEntity
  8
0_01
  6
Continuous
 62
     4
370
    25
100
AcDbLine
 10
699.7774329463967
 20
133.3603629065851
 30
0.0
 11
699.7774329463967
 21
125.8603629065851
 31
0.0
  0
LINE
  5
10E
330
1F
100
AcDbEntity
  8
0_01
  6
Continuous
 62
     4
370
    25
100
AcDbLine
 10
699.7774329463967
 20
125.8603629065851
 30
0.0
 11
701.2774329463967
 21
124.3603629065851
 31
0.0
  0
INSERT
  5
112
330
1F
100
AcDbEntity
  8
0_01
  6
Continuous
 62
     4
370
    25
100
AcDbBlockReference
  2
BLKF025
 10
0.0
 20
0.0
 30
0.0
  0
INSERT
  5
11A
330
1F
100
AcDbEntity
  8
0_01
  6
Continuous
 62
     4
370
    25
100
AcDbBlockReference
  2
BLKF026
 10
0.0
 20
0.0
 30
0.0
  0
INSERT
  5
122
330
1F
100
AcDbEntity
  8
0_01
  6
Continuous
 62
     4
370
    25
100
AcDbBlockReference
  2
BLKF027
 10
0.0
 20
0.0
 30
0.0
  0
INSERT
  5
12A
330
1F
100
AcDbEntity
  8
0_01
  6
Continuous
 62
     4
370
    25
100
AcDbBlockReference
  2
BLKF028
 10
0.0
 20
0.0
 30
0.0
  0
INSERT
  5
136
330
1F
100
AcDbEntity
  8
0_01
  6
Continuous
 62
     4
370
    25
100
AcDbBlockReference
  2
BLKF029
 10
0.0
 20
0.0
 30
0.0
  0
INSERT
  5
13E
330
1F
100
AcDbEntity
  8
0_01
  6
Continuous
 62
     4
370
    25
100
AcDbBlockReference
  2
BLKF030
 10
0.0
 20
0.0
 30
0.0
  0
INSERT
  5
146
330
1F
100
AcDbEntity
  8
0_01
  6
Continuous
 62
     4
370
    25
100
AcDbBlockReference
  2
BLKF031
 10
0.0
 20
0.0
 30
0.0
  0
LINE
  5
14A
330
1F
100
AcDbEntity
  8
0_01
  6
Continuous
 62
     4
370
    25
100
AcDbLine
 10
690.7774329463967
 20
125.8603629065851
 30
0.0
 11
726.7774329463967
 21
125.8603629065851
 31
0.0
  0
LINE
  5
14B
330
1F
100
AcDbEntity
  8
0_01
  6
Continuous
 62
     4
370
    25
100
AcDbLine
 10
808.6924076148794
 20
125.8603629011581
 30
0.0
 11
807.1924076148794
 21
124.3603629011581
 31
0.0
  0
LINE
  5
14C
330
1F
100
AcDbEntity
  8
0_01
  6
Continuous
 62
     4
370
    25
100
AcDbLine
 10
843.1924076148794
 20
124.3603629011581
 30
0.0
 11
841.6924076148794
 21
125.8603629011581
 31
0.0
  0
LINE
  5
14D
330
1F
100
AcDbEntity
  8
0_01
  6
Continuous
 62
     4
370
    25
100
AcDbLine
 10
816.1924076148794
 20
140.360362901158
 30
0.0
 11
817.6924076148794
 21
139.017798701158
 31
0.0
  0
LINE
  5
14E
330
1F
100
AcDbEntity
  8
0_01
  6
Continuous
 62
     4
370
    25
100
AcDbLine
 10
834.1924076148794
 20
140.360362901158
 30
0.0
 11
832.6924076148794
 21
139.017798701158
 31
0.0
  0
LINE
  5
14F
330
1F
100
AcDbEntity
  8
0_01
  6
Continuous
 62
     4
370
    25
100
AcDbLine
 10
793.5959608232282
 20
154.3603628462146
 30
0.0
 11
793.595960778338
 21
124.3602552952545
 31
0.0
  0
LINE
  5
150
330
1F
100
AcDbEntity
  8
0_01
  6
Continuous
 62
     4
370
    25
100
AcDbLine
 10
758.5959607725235
 20
125.8602552952534
 30
0.0
 11
758.595960805262
 21
152.8603628462136
 31
0.0
  0
INSERT
  5
154
330
1F
100
AcDbEntity
  8
0_01
  6
Continuous
 62
     4
370
    25
100
AcDbBlockReference
  2
BLKF032
 10
0.0
 20
0.0
 30
0.0
  0
INSERT
  5
15B
330
1F
100
AcDbEntity
  8
0_01
  6
Continuous
 62
     4
370
    25
100
AcDbBlockReference
  2
BLKF033
 10
0.0
 20
0.0
 30
0.0
  0
INSERT
  5
162
330
1F
100
AcDbEntity
  8
0_01
  6
Continuous
 62
     4
370
    25
100
AcDbBlockReference
  2
BLKF034
 10
0.0
 20
0.0
 30
0.0
  0
INSERT
  5
16A
330
1F
100
AcDbEntity
  8
0_01
  6
Continuous
 62
     4
370
    25
100
AcDbBlockReference
  2
BLKF035
 10
0.0
 20
0.0
 30
0.0
  0
INSERT
  5
171
330
1F
100
AcDbEntity
  8
0_01
  6
Continuous
 62
     4
370
    25
100
AcDbBlockReference
  2
BLKF036
 10
0.0
 20
0.0
 30
0.0
  0
LINE
  5
175
330
1F
100
AcDbEntity
  8
0_01
  6
Continuous
 62
     4
370
    25
100
AcDbLine
 10
769.0959607648352
 20
131.860255312584
 30
0.0
 11
765.095960812112
 21
130.3602553473227
 31
0.0
  0
LINE
  5
176
330
1F
100
AcDbEntity
  8
0_01
  6
Continuous
 62
     4
370
    25
100
AcDbLine
 10
785.5959607967011
 20
131.860255336223
 30
0.0
 11
789.5959607455912
 21
130.3602552712973
 31
0.0
  0
LINE
  5
177
330
1F
100
AcDbEntity
  8
0_01
  6
Continuous
 62
     4
370
    25
100
AcDbLine
 10
767.5959608053238
 20
140.3602553105884
 30
0.0
 11
767.5959607784904
 21
154.3603628794353
 31
0.0
  0
INSERT
  5
17B
330
1F
100
AcDbEntity
  8
0_01
  6
Continuous
 62
     4
370
    25
100
AcDbBlockReference
  2
BLKF037
 10
0.0
 20
0.0
 30
0.0
  0
INSERT
  5
182
330
1F
100
AcDbEntity
  8
0_01
  6
Continuous
 62
     4
370
    25
100
AcDbBlockReference
  2
BLKF038
 10
0.0
 20
0.0
 30
0.0
  0
LINE
  5
186
330
1F
100
AcDbEntity
  8
0_01
  6
Continuous
 62
     4
370
    25
100
AcDbLine
 10
793.595960733453
 20
124.3602552952547
 30
0.0
 11
791.0959608103491
 21
124.3602552952545
 31
0.0
  0
LINE
  5
187
330
1F
100
AcDbEntity
  8
0_01
  6
Continuous
 62
     4
370
    25
100
AcDbLine
 10
793.5959608165059
 20
154.3603628462147
 30
0.0
 11
785.5959608071048
 21
154.3603628462145
 31
0.0
  0
INSERT
  5
18B
330
1F
100
AcDbEntity
  8
0_01
  6
Continuous
 62
     4
370
    25
100
AcDbBlockReference
  2
BLKF039
 10
0.0
 20
0.0
 30
0.0
  0
LINE
  5
18F
330
1F
100
AcDbEntity
  8
0_01
  6
Continuous
 62
     4
370
    25
100
AcDbLine
 10
765.0959608066313
 20
124.3602552952536
 30
0.0
 11
760.0959607707047
 21
124.3602552952534
 31
0.0
  0
LINE
  5
190
330
1F
100
AcDbEntity
  8
0_01
  6
Continuous
 62
     4
370
    25
100
AcDbLine
 10
785.5959607961967
 20
124.3602552952543
 30
0.0
 11
770.0959607284955
 21
124.3602552952538
 31
0.0
  0
LINE
  5
191
330
1F
100
AcDbEntity
  8
GR1_01
  6
Continuous
 62
     4
370
    25
100
AcDbLine
 10
782.3459608070809
 20
130.3602552937946
 30
0.0
 11
782.3459608070809
 21
124.3602552952543
 31
0.0
  0
LINE
  5
192
330
1F
100
AcDbEntity
  8
GR1_01
  6
Continuous
 62
     4
370
    25
100
AcDbLine
 10
779.8459608070809
 20
130.3602553015524
 30
0.0
 11
779.8459608070809
 21
124.3602552952541
 31
0.0
  0
ARC
  5
193
330
1F
100
AcDbEntity
  8
GR1_01
  6
Continuous
 62
     4
370
    25
100
AcDbCircle
 10
781.0959608050122
 20
129.693588663298
 30
0.0
 40
1.41666665147079
100
AcDbArc
 50
28.07248560571453
 51
151.9275140386942
  0
LINE
  5
194
330
1F
100
AcDbEntity
  8
0_01
  6
Continuous
 62
     4
370
    25
100
AcDbLine
 10
714.2774329463967
 20
156.3603629065851
 30
0.0
 11
703.2774329463967
 21
156.3603629065851
 31
0.0
  0
LINE
  5
195
330
1F
100
AcDbEntity
  8
0_01
  6
Continuous
 62
     4
370
    25
100
AcDbLine
 10
713.7774329463967
 20
151.8603629065851
 30
0.0
 11
713.7774329463967
 21
155.8603629065851
 31
0.0
  0
LINE
  5
196
330
1F
100
AcDbEntity
  8
0_01
  6
Continuous
 62
     4
370
    25
100
AcDbLine
 10
703.7774329463969
 20
151.8603629065851
 30
0.0
 11
713.7774329463966
 21
151.8603629065851
 31
0.0
  0
LINE
  5
197
330
1F
100
AcDbEntity
  8
0_01
  6
Continuous
 62
     4
370
    25
100
AcDbLine
 10
703.7774329463967
 20
155.8603629065851
 30
0.0
 11
703.7774329463969
 21
151.8603629065851
 31
0.0
  0
LINE
  5
198
330
1F
100
AcDbEntity
  8
GR1_01
  6
Continuous
 62
     4
370
    25
100
AcDbLine
 10
714.2774329463967
 20
156.3603629065851
 30
0.0
 11
713.7774329463967
 21
155.8603629065851
 31
0.0
  0
LINE
  5
199
330
1F
100
AcDbEntity
  8
GR1_01
  6
Continuous
 62
     4
370
    25
100
AcDbLine
 10
703.2774329463967
 20
156.3603629065851
 30
0.0
 11
703.7774329463967
 21
155.8603629065851
 31
0.0
  0
LINE
  5
19A
330
1F
100
AcDbEntity
  8
GR1_01
  6
Continuous
 62
     4
370
    25
100
AcDbLine
 10
703.2774329463967
 20
151.3603629065851
 30
0.0
 11
703.7774329463969
 21
151.8603629065852
 31
0.0
  0
LINE
  5
19B
330
1F
100
AcDbEntity
  8
GR1_01
  6
Continuous
 62
     4
370
    25
100
AcDbLine
 10
713.7774329463967
 20
151.8603629065852
 30
0.0
 11
714.2774329463967
 21
151.3603629065851
 31
0.0
  0
LINE
  5
19C
330
1F
100
AcDbEntity
  8
0_01
  6
Continuous
 62
     4
370
    25
100
AcDbLine
 10
703.2774329463967
 20
130.8603629065852
 30
0.0
 11
714.2774329463967
 21
130.8603629065852
 31
0.0
  0
LINE
  5
19D
330
1F
100
AcDbEntity
  8
0_01
  6
Continuous
 62
     4
370
    25
100
AcDbLine
 10
713.7774329463969
 20
134.0603629065851
 30
0.0
 11
703.7774329463969
 21
134.0603629065851
 31
0.0
  0
LINE
  5
19E
330
1F
100
AcDbEntity
  8
0_01
  6
Continuous
 62
     4
370
    25
100
AcDbLine
 10
713.7774329463967
 20
131.3603629065852
 30
0.0
 11
713.7774329463969
 21
134.0603629065851
 31
0.0
  0
LINE
  5
19F
330
1F
100
AcDbEntity
  8
0_01
  6
Continuous
 62
     4
370
    25
100
AcDbLine
 10
703.7774329463969
 20
134.0603629065851
 30
0.0
 11
703.7774329463967
 21
131.3603629065852
 31
0.0
  0
LINE
  5
1A0
330
1F
100
AcDbEntity
  8
GR1_01
  6
Continuous
 62
     4
370
    25
100
AcDbLine
 10
714.2774329463966
 20
134.8603629065851
 30
0.0
 11
713.7774329463969
 21
134.0603629065851
 31
0.0
  0
LINE
  5
1A1
330
1F
100
AcDbEntity
  8
GR1_01
  6
Continuous
 62
     4
370
    25
100
AcDbLine
 10
703.2774329463967
 20
134.8603629065851
 30
0.0
 11
703.7774329463969
 21
134.0603629065851
 31
0.0
  0
LINE
  5
1A2
330
1F
100
AcDbEntity
  8
GR1_01
  6
Continuous
 62
     4
370
    25
100
AcDbLine
 10
703.7774329463967
 20
131.3603629065852
 30
0.0
 11
703.2774329463967
 21
130.8603629065852
 31
0.0
  0
LINE
  5
1A3
330
1F
100
AcDbEntity
  8
GR1_01
  6
Continuous
 62
     4
370
    25
100
AcDbLine
 10
713.7774329463967
 20
131.3603629065852
 30
0.0
 11
714.2774329463966
 21
130.8603629065852
 31
0.0
  0
TEXT
  5
1A4
330
1F
100
AcDbEntity
  8
GR1_01
  6
Continuous
 62
     7
370
    13
100
AcDbText
 10
734.3819335937501
 20
126.0103637456894
 30
0.0
 40
2.5
  1
６５
 50
90.0
 41
0.8145454666831277
  7
FX_VECTOR
 72
     5
 11
734.3819335937501
 21
129.2103637933731
 31
0.0
100
AcDbText
  0
LINE
  5
1A5
330
1F
100
AcDbEntity
  8
GR1_01
  6
Continuous
 62
     7
370
    13
100
AcDbLine
 10
735.381938344629
 20
124.3603629065851
 30
0.0
 11
735.381938344629
 21
130.8603629065851
 31
0.0
  0
INSERT
  5
1A6
330
1F
100
AcDbEntity
  8
GR1_01
  6
Continuous
 62
     7
370
    13
100
AcDbBlockReference
  2
FXTIP_ARROW_S
 10
735.381938344629
 20
124.3603629065851
 30
0.0
 41
2.0
 42
2.0
 50
270.0
  0
INSERT
  5
1A7
330
1F
100
AcDbEntity
  8
GR1_01
  6
Continuous
 62
     7
370
    13
100
AcDbBlockReference
  2
FXTIP_ARROW_E
 10
735.381938344629
 20
130.8603629065851
 30
0.0
 41
2.0
 42
2.0
 50
90.0
  0
LINE
  5
1A8
330
1F
100
AcDbEntity
  8
GR1_01
  6
Continuous
 62
     7
370
    13
100
AcDbLine
 10
727.2774329463967
 20
124.3603629065851
 30
0.0
 11
736.3819383446289
 21
124.3603629065851
 31
0.0
  0
LINE
  5
1A9
330
1F
100
AcDbEntity
  8
GR1_01
  6
Continuous
 62
     7
370
    13
100
AcDbLine
 10
728.7774329463967
 20
130.8603629065851
 30
0.0
 11
736.3819383446289
 21
130.8603629065851
 31
0.0
  0
TEXT
  5
1AA
330
1F
100
AcDbEntity
  8
GR1_01
  6
Continuous
 62
     7
370
    13
100
AcDbText
 10
734.467333984375
 20
131.1715331792832
 30
0.0
 40
2.5
  1
４０
 50
90.0
 41
0.8145454666831277
  7
FX_VECTOR
 72
     5
 11
734.467333984375
 21
134.3715332269669
 31
0.0
100
AcDbText
  0
LINE
  5
1AB
330
1F
100
AcDbEntity
  8
GR1_01
  6
Continuous
 62
     7
370
    13
100
AcDbLine
 10
735.381938344629
 20
130.8603629065851
 30
0.0
 11
735.381938344629
 21
134.8603629065851
 31
0.0
  0
INSERT
  5
1AC
330
1F
100
AcDbEntity
  8
GR1_01
  6
Continuous
 62
     7
370
    13
100
AcDbBlockReference
  2
FXTIP_ARROW_S
 10
735.381938344629
 20
130.8603629065851
 30
0.0
 41
2.0
 42
2.0
 50
270.0
  0
INSERT
  5
1AD
330
1F
100
AcDbEntity
  8
GR1_01
  6
Continuous
 62
     7
370
    13
100
AcDbBlockReference
  2
FXTIP_ARROW_E
 10
735.381938344629
 20
134.8603629065851
 30
0.0
 41
2.0
 42
2.0
 50
90.0
  0
LINE
  5
1AE
330
1F
100
AcDbEntity
  8
GR1_01
  6
Continuous
 62
     7
370
    13
100
AcDbLine
 10
728.7774329463967
 20
134.8603629065851
 30
0.0
 11
736.381938344629
 21
134.8603629065852
 31
0.0
  0
TEXT
  5
1AF
330
1F
100
AcDbEntity
  8
GR1_01
  6
Continuous
 62
     7
370
    13
100
AcDbText
 10
734.3819335937501
 20
140.7103515267372
 30
0.0
 40
2.5
  1
１６５
 50
90.0
 41
0.7905882470748005
  7
FX_VECTOR
 72
     5
 11
734.3819335937501
 21
145.5103515982628
 31
0.0
100
AcDbText
  0
LINE
  5
1B0
330
1F
100
AcDbEntity
  8
GR1_01
  6
Continuous
 62
     7
370
    13
100
AcDbLine
 10
735.381938344629
 20
134.8603629065851
 30
0.0
 11
735.381938344629
 21
151.3603629065851
 31
0.0
  0
INSERT
  5
1B1
330
1F
100
AcDbEntity
  8
GR1_01
  6
Continuous
 62
     7
370
    13
100
AcDbBlockReference
  2
FXTIP_ARROW_S
 10
735.381938344629
 20
134.8603629065851
 30
0.0
 41
2.0
 42
2.0
 50
270.0
  0
INSERT
  5
1B2
330
1F
100
AcDbEntity
  8
GR1_01
  6
Continuous
 62
     7
370
    13
100
AcDbBlockReference
  2
FXTIP_ARROW_E
 10
735.381938344629
 20
151.3603629065851
 30
0.0
 41
2.0
 42
2.0
 50
90.0
  0
LINE
  5
1B3
330
1F
100
AcDbEntity
  8
GR1_01
  6
Continuous
 62
     7
370
    13
100
AcDbLine
 10
728.7774329463967
 20
151.3603629065851
 30
0.0
 11
736.3819383446291
 21
151.3603629065851
 31
0.0
  0
TEXT
  5
1B4
330
1F
100
AcDbEntity
  8
GR1_01
  6
Continuous
 62
     7
370
    13
100
AcDbText
 10
734.3487304687501
 20
151.6042968511582
 30
0.0
 40
2.5
  1
４０
 50
90.0
 41
0.8145454666831277
  7
FX_VECTOR
 72
     5
 11
734.3487304687501
 21
154.8042968988419
 31
0.0
100
AcDbText
  0
LINE
  5
1B5
330
1F
100
AcDbEntity
  8
GR1_01
  6
Continuous
 62
     7
370
    13
100
AcDbLine
 10
735.381938344629
 20
151.3603629065851
 30
0.0
 11
735.381938344629
 21
155.3603629065851
 31
0.0
  0
INSERT
  5
1B6
330
1F
100
AcDbEntity
  8
GR1_01
  6
Continuous
 62
     7
370
    13
100
AcDbBlockReference
  2
FXTIP_ARROW_S
 10
735.381938344629
 20
151.3603629065851
 30
0.0
 41
2.0
 42
2.0
 50
270.0
  0
INSERT
  5
1B7
330
1F
100
AcDbEntity
  8
GR1_01
  6
Continuous
 62
     7
370
    13
100
AcDbBlockReference
  2
FXTIP_ARROW_E
 10
735.381938344629
 20
155.3603629065851
 30
0.0
 41
2.0
 42
2.0
 50
90.0
  0
LINE
  5
1B8
330
1F
100
AcDbEntity
  8
GR1_01
  6
Continuous
 62
     7
370
    13
100
AcDbLine
 10
728.7774329463969
 20
155.3603629065851
 30
0.0
 11
736.381938344629
 21
155.3603629065851
 31
0.0
  0
TEXT
  5
1B9
330
1F
100
AcDbEntity
  8
GR1_01
  6
Continuous
 62
     7
370
    13
100
AcDbText
 10
734.2300781250001
 20
155.8154052495956
 30
0.0
 40
2.5
  1
４０
 50
90.0
 41
0.8145454666831277
  7
FX_VECTOR
 72
     5
 11
734.2300781250001
 21
159.0154052972794
 31
0.0
100
AcDbText
  0
LINE
  5
1BA
330
1F
100
AcDbEntity
  8
GR1_01
  6
Continuous
 62
     7
370
    13
100
AcDbLine
 10
735.381938344629
 20
155.3603629065851
 30
0.0
 11
735.381938344629
 21
159.3603629065851
 31
0.0
  0
INSERT
  5
1BB
330
1F
100
AcDbEntity
  8
GR1_01
  6
Continuous
 62
     7
370
    13
100
AcDbBlockReference
  2
FXTIP_ARROW_S
 10
735.381938344629
 20
155.3603629065851
 30
0.0
 41
2.0
 42
2.0
 50
270.0
  0
INSERT
  5
1BC
330
1F
100
AcDbEntity
  8
GR1_01
  6
Continuous
 62
     7
370
    13
100
AcDbBlockReference
  2
FXTIP_ARROW_E
 10
735.381938344629
 20
159.3603629065851
 30
0.0
 41
2.0
 42
2.0
 50
90.0
  0
LINE
  5
1BD
330
1F
100
AcDbEntity
  8
GR1_01
  6
Continuous
 62
     7
370
    13
100
AcDbLine
 10
728.7774329463967
 20
159.3603629065852
 30
0.0
 11
736.381938344629
 21
159.3603629065851
 31
0.0
  0
TEXT
  5
1BE
330
1F
100
AcDbEntity
  8
GR1_01
  6
Continuous
 62
     7
370
    13
100
AcDbText
 10
693.6774413824082
 20
116.304357909877
 30
0.0
 40
2.5
  1
９０
 41
0.8145454666831277
  7
FX_VECTOR
 72
     5
 11
696.877441430092
 21
116.3043579104355
 31
0.0
100
AcDbText
  0
LINE
  5
1BF
330
1F
100
AcDbEntity
  8
GR1_01
  6
Continuous
 62
     7
370
    13
100
AcDbLine
 10
690.7774329463969
 20
115.3043616551637
 30
0.0
 11
699.7774329463969
 21
115.3043616551637
 31
0.0
  0
INSERT
  5
1C0
330
1F
100
AcDbEntity
  8
GR1_01
  6
Continuous
 62
     7
370
    13
100
AcDbBlockReference
  2
FXTIP_ARROW_S
 10
690.7774329463969
 20
115.3043616551637
 30
0.0
 41
2.0
 42
2.0
 50
180.0
  0
INSERT
  5
1C1
330
1F
100
AcDbEntity
  8
GR1_01
  6
Continuous
 62
     7
370
    13
100
AcDbBlockReference
  2
FXTIP_ARROW_E
 10
699.7774329463969
 20
115.3043616551637
 30
0.0
 41
2.0
 42
2.0
 50
360.0
  0
LINE
  5
1C2
330
1F
100
AcDbEntity
  8
GR1_01
  6
Continuous
 62
     7
370
    13
100
AcDbLine
 10
690.7774329463967
 20
123.8603629065852
 30
0.0
 11
690.7774329463969
 21
114.3043616551637
 31
0.0
  0
LINE
  5
1C3
330
1F
100
AcDbEntity
  8
GR1_01
  6
Continuous
 62
     7
370
    13
100
AcDbLine
 10
699.7774329463967
 20
123.8603629065852
 30
0.0
 11
699.7774329463969
 21
114.3043616551637
 31
0.0
  0
TEXT
  5
1C4
330
1F
100
AcDbEntity
  8
GR1_01
  6
Continuous
 62
     7
370
    13
100
AcDbText
 10
706.3774413704873
 20
116.3043579097374
 30
0.0
 40
2.5
  1
１８０
 41
0.7905882470748005
  7
FX_VECTOR
 72
     5
 11
711.1774414420129
 21
116.3043579105751
 31
0.0
100
AcDbText
  0
LINE
  5
1C5
330
1F
100
AcDbEntity
  8
GR1_01
  6
Continuous
 62
     7
370
    13
100
AcDbLine
 10
699.7774329463969
 20
115.3043616551637
 30
0.0
 11
717.7774329463969
 21
115.3043616551637
 31
0.0
  0
INSERT
  5
1C6
330
1F
100
AcDbEntity
  8
GR1_01
  6
Continuous
 62
     7
370
    13
100
AcDbBlockReference
  2
FXTIP_ARROW_S
 10
699.7774329463969
 20
115.3043616551637
 30
0.0
 41
2.0
 42
2.0
 50
180.0
  0
INSERT
  5
1C7
330
1F
100
AcDbEntity
  8
GR1_01
  6
Continuous
 62
     7
370
    13
100
AcDbBlockReference
  2
FXTIP_ARROW_E
 10
717.7774329463969
 20
115.3043616551637
 30
0.0
 41
2.0
 42
2.0
 50
360.0
  0
LINE
  5
1C8
330
1F
100
AcDbEntity
  8
GR1_01
  6
Continuous
 62
     7
370
    13
100
AcDbLine
 10
717.7774329463967
 20
123.8603629065852
 30
0.0
 11
717.7774329463969
 21
114.3043616551637
 31
0.0
  0
TEXT
  5
1C9
330
1F
100
AcDbEntity
  8
GR1_01
  6
Continuous
 62
     7
370
    13
100
AcDbText
 10
720.6774413824082
 20
116.304357909877
 30
0.0
 40
2.5
  1
９０
 41
0.8145454666831277
  7
FX_VECTOR
 72
     5
 11
723.877441430092
 21
116.3043579104355
 31
0.0
100
AcDbText
  0
LINE
  5
1CA
330
1F
100
AcDbEntity
  8
GR1_01
  6
Continuous
 62
     7
370
    13
100
AcDbLine
 10
717.7774329463969
 20
115.3043616551637
 30
0.0
 11
726.7774329463969
 21
115.3043616551637
 31
0.0
  0
INSERT
  5
1CB
330
1F
100
AcDbEntity
  8
GR1_01
  6
Continuous
 62
     7
370
    13
100
AcDbBlockReference
  2
FXTIP_ARROW_S
 10
717.7774329463969
 20
115.3043616551637
 30
0.0
 41
2.0
 42
2.0
 50
180.0
  0
INSERT
  5
1CC
330
1F
100
AcDbEntity
  8
GR1_01
  6
Continuous
 62
     7
370
    13
100
AcDbBlockReference
  2
FXTIP_ARROW_E
 10
726.7774329463969
 20
115.3043616551637
 30
0.0
 41
2.0
 42
2.0
 50
360.0
  0
LINE
  5
1CD
330
1F
100
AcDbEntity
  8
GR1_01
  6
Continuous
 62
     7
370
    13
100
AcDbLine
 10
726.7774329463967
 20
123.8603629065852
 30
0.0
 11
726.7774329463969
 21
114.3043616551637
 31
0.0
  0
TEXT
  5
1CE
330
1F
100
AcDbEntity
  8
GR1_01
  6
Continuous
 62
     7
370
    13
100
AcDbText
 10
706.3774413704873
 20
111.2628906245811
 30
0.0
 40
2.5
  1
３６０
 41
0.7905882470748005
  7
FX_VECTOR
 72
     5
 11
711.1774414420129
 21
111.2628906254189
 31
0.0
100
AcDbText
  0
LINE
  5
1CF
330
1F
100
AcDbEntity
  8
GR1_01
  6
Continuous
 62
     7
370
    13
100
AcDbLine
 10
690.7774329463969
 20
110.2628990409766
 30
0.0
 11
726.7774329463966
 21
110.2628990409766
 31
0.0
  0
INSERT
  5
1D0
330
1F
100
AcDbEntity
  8
GR1_01
  6
Continuous
 62
     7
370
    13
100
AcDbBlockReference
  2
FXTIP_ARROW_S
 10
690.7774329463969
 20
110.2628990409766
 30
0.0
 41
2.0
 42
2.0
 50
180.0
  0
INSERT
  5
1D1
330
1F
100
AcDbEntity
  8
GR1_01
  6
Continuous
 62
     7
370
    13
100
AcDbBlockReference
  2
FXTIP_ARROW_E
 10
726.7774329463966
 20
110.2628990409766
 30
0.0
 41
2.0
 42
2.0
 50
360.0
  0
LINE
  5
1D2
330
1F
100
AcDbEntity
  8
GR1_01
  6
Continuous
 62
     7
370
    13
100
AcDbLine
 10
690.7774329463967
 20
123.8603629065852
 30
0.0
 11
690.7774329463969
 21
109.2628990409766
 31
0.0
  0
LINE
  5
1D3
330
1F
100
AcDbEntity
  8
GR1_01
  6
Continuous
 62
     7
370
    13
100
AcDbLine
 10
726.7774329463966
 20
123.8603629065851
 30
0.0
 11
726.7774329463966
 21
109.2628990409766
 31
0.0
  0
TEXT
  5
1D4
330
1F
100
AcDbEntity
  8
GR1_01
  6
Continuous
 62
     7
370
    13
100
AcDbText
 10
761.4459472298622
 20
163.7958007808311
 30
0.0
 40
2.5
  1
１０５
 41
0.7905882470748005
  7
FX_VECTOR
 72
     5
 11
766.2459473013878
 21
163.7958007816689
 31
0.0
100
AcDbText
  0
LINE
  5
1D5
330
1F
100
AcDbEntity
  8
GR1_01
  6
Continuous
 62
     7
370
    13
100
AcDbLine
 10
758.5959608070807
 20
162.795809526382
 30
0.0
 11
769.0959608070807
 21
162.795809526382
 31
0.0
  0
INSERT
  5
1D6
330
1F
100
AcDbEntity
  8
GR1_01
  6
Continuous
 62
     7
370
    13
100
AcDbBlockReference
  2
FXTIP_ARROW_S
 10
758.5959608070807
 20
162.795809526382
 30
0.0
 41
2.0
 42
2.0
 50
180.0
  0
INSERT
  5
1D7
330
1F
100
AcDbEntity
  8
GR1_01
  6
Continuous
 62
     7
370
    13
100
AcDbBlockReference
  2
FXTIP_ARROW_E
 10
769.0959608070807
 20
162.795809526382
 30
0.0
 41
2.0
 42
2.0
 50
360.0
  0
LINE
  5
1D8
330
1F
100
AcDbEntity
  8
GR1_01
  6
Continuous
 62
     7
370
    13
100
AcDbLine
 10
758.5959608070807
 20
156.3602553567467
 30
0.0
 11
758.5959608070806
 21
163.795809526382
 31
0.0
  0
LINE
  5
1D9
330
1F
100
AcDbEntity
  8
GR1_01
  6
Continuous
 62
     7
370
    13
100
AcDbLine
 10
769.0959608070807
 20
158.2603628910473
 30
0.0
 11
769.0959608070807
 21
163.795809526382
 31
0.0
  0
TEXT
  5
1DA
330
1F
100
AcDbEntity
  8
GR1_01
  6
Continuous
 62
     7
370
    13
100
AcDbText
 10
774.9459472298622
 20
163.7958007808311
 30
0.0
 40
2.5
  1
１６５
 41
0.7905882470748005
  7
FX_VECTOR
 72
     5
 11
779.7459473013878
 21
163.7958007816689
 31
0.0
100
AcDbText
  0
LINE
  5
1DB
330
1F
100
AcDbEntity
  8
GR1_01
  6
Continuous
 62
     7
370
    13
100
AcDbLine
 10
769.0959608070807
 20
162.795809526382
 30
0.0
 11
785.5959608070808
 21
162.795809526382
 31
0.0
  0
INSERT
  5
1DC
330
1F
100
AcDbEntity
  8
GR1_01
  6
Continuous
 62
     7
370
    13
100
AcDbBlockReference
  2
FXTIP_ARROW_S
 10
769.0959608070807
 20
162.795809526382
 30
0.0
 41
2.0
 42
2.0
 50
180.0
  0
INSERT
  5
1DD
330
1F
100
AcDbEntity
  8
GR1_01
  6
Continuous
 62
     7
370
    13
100
AcDbBlockReference
  2
FXTIP_ARROW_E
 10
785.5959608070808
 20
162.795809526382
 30
0.0
 41
2.0
 42
2.0
 50
360.0
  0
LINE
  5
1DE
330
1F
100
AcDbEntity
  8
GR1_01
  6
Continuous
 62
     7
370
    13
100
AcDbLine
 10
785.5959608070807
 20
156.3603628313562
 30
0.0
 11
785.5959608070806
 21
163.7958095263819
 31
0.0
  0
TEXT
  5
1DF
330
1F
100
AcDbEntity
  8
GR1_01
  6
Continuous
 62
     7
370
    13
100
AcDbText
 10
787.9959472417831
 20
163.7958007809708
 30
0.0
 40
2.5
  1
８０
 41
0.8145454666831277
  7
FX_VECTOR
 72
     5
 11
791.1959472894669
 21
163.7958007815293
 31
0.0
100
AcDbText
  0
LINE
  5
1E0
330
1F
100
AcDbEntity
  8
GR1_01
  6
Continuous
 62
     7
370
    13
100
AcDbLine
 10
785.5959608070808
 20
162.795809526382
 30
0.0
 11
793.5959608232282
 21
162.795809526382
 31
0.0
  0
INSERT
  5
1E1
330
1F
100
AcDbEntity
  8
GR1_01
  6
Continuous
 62
     7
370
    13
100
AcDbBlockReference
  2
FXTIP_ARROW_S
 10
785.5959608070808
 20
162.795809526382
 30
0.0
 41
2.0
 42
2.0
 50
180.0
  0
INSERT
  5
1E2
330
1F
100
AcDbEntity
  8
GR1_01
  6
Continuous
 62
     7
370
    13
100
AcDbBlockReference
  2
FXTIP_ARROW_E
 10
793.5959608232282
 20
162.795809526382
 30
0.0
 41
2.0
 42
2.0
 50
360.0
  0
LINE
  5
1E3
330
1F
100
AcDbEntity
  8
GR1_01
  6
Continuous
 62
     7
370
    13
100
AcDbLine
 10
793.5959608232282
 20
156.3603628462147
 30
0.0
 11
793.5959608232282
 21
163.795809526382
 31
0.0
  0
TEXT
  5
1E4
330
1F
100
AcDbEntity
  8
GR1_01
  6
Continuous
 62
     7
370
    13
100
AcDbText
 10
750.57763671875
 20
144.4602538704872
 30
0.0
 40
2.5
  1
１５０
 50
90.0
 41
0.7905882470748005
  7
FX_VECTOR
 72
     5
 11
750.57763671875
 21
149.2602539420128
 31
0.0
100
AcDbText
  0
LINE
  5
1E5
330
1F
100
AcDbEntity
  8
GR1_01
  6
Continuous
 62
     7
370
    13
100
AcDbLine
 10
751.5776274397066
 20
139.3602553567467
 30
0.0
 11
751.5776274397066
 21
154.3602553567467
 31
0.0
  0
INSERT
  5
1E6
330
1F
100
AcDbEntity
  8
GR1_01
  6
Continuous
 62
     7
370
    13
100
AcDbBlockReference
  2
FXTIP_ARROW_S
 10
751.5776274397066
 20
139.3602553567467
 30
0.0
 41
2.0
 42
2.0
 50
270.0
  0
INSERT
  5
1E7
330
1F
100
AcDbEntity
  8
GR1_01
  6
Continuous
 62
     7
370
    13
100
AcDbBlockReference
  2
FXTIP_ARROW_E
 10
751.5776274397066
 20
154.3602553567467
 30
0.0
 41
2.0
 42
2.0
 50
90.0
  0
LINE
  5
1E8
330
1F
100
AcDbEntity
  8
GR1_01
  6
Continuous
 62
     7
370
    13
100
AcDbLine
 10
756.5959607888926
 20
139.3602553567467
 30
0.0
 11
750.5776274397066
 21
139.3602553567467
 31
0.0
  0
LINE
  5
1E9
330
1F
100
AcDbEntity
  8
GR1_01
  6
Continuous
 62
     7
370
    13
100
AcDbLine
 10
756.5959608070807
 20
154.3602553567467
 30
0.0
 11
750.5776274397066
 21
154.3602553567467
 31
0.0
  0
TEXT
  5
1EA
330
1F
100
AcDbEntity
  8
GR1_01
  6
Continuous
 62
     7
370
    13
100
AcDbText
 10
750.57763671875
 20
129.4602538704872
 30
0.0
 40
2.5
  1
１５０
 50
90.0
 41
0.7905882470748005
  7
FX_VECTOR
 72
     5
 11
750.57763671875
 21
134.2602539420128
 31
0.0
100
AcDbText
  0
LINE
  5
1EB
330
1F
100
AcDbEntity
  8
GR1_01
  6
Continuous
 62
     7
370
    13
100
AcDbLine
 10
751.5776274397066
 20
124.3602552952534
 30
0.0
 11
751.5776274397066
 21
139.3602553567467
 31
0.0
  0
INSERT
  5
1EC
330
1F
100
AcDbEntity
  8
GR1_01
  6
Continuous
 62
     7
370
    13
100
AcDbBlockReference
  2
FXTIP_ARROW_S
 10
751.5776274397066
 20
124.3602552952534
 30
0.0
 41
2.0
 42
2.0
 50
270.0
  0
INSERT
  5
1ED
330
1F
100
AcDbEntity
  8
GR1_01
  6
Continuous
 62
     7
370
    13
100
AcDbBlockReference
  2
FXTIP_ARROW_E
 10
751.5776274397066
 20
139.3602553567467
 30
0.0
 41
2.0
 42
2.0
 50
90.0
  0
LINE
  5
1EE
330
1F
100
AcDbEntity
  8
GR1_01
  6
Continuous
 62
     7
370
    13
100
AcDbLine
 10
756.5959608070807
 20
124.3602552952534
 30
0.0
 11
750.5776274397066
 21
124.3602552952534
 31
0.0
  0
TEXT
  5
1EF
330
1F
100
AcDbEntity
  8
GR1_01
  6
Continuous
 62
     7
370
    13
100
AcDbText
 10
744.646630859375
 20
136.9602538704872
 30
0.0
 40
2.5
  1
３００
 50
90.0
 41
0.7905882470748005
  7
FX_VECTOR
 72
     5
 11
744.646630859375
 21
141.7602539420128
 31
0.0
100
AcDbText
  0
LINE
  5
1F0
330
1F
100
AcDbEntity
  8
GR1_01
  6
Continuous
 62
     7
370
    13
100
AcDbLine
 10
745.6466578192579
 20
124.3602552952534
 30
0.0
 11
745.6466578192579
 21
154.3602553567467
 31
0.0
  0
INSERT
  5
1F1
330
1F
100
AcDbEntity
  8
GR1_01
  6
Continuous
 62
     7
370
    13
100
AcDbBlockReference
  2
FXTIP_ARROW_S
 10
745.6466578192579
 20
124.3602552952534
 30
0.0
 41
2.0
 42
2.0
 50
270.0
  0
INSERT
  5
1F2
330
1F
100
AcDbEntity
  8
GR1_01
  6
Continuous
 62
     7
370
    13
100
AcDbBlockReference
  2
FXTIP_ARROW_E
 10
745.6466578192579
 20
154.3602553567467
 30
0.0
 41
2.0
 42
2.0
 50
90.0
  0
LINE
  5
1F3
330
1F
100
AcDbEntity
  8
GR1_01
  6
Continuous
 62
     7
370
    13
100
AcDbLine
 10
756.5959607707046
 20
124.3602552952534
 30
0.0
 11
744.6466578192579
 21
124.3602552952534
 31
0.0
  0
LINE
  5
1F4
330
1F
100
AcDbEntity
  8
GR1_01
  6
Continuous
 62
     7
370
    13
100
AcDbLine
 10
756.5959608070807
 20
154.3602553567467
 30
0.0
 11
744.6466578192579
 21
154.3602553567467
 31
0.0
  0
TEXT
  5
1F5
330
1F
100
AcDbEntity
  8
GR1_01
  6
Continuous
 62
     7
370
    13
100
AcDbText
 10
822.7922851204872
 20
162.0175781245811
 30
0.0
 40
2.5
  1
１１０
 41
0.7905882470748005
  7
FX_VECTOR
 72
     5
 11
827.5922851920128
 21
162.0175781254189
 31
0.0
100
AcDbText
  0
LINE
  5
1F6
330
1F
100
AcDbEntity
  8
GR1_01
  6
Continuous
 62
     7
370
    13
100
AcDbLine
 10
819.6924076148794
 20
161.0175815380287
 30
0.0
 11
830.6924076148794
 21
161.0175815380287
 31
0.0
  0
INSERT
  5
1F7
330
1F
100
AcDbEntity
  8
GR1_01
  6
Continuous
 62
     7
370
    13
100
AcDbBlockReference
  2
FXTIP_ARROW_S
 10
819.6924076148794
 20
161.0175815380287
 30
0.0
 41
2.0
 42
2.0
 50
180.0
  0
INSERT
  5
1F8
330
1F
100
AcDbEntity
  8
GR1_01
  6
Continuous
 62
     7
370
    13
100
AcDbBlockReference
  2
FXTIP_ARROW_E
 10
830.6924076148794
 20
161.0175815380287
 30
0.0
 41
2.0
 42
2.0
 50
360.0
  0
LINE
  5
1F9
330
1F
100
AcDbEntity
  8
GR1_01
  6
Continuous
 62
     7
370
    13
100
AcDbLine
 10
819.6924076148794
 20
156.3603629011581
 30
0.0
 11
819.6924076148794
 21
162.0175815380287
 31
0.0
  0
LINE
  5
1FA
330
1F
100
AcDbEntity
  8
GR1_01
  6
Continuous
 62
     7
370
    13
100
AcDbLine
 10
830.6924076148794
 20
156.3603629011581
 30
0.0
 11
830.6924076148794
 21
162.0175815380287
 31
0.0
  0
TEXT
  5
1FB
330
1F
100
AcDbEntity
  8
GR1_01
  6
Continuous
 62
     7
370
    13
100
AcDbText
 10
847.6050781250001
 20
144.9603515267372
 30
0.0
 40
2.5
  1
１４０
 50
90.0
 41
0.7905882470748005
  7
FX_VECTOR
 72
     5
 11
847.6050781250001
 21
149.7603515982628
 31
0.0
100
AcDbText
  0
LINE
  5
1FC
330
1F
100
AcDbEntity
  8
GR1_01
  6
Continuous
 62
     7
370
    13
100
AcDbLine
 10
848.605214566875
 20
140.360362901158
 30
0.0
 11
848.605214566875
 21
154.3603629011581
 31
0.0
  0
INSERT
  5
1FD
330
1F
100
AcDbEntity
  8
GR1_01
  6
Continuous
 62
     7
370
    13
100
AcDbBlockReference
  2
FXTIP_ARROW_S
 10
848.605214566875
 20
140.360362901158
 30
0.0
 41
2.0
 42
2.0
 50
270.0
  0
INSERT
  5
1FE
330
1F
100
AcDbEntity
  8
GR1_01
  6
Continuous
 62
     7
370
    13
100
AcDbBlockReference
  2
FXTIP_ARROW_E
 10
848.605214566875
 20
154.3603629011581
 30
0.0
 41
2.0
 42
2.0
 50
90.0
  0
LINE
  5
1FF
330
1F
100
AcDbEntity
  8
GR1_01
  6
Continuous
 62
     7
370
    13
100
AcDbLine
 10
845.1924076148794
 20
140.3603629011581
 30
0.0
 11
849.605214566875
 21
140.360362901158
 31
0.0
  0
LINE
  5
200
330
1F
100
AcDbEntity
  8
GR1_01
  6
Continuous
 62
     7
370
    13
100
AcDbLine
 10
845.1924076148794
 20
154.3603629011581
 30
0.0
 11
849.605214566875
 21
154.3603629011581
 31
0.0
  0
TEXT
  5
201
330
1F
100
AcDbEntity
  8
GR1_01
  6
Continuous
 62
     7
370
    13
100
AcDbText
 10
852.4131835937501
 20
138.1316406011582
 30
0.0
 40
2.5
  1
１０
 50
90.0
 41
0.8145454666831277
  7
FX_VECTOR
 72
     5
 11
852.4131835937501
 21
141.3316406488419
 31
0.0
100
AcDbText
  0
LINE
  5
202
330
1F
100
AcDbEntity
  8
GR1_01
  6
Continuous
 62
     7
370
    13
100
AcDbLine
 10
848.605214566875
 20
139.360362901158
 30
0.0
 11
848.605214566875
 21
140.360362901158
 31
0.0
  0
LINE
  5
203
330
1F
100
AcDbEntity
  8
GR1_01
  6
Continuous
 62
     7
370
    13
100
AcDbLine
 10
845.1924076148794
 20
139.3603629011581
 30
0.0
 11
849.605214566875
 21
139.360362901158
 31
0.0
  0
TEXT
  5
204
330
1F
100
AcDbEntity
  8
GR1_01
  6
Continuous
 62
     7
370
    13
100
AcDbText
 10
847.6050781250001
 20
129.4603515267372
 30
0.0
 40
2.5
  1
１５０
 50
90.0
 41
0.7905882470748005
  7
FX_VECTOR
 72
     5
 11
847.6050781250001
 21
134.2603515982628
 31
0.0
100
AcDbText
  0
LINE
  5
205
330
1F
100
AcDbEntity
  8
GR1_01
  6
Continuous
 62
     7
370
    13
100
AcDbLine
 10
848.605214566875
 20
124.3603629011581
 30
0.0
 11
848.605214566875
 21
139.360362901158
 31
0.0
  0
INSERT
  5
206
330
1F
100
AcDbEntity
  8
GR1_01
  6
Continuous
 62
     7
370
    13
100
AcDbBlockReference
  2
FXTIP_ARROW_S
 10
848.605214566875
 20
124.3603629011581
 30
0.0
 41
2.0
 42
2.0
 50
270.0
  0
INSERT
  5
207
330
1F
100
AcDbEntity
  8
GR1_01
  6
Continuous
 62
     7
370
    13
100
AcDbBlockReference
  2
FXTIP_ARROW_E
 10
848.605214566875
 20
139.360362901158
 30
0.0
 41
2.0
 42
2.0
 50
90.0
  0
LINE
  5
208
330
1F
100
AcDbEntity
  8
GR1_01
  6
Continuous
 62
     7
370
    13
100
AcDbLine
 10
845.1924076148794
 20
124.3603629011581
 30
0.0
 11
849.605214566875
 21
124.3603629011581
 31
0.0
  0
TEXT
  5
209
330
1F
100
AcDbEntity
  8
GR1_01
  6
Continuous
 62
     7
370
    13
100
AcDbText
 10
856.16591796875
 20
136.9603515267372
 30
0.0
 40
2.5
  1
３００
 50
90.0
 41
0.7905882470748005
  7
FX_VECTOR
 72
     5
 11
856.16591796875
 21
141.7603515982628
 31
0.0
100
AcDbText
  0
LINE
  5
20A
330
1F
100
AcDbEntity
  8
GR1_01
  6
Continuous
 62
     7
370
    13
100
AcDbLine
 10
857.1660263567676
 20
124.3603629011581
 30
0.0
 11
857.1660263567676
 21
154.3603629011581
 31
0.0
  0
INSERT
  5
20B
330
1F
100
AcDbEntity
  8
GR1_01
  6
Continuous
 62
     7
370
    13
100
AcDbBlockReference
  2
FXTIP_ARROW_S
 10
857.1660263567676
 20
124.3603629011581
 30
0.0
 41
2.0
 42
2.0
 50
270.0
  0
INSERT
  5
20C
330
1F
100
AcDbEntity
  8
GR1_01
  6
Continuous
 62
     7
370
    13
100
AcDbBlockReference
  2
FXTIP_ARROW_E
 10
857.1660263567676
 20
154.3603629011581
 30
0.0
 41
2.0
 42
2.0
 50
90.0
  0
LINE
  5
20D
330
1F
100
AcDbEntity
  8
GR1_01
  6
Continuous
 62
     7
370
    13
100
AcDbLine
 10
845.1924076148794
 20
124.3603629011581
 30
0.0
 11
858.1660263567676
 21
124.3603629011581
 31
0.0
  0
LINE
  5
20E
330
1F
100
AcDbEntity
  8
GR1_01
  6
Continuous
 62
     7
370
    13
100
AcDbLine
 10
845.1924076148794
 20
154.3603629011581
 30
0.0
 11
858.1660263567676
 21
154.3603629011581
 31
0.0
  0
LINE
  5
20F
330
1F
100
AcDbEntity
  8
0_01
  6
Continuous
 62
     4
370
    25
100
AcDbLine
 10
760.0959607707046
 20
124.3602552934346
 30
0.0
 11
760.0959608070809
 21
154.3603628443947
 31
0.0
  0
LINE
  5
210
330
1F
100
AcDbEntity
  8
GR1_01
  6
DOT
 62
     4
370
    25
100
AcDbLine
 10
758.5959607725235
 20
125.8602552952534
 30
0.0
 11
760.0959607707047
 21
124.3602552952534
 31
0.0
  0
LINE
  5
211
330
1F
100
AcDbEntity
  8
GR1_01
  6
Continuous
 62
     4
370
    25
100
AcDbLine
 10
760.0959607901053
 20
140.3602553574391
 30
0.0
 11
758.5959607888927
 21
139.3602553567467
 31
0.0
  0
LINE
  5
212
330
1F
100
AcDbEntity
  8
GR1_01
  6
Continuous
 62
     4
370
    25
100
AcDbLine
 10
758.595960805262
 20
152.8603628462136
 30
0.0
 11
760.0959608070808
 21
154.3603628462137
 31
0.0
  0
LINE
  5
213
330
1F
100
AcDbEntity
  8
GR1_01
  6
Continuous
 62
     4
370
    25
100
AcDbLine
 10
760.0959607888926
 20
139.3602553445099
 30
0.0
 11
758.59596078768
 21
138.3602553438175
 31
0.0
  0
LINE
  5
214
330
1F
100
AcDbEntity
  8
GR1_01
  6
DOT
 62
     7
370
    13
100
AcDbLine
 10
821.1924076148794
 20
154.3603629011581
 30
0.0
 11
821.1924076148789
 21
131.8603628983607
 31
0.0
  0
LINE
  5
215
330
1F
100
AcDbEntity
  8
GR1_01
  6
DOT
 62
     7
370
    13
100
AcDbLine
 10
821.1924076148789
 20
131.8603628983607
 30
0.0
 11
807.1924076148794
 21
130.3603628334349
 31
0.0
  0
LINE
  5
216
330
1F
100
AcDbEntity
  8
GR1_01
  6
DOT
 62
     7
370
    13
100
AcDbLine
 10
829.1924076148794
 20
154.3603629011581
 30
0.0
 11
829.1924076148794
 21
131.8603628983607
 31
0.0
  0
LINE
  5
217
330
1F
100
AcDbEntity
  8
GR1_01
  6
DOT
 62
     7
370
    13
100
AcDbLine
 10
829.1924076148794
 20
131.8603628983607
 30
0.0
 11
843.1924076148794
 21
130.3603628334349
 31
0.0
  0
LINE
  5
218
330
1F
100
AcDbEntity
  8
GR1_01
  6
DOT
 62
     7
370
    13
100
AcDbLine
 10
821.1924076148789
 20
139.360362096504
 30
0.0
 11
829.1924076148794
 21
139.360362096504
 31
0.0
  0
LINE
  5
219
330
1F
100
AcDbEntity
  8
0_01
  6
Continuous
 62
     4
370
    25
100
AcDbLine
 10
769.0959607935841
 20
154.360362846214
 30
0.0
 11
760.0959608070808
 21
154.3603628462137
 31
0.0
  0
LINE
  5
21A
330
1F
100
AcDbEntity
  8
0_01
  6
Continuous
 62
     4
370
    25
100
AcDbLine
 10
786.0959608325251
 20
155.9603628301949
 30
0.0
 11
790.0959608325251
 21
155.960362825084
 31
0.0
  0
ENDSEC
  0
SECTION
  2
OBJECTS
  0
DICTIONARY
  5
C
330
0
100
AcDbDictionary
281
     1
  3
ACAD_GROUP
350
D
  3
ACAD_LAYOUT
350
1A
  3
ACAD_MATERIAL
350
3B
  3
ACAD_MLEADERSTYLE
350
21D
  3
ACAD_MLINESTYLE
350
17
  3
ACAD_PLOTSETTINGS
350
19
  3
ACAD_PLOTSTYLENAME
350
E
  3
ACAD_SCALELIST
350
BE
  3
ACAD_VISUALSTYLE
350
2A
  3
AcDbVariableDictionary
350
21B
  0
DICTIONARY
  5
D
102
{ACAD_REACTORS
330
C
102
}
330
C
100
AcDbDictionary
281
     1
  0
DICTIONARY
  5
1A
102
{ACAD_REACTORS
330
C
102
}
330
C
100
AcDbDictionary
281
     1
  3
Layout1
350
1E
  3
Layout2
350
26
  3
Model
350
22
  0
DICTIONARY
  5
3B
102
{ACAD_REACTORS
330
C
102
}
330
C
100
AcDbDictionary
281
     1
  3
ByBlock
350
3D
  3
ByLayer
350
3C
  3
Global
350
3E
  0
DICTIONARY
  5
21D
102
{ACAD_REACTORS
330
C
102
}
330
C
100
AcDbDictionary
281
     1
  0
DICTIONARY
  5
17
102
{ACAD_REACTORS
330
C
102
}
330
C
100
AcDbDictionary
281
     1
  3
Standard
350
18
  0
DICTIONARY
  5
19
102
{ACAD_REACTORS
330
C
102
}
330
C
100
AcDbDictionary
281
     1
  0
ACDBDICTIONARYWDFLT
  5
E
102
{ACAD_REACTORS
330
C
102
}
330
C
100
AcDbDictionary
281
     1
  3
Normal
350
F
100
AcDbDictionaryWithDefault
340
F
  0
DICTIONARY
  5
BE
102
{ACAD_REACTORS
330
C
102
}
330
C
100
AcDbDictionary
281
     1
  3
A0
350
BF
  3
A1
350
C0
  3
A2
350
C1
  3
A3
350
C2
  3
A4
350
C3
  3
A5
350
C4
  3
A6
350
C5
  3
A7
350
C6
  3
A8
350
C7
  3
A9
350
C8
  3
B0
350
C9
  3
B1
350
CA
  3
B2
350
CB
  3
B3
350
CC
  3
B4
350
CD
  3
B5
350
CE
  3
B6
350
CF
  3
B7
350
D0
  3
B8
350
D1
  3
B9
350
D2
  3
C0
350
D3
  3
C1
350
D4
  3
C2
350
D5
  3
C3
350
D6
  3
C4
350
D7
  3
C5
350
D8
  3
C6
350
D9
  3
C7
350
DA
  3
C8
350
DB
  3
C9
350
DC
  3
D0
350
DD
  3
D1
350
DE
  3
D2
350
DF
  0
DICTIONARY
  5
2A
102
{ACAD_REACTORS
330
C
102
}
330
C
100
AcDbDictionary
281
     1
  3
2dWireframe
350
2F
  3
3D Hidden
350
31
  3
3dWireframe
350
30
  3
Basic
350
32
  3
Brighten
350
36
  3
ColorChange
350
3A
  3
Conceptual
350
34
  3
Dim
350
35
  3
Facepattern
350
39
  3
Flat
350
2B
  3
FlatWithEdges
350
2C
  3
Gouraud
350
2D
  3
GouraudWithEdges
350
2E
  3
Linepattern
350
38
  3
Realistic
350
33
  3
Thicken
350
37
  0
DICTIONARY
  5
21B
102
{ACAD_REACTORS
330
C
102
}
330
C
100
AcDbDictionary
281
     1
  3
CANNOSCALE
350
220
  3
DIMASSOC
350
221
  3
HIDETEXT
350
222
  3
PSOLHEIGHT
350
21F
  3
PSOLWIDTH
350
21E
  0
LAYOUT
  5
1E
102
{ACAD_REACTORS
330
1A
102
}
330
1A
100
AcDbPlotSettings
  1

  2
none_device
  4

  6

 40
0.0
 41
0.0
 42
0.0
 43
0.0
 44
0.0
 45
0.0
 46
0.0
 47
0.0
 48
0.0
 49
0.0
140
0.0
141
0.0
142
1.0
143
1.0
 70
   688
 72
     0
 73
     0
 74
     5
  7

 75
    16
147
1.0
148
0.0
149
0.0
100
AcDbLayout
  1
Layout1
 70
     1
 71
     1
 10
0.0
 20
0.0
 11
420.0
 21
297.0
 12
0.0
 22
0.0
 32
0.0
 14
1.000000000000000E+20
 24
1.000000000000000E+20
 34
1.000000000000000E+20
 15
-1.000000000000000E+20
 25
-1.000000000000000E+20
 35
-1.000000000000000E+20
146
0.0
 13
0.0
 23
0.0
 33
0.0
 16
1.0
 26
0.0
 36
0.0
 17
0.0
 27
1.0
 37
0.0
 76
     0
330
1B
  0
LAYOUT
  5
26
102
{ACAD_REACTORS
330
1A
102
}
330
1A
100
AcDbPlotSettings
  1

  2
none_device
  4

  6

 40
0.0
 41
0.0
 42
0.0
 43
0.0
 44
0.0
 45
0.0
 46
0.0
 47
0.0
 48
0.0
 49
0.0
140
0.0
141
0.0
142
1.0
143
1.0
 70
   688
 72
     0
 73
     0
 74
     5
  7

 75
    16
147
1.0
148
0.0
149
0.0
100
AcDbLayout
  1
Layout2
 70
     1
 71
     2
 10
0.0
 20
0.0
 11
0.0
 21
0.0
 12
0.0
 22
0.0
 32
0.0
 14
0.0
 24
0.0
 34
0.0
 15
0.0
 25
0.0
 35
0.0
146
0.0
 13
0.0
 23
0.0
 33
0.0
 16
1.0
 26
0.0
 36
0.0
 17
0.0
 27
1.0
 37
0.0
 76
     0
330
23
  0
LAYOUT
  5
22
102
{ACAD_REACTORS
330
1A
102
}
330
1A
100
AcDbPlotSettings
  1

  2
none_device
  4

  6

 40
0.0
 41
0.0
 42
0.0
 43
0.0
 44
0.0
 45
0.0
 46
0.0
 47
0.0
 48
0.0
 49
0.0
140
0.0
141
0.0
142
1.0
143
1.0
 70
  1712
 72
     0
 73
     0
 74
     0
  7

 75
     0
147
1.0
148
0.0
149
0.0
100
AcDbLayout
  1
Model
 70
     1
 71
     0
 10
591.7209567771588
 20
8.110360254358852
 11
962.9709641969546
 21
270.610365500679
 12
591.7209567771588
 22
8.110360254358852
 32
0.0
 14
591.7209567771588
 24
8.110360254358852
 34
0.0
 15
962.9709641969546
 25
270.610365500679
 35
0.0
146
0.0
 13
0.0
 23
0.0
 33
0.0
 16
1.0
 26
0.0
 36
0.0
 17
0.0
 27
1.0
 37
0.0
 76
     0
330
1F
331
29
  0
MATERIAL
  5
3D
102
{ACAD_REACTORS
330
3B
102
}
102
{ACAD_XDICTIONARY
360
245
102
}
330
3B
100
AcDbMaterial
  1
ByBlock
  0
MATERIAL
  5
3C
102
{ACAD_REACTORS
330
3B
102
}
102
{ACAD_XDICTIONARY
360
243
102
}
330
3B
100
AcDbMaterial
  1
ByLayer
  0
MATERIAL
  5
3E
102
{ACAD_REACTORS
330
3B
102
}
102
{ACAD_XDICTIONARY
360
247
102
}
330
3B
100
AcDbMaterial
  1
Global
  0
MLINESTYLE
  5
18
102
{ACAD_REACTORS
330
17
102
}
330
17
100
AcDbMlineStyle
  2
Standard
 70
     0
  3

 62
   256
 51
90.0
 52
90.0
 71
     2
 49
0.5
 62
   256
  6
BYLAYER
 49
-0.5
 62
   256
  6
BYLAYER
  0
ACDBPLACEHOLDER
  5
F
102
{ACAD_REACTORS
330
E
102
}
330
E
  0
SCALE
  5
BF
102
{ACAD_REACTORS
330
BE
102
}
330
BE
100
AcDbScale
 70
     0
300
1:1
140
1.0
141
1.0
290
     1
  0
SCALE
  5
C0
102
{ACAD_REACTORS
330
BE
102
}
330
BE
100
AcDbScale
 70
     0
300
1:2
140
1.0
141
2.0
290
     0
  0
SCALE
  5
C1
102
{ACAD_REACTORS
330
BE
102
}
330
BE
100
AcDbScale
 70
     0
300
1:4
140
1.0
141
4.0
290
     0
  0
SCALE
  5
C2
102
{ACAD_REACTORS
330
BE
102
}
330
BE
100
AcDbScale
 70
     0
300
1:5
140
1.0
141
5.0
290
     0
  0
SCALE
  5
C3
102
{ACAD_REACTORS
330
BE
102
}
330
BE
100
AcDbScale
 70
     0
300
1:8
140
1.0
141
8.0
290
     0
  0
SCALE
  5
C4
102
{ACAD_REACTORS
330
BE
102
}
330
BE
100
AcDbScale
 70
     0
300
1:10
140
1.0
141
10.0
290
     0
  0
SCALE
  5
C5
102
{ACAD_REACTORS
330
BE
102
}
330
BE
100
AcDbScale
 70
     0
300
1:16
140
1.0
141
16.0
290
     0
  0
SCALE
  5
C6
102
{ACAD_REACTORS
330
BE
102
}
330
BE
100
AcDbScale
 70
     0
300
1:20
140
1.0
141
20.0
290
     0
  0
SCALE
  5
C7
102
{ACAD_REACTORS
330
BE
102
}
330
BE
100
AcDbScale
 70
     0
300
1:30
140
1.0
141
30.0
290
     0
  0
SCALE
  5
C8
102
{ACAD_REACTORS
330
BE
102
}
330
BE
100
AcDbScale
 70
     0
300
1:40
140
1.0
141
40.0
290
     0
  0
SCALE
  5
C9
102
{ACAD_REACTORS
330
BE
102
}
330
BE
100
AcDbScale
 70
     0
300
1:50
140
1.0
141
50.0
290
     0
  0
SCALE
  5
CA
102
{ACAD_REACTORS
330
BE
102
}
330
BE
100
AcDbScale
 70
     0
300
1:100
140
1.0
141
100.0
290
     0
  0
SCALE
  5
CB
102
{ACAD_REACTORS
330
BE
102
}
330
BE
100
AcDbScale
 70
     0
300
2:1
140
2.0
141
1.0
290
     0
  0
SCALE
  5
CC
102
{ACAD_REACTORS
330
BE
102
}
330
BE
100
AcDbScale
 70
     0
300
4:1
140
4.0
141
1.0
290
     0
  0
SCALE
  5
CD
102
{ACAD_REACTORS
330
BE
102
}
330
BE
100
AcDbScale
 70
     0
300
8:1
140
8.0
141
1.0
290
     0
  0
SCALE
  5
CE
102
{ACAD_REACTORS
330
BE
102
}
330
BE
100
AcDbScale
 70
     0
300
10:1
140
10.0
141
1.0
290
     0
  0
SCALE
  5
CF
102
{ACAD_REACTORS
330
BE
102
}
330
BE
100
AcDbScale
 70
     0
300
100:1
140
100.0
141
1.0
290
     0
  0
SCALE
  5
D0
102
{ACAD_REACTORS
330
BE
102
}
330
BE
100
AcDbScale
 70
     0
300
1/128" = 1'-0"
140
0.0078125
141
12.0
290
     0
  0
SCALE
  5
D1
102
{ACAD_REACTORS
330
BE
102
}
330
BE
100
AcDbScale
 70
     0
300
1/64" = 1'-0"
140
0.015625
141
12.0
290
     0
  0
SCALE
  5
D2
102
{ACAD_REACTORS
330
BE
102
}
330
BE
100
AcDbScale
 70
     0
300
1/32" = 1'-0"
140
0.03125
141
12.0
290
     0
  0
SCALE
  5
D3
102
{ACAD_REACTORS
330
BE
102
}
330
BE
100
AcDbScale
 70
     0
300
1/16" = 1'-0"
140
0.0625
141
12.0
290
     0
  0
SCALE
  5
D4
102
{ACAD_REACTORS
330
BE
102
}
330
BE
100
AcDbScale
 70
     0
300
3/32" = 1'-0"
140
0.09375
141
12.0
290
     0
  0
SCALE
  5
D5
102
{ACAD_REACTORS
330
BE
102
}
330
BE
100
AcDbScale
 70
     0
300
1/8" = 1'-0"
140
0.125
141
12.0
290
     0
  0
SCALE
  5
D6
102
{ACAD_REACTORS
330
BE
102
}
330
BE
100
AcDbScale
 70
     0
300
3/16" = 1'-0"
140
0.1875
141
12.0
290
     0
  0
SCALE
  5
D7
102
{ACAD_REACTORS
330
BE
102
}
330
BE
100
AcDbScale
 70
     0
300
1/4" = 1'-0"
140
0.25
141
12.0
290
     0
  0
SCALE
  5
D8
102
{ACAD_REACTORS
330
BE
102
}
330
BE
100
AcDbScale
 70
     0
300
3/8" = 1'-0"
140
0.375
141
12.0
290
     0
  0
SCALE
  5
D9
102
{ACAD_REACTORS
330
BE
102
}
330
BE
100
AcDbScale
 70
     0
300
1/2" = 1'-0"
140
0.5
141
12.0
290
     0
  0
SCALE
  5
DA
102
{ACAD_REACTORS
330
BE
102
}
330
BE
100
AcDbScale
 70
     0
300
3/4" = 1'-0"
140
0.75
141
12.0
290
     0
  0
SCALE
  5
DB
102
{ACAD_REACTORS
330
BE
102
}
330
BE
100
AcDbScale
 70
     0
300
1" = 1'-0"
140
1.0
141
12.0
290
     0
  0
SCALE
  5
DC
102
{ACAD_REACTORS
330
BE
102
}
330
BE
100
AcDbScale
 70
     0
300
1-1/2" = 1'-0"
140
1.5
141
12.0
290
     0
  0
SCALE
  5
DD
102
{ACAD_REACTORS
330
BE
102
}
330
BE
100
AcDbScale
 70
     0
300
3" = 1'-0"
140
3.0
141
12.0
290
     0
  0
SCALE
  5
DE
102
{ACAD_REACTORS
330
BE
102
}
330
BE
100
AcDbScale
 70
     0
300
6" = 1'-0"
140
6.0
141
12.0
290
     0
  0
SCALE
  5
DF
102
{ACAD_REACTORS
330
BE
102
}
330
BE
100
AcDbScale
 70
     0
300
1'-0" = 1'-0"
140
12.0
141
12.0
290
     0
  0
VISUALSTYLE
  5
2F
102
{ACAD_REACTORS
330
2A
102
}
102
{ACAD_XDICTIONARY
360
22B
102
}
330
2A
100
AcDbVisualStyle
  2
2dWireframe
 70
     4
 71
     0
 72
     2
 73
     0
 90
        0
 40
-0.6
 41
-30.0
 62
     5
 63
     7
 74
     1
 91
        4
 64
     7
 65
   257
 75
     1
175
     1
 42
1.0
 92
        0
 66
   257
 43
1.0
 76
     1
 77
     6
 78
     2
 67
     7
 79
     5
170
     0
171
     0
290
     0
174
     0
 93
        1
 44
0.0
173
     0
291
     0
 45
0.0
1001
ACAD
1000
AcDbSavedByObjectVersion
1070
     0
  0
VISUALSTYLE
  5
31
102
{ACAD_REACTORS
330
2A
102
}
102
{ACAD_XDICTIONARY
360
22F
102
}
330
2A
100
AcDbVisualStyle
  2
3D Hidden
 70
     6
 71
     1
 72
     2
 73
     2
 90
        0
 40
-0.6
 41
-30.0
 62
     5
 63
     7
 74
     2
 91
        2
 64
     7
 65
   257
 75
     2
175
     1
 42
40.0
 92
        0
 66
   257
 43
1.0
 76
     1
 77
     6
 78
     2
 67
     7
 79
     3
170
     0
171
     0
290
     0
174
     0
 93
        1
 44
0.0
173
     0
291
     0
 45
0.0
1001
ACAD
1000
AcDbSavedByObjectVersion
1070
     0
  0
VISUALSTYLE
  5
30
102
{ACAD_REACTORS
330
2A
102
}
102
{ACAD_XDICTIONARY
360
22D
102
}
330
2A
100
AcDbVisualStyle
  2
3dWireframe
 70
     5
 71
     0
 72
     2
 73
     0
 90
        0
 40
-0.6
 41
-30.0
 62
     5
 63
     7
 74
     1
 91
        4
 64
     7
 65
   257
 75
     1
175
     1
 42
1.0
 92
        0
 66
   257
 43
1.0
 76
     1
 77
     6
 78
     2
 67
     7
 79
     5
170
     0
171
     0
290
     0
174
     0
 93
        1
 44
0.0
173
     0
291
     0
 45
0.0
1001
ACAD
1000
AcDbSavedByObjectVersion
1070
     0
  0
VISUALSTYLE
  5
32
102
{ACAD_REACTORS
330
2A
102
}
102
{ACAD_XDICTIONARY
360
231
102
}
330
2A
100
AcDbVisualStyle
  2
Basic
 70
     7
 71
     1
 72
     0
 73
     1
 90
        0
 40
-0.6
 41
-30.0
 62
     5
 63
     7
 74
     0
 91
        4
 64
     7
 65
   257
 75
     1
175
     1
 42
1.0
 92
        8
 66
     7
 43
1.0
 76
     1
 77
     6
 78
     2
 67
     7
 79
     5
170
     0
171
     0
290
     0
174
     0
 93
        1
 44
0.0
173
     0
291
     1
 45
0.0
1001
ACAD
1000
AcDbSavedByObjectVersion
1070
     0
  0
VISUALSTYLE
  5
36
102
{ACAD_REACTORS
330
2A
102
}
102
{ACAD_XDICTIONARY
360
239
102
}
330
2A
100
AcDbVisualStyle
  2
Brighten
 70
    12
 71
     2
 72
     2
 73
     0
 90
        0
 40
-0.6
 41
-30.0
 62
     5
 63
     7
 74
     1
 91
        4
 64
     7
 65
   257
 75
     1
175
     1
 42
1.0
 92
        8
 66
     7
 43
1.0
 76
     1
 77
     6
 78
     2
 67
     7
 79
     5
170
     0
171
     0
290
     0
174
     0
 93
        1
 44
50.0
173
     0
291
     1
 45
0.0
1001
ACAD
1000
AcDbSavedByObjectVersion
1070
     0
  0
VISUALSTYLE
  5
3A
102
{ACAD_REACTORS
330
2A
102
}
102
{ACAD_XDICTIONARY
360
241
102
}
330
2A
100
AcDbVisualStyle
  2
ColorChange
 70
    16
 71
     2
 72
     2
 73
     3
 90
        0
 40
-0.6
 41
-30.0
 62
     5
 63
     8
 74
     1
 91
        4
 64
     7
 65
   257
 75
     1
175
     1
 42
1.0
 92
        8
 66
     8
 43
1.0
 76
     1
 77
     6
 78
     2
 67
     7
 79
     5
170
     0
171
     0
290
     0
174
     0
 93
        1
 44
0.0
173
     0
291
     1
 45
0.0
1001
ACAD
1000
AcDbSavedByObjectVersion
1070
     0
  0
VISUALSTYLE
  5
34
102
{ACAD_REACTORS
330
2A
102
}
102
{ACAD_XDICTIONARY
360
235
102
}
330
2A
100
AcDbVisualStyle
  2
Conceptual
 70
     9
 71
     3
 72
     2
 73
     0
 90
        0
 40
-0.6
 41
-30.0
 62
     5
 63
     7
 74
     2
 91
        2
 64
     7
 65
   257
 75
     1
175
     1
 42
40.0
 92
        8
 66
     7
 43
1.0
 76
     1
 77
     6
 78
     2
 67
     7
 79
     3
170
     0
171
     0
290
     0
174
     0
 93
        1
 44
0.0
173
     0
291
     0
 45
0.0
1001
ACAD
1000
AcDbSavedByObjectVersion
1070
     0
  0
VISUALSTYLE
  5
35
102
{ACAD_REACTORS
330
2A
102
}
102
{ACAD_XDICTIONARY
360
237
102
}
330
2A
100
AcDbVisualStyle
  2
Dim
 70
    11
 71
     2
 72
     2
 73
     0
 90
        0
 40
-0.6
 41
-30.0
 62
     5
 63
     7
 74
     1
 91
        4
 64
     7
 65
   257
 75
     1
175
     1
 42
1.0
 92
        8
 66
     7
 43
1.0
 76
     1
 77
     6
 78
     2
 67
     7
 79
     5
170
     0
171
     0
290
     0
174
     0
 93
        1
 44
-50.0
173
     0
291
     1
 45
0.0
1001
ACAD
1000
AcDbSavedByObjectVersion
1070
     0
  0
VISUALSTYLE
  5
39
102
{ACAD_REACTORS
330
2A
102
}
102
{ACAD_XDICTIONARY
360
23F
102
}
330
2A
100
AcDbVisualStyle
  2
Facepattern
 70
    15
 71
     2
 72
     2
 73
     0
 90
        0
 40
-0.6
 41
-30.0
 62
     5
 63
     7
 74
     1
 91
        4
 64
     7
 65
   257
 75
     1
175
     1
 42
1.0
 92
        8
 66
     7
 43
1.0
 76
     1
 77
     6
 78
     2
 67
     7
 79
     5
170
     0
171
     0
290
     0
174
     0
 93
        1
 44
0.0
173
     0
291
     1
 45
0.0
1001
ACAD
1000
AcDbSavedByObjectVersion
1070
     0
  0
VISUALSTYLE
  5
2B
102
{ACAD_REACTORS
330
2A
102
}
102
{ACAD_XDICTIONARY
360
223
102
}
330
2A
100
AcDbVisualStyle
  2
Flat
 70
     0
 71
     2
 72
     1
 73
     1
 90
        2
 40
-0.6
 41
30.0
 62
     5
 63
     7
 74
     0
 91
        4
 64
     7
 65
   257
 75
     1
175
     1
 42
1.0
 92
        8
 66
     7
 43
1.0
 76
     1
 77
     6
 78
     2
 67
     7
 79
     5
170
     0
171
     0
290
     0
174
     0
 93
       13
 44
0.0
173
     0
291
     1
 45
0.0
1001
ACAD
1000
AcDbSavedByObjectVersion
1070
     0
  0
VISUALSTYLE
  5
2C
102
{ACAD_REACTORS
330
2A
102
}
102
{ACAD_XDICTIONARY
360
225
102
}
330
2A
100
AcDbVisualStyle
  2
FlatWithEdges
 70
     1
 71
     2
 72
     1
 73
     1
 90
        2
 40
-0.6
 41
30.0
 62
     5
 63
     7
 74
     1
 91
        4
 64
     7
 65
   257
 75
     1
175
     1
 42
1.0
 92
        0
 66
   257
 43
1.0
 76
     1
 77
     6
 78
     2
 67
     7
 79
     5
170
     0
171
     0
290
     0
174
     0
 93
       13
 44
0.0
173
     0
291
     1
 45
0.0
1001
ACAD
1000
AcDbSavedByObjectVersion
1070
     0
  0
VISUALSTYLE
  5
2D
102
{ACAD_REACTORS
330
2A
102
}
102
{ACAD_XDICTIONARY
360
227
102
}
330
2A
100
AcDbVisualStyle
  2
Gouraud
 70
     2
 71
     2
 72
     2
 73
     1
 90
        2
 40
-0.6
 41
30.0
 62
     5
 63
     7
 74
     0
 91
        4
 64
     7
 65
   257
 75
     1
175
     1
 42
1.0
 92
        0
 66
     7
 43
1.0
 76
     1
 77
     6
 78
     2
 67
     7
 79
     5
170
     0
171
     0
290
     0
174
     0
 93
       13
 44
0.0
173
     0
291
     1
 45
0.0
1001
ACAD
1000
AcDbSavedByObjectVersion
1070
     0
  0
VISUALSTYLE
  5
2E
102
{ACAD_REACTORS
330
2A
102
}
102
{ACAD_XDICTIONARY
360
229
102
}
330
2A
100
AcDbVisualStyle
  2
GouraudWithEdges
 70
     3
 71
     2
 72
     2
 73
     1
 90
        2
 40
-0.6
 41
30.0
 62
     5
 63
     7
 74
     1
 91
        4
 64
     7
 65
   257
 75
     1
175
     1
 42
1.0
 92
        0
 66
   257
 43
1.0
 76
     1
 77
     6
 78
     2
 67
     7
 79
     5
170
     0
171
     0
290
     0
174
     0
 93
       13
 44
0.0
173
     0
291
     1
 45
0.0
1001
ACAD
1000
AcDbSavedByObjectVersion
1070
     0
  0
VISUALSTYLE
  5
38
102
{ACAD_REACTORS
330
2A
102
}
102
{ACAD_XDICTIONARY
360
23D
102
}
330
2A
100
AcDbVisualStyle
  2
Linepattern
 70
    14
 71
     2
 72
     2
 73
     0
 90
        0
 40
-0.6
 41
-30.0
 62
     5
 63
     7
 74
     1
 91
        4
 64
     7
 65
   257
 75
     7
175
     7
 42
1.0
 92
        8
 66
     7
 43
1.0
 76
     1
 77
     6
 78
     2
 67
     7
 79
     5
170
     0
171
     0
290
     0
174
     0
 93
        1
 44
0.0
173
     0
291
     1
 45
0.0
1001
ACAD
1000
AcDbSavedByObjectVersion
1070
     0
  0
VISUALSTYLE
  5
33
102
{ACAD_REACTORS
330
2A
102
}
102
{ACAD_XDICTIONARY
360
233
102
}
330
2A
100
AcDbVisualStyle
  2
Realistic
 70
     8
 71
     2
 72
     2
 73
     0
 90
        0
 40
-0.6
 41
-30.0
 62
     5
 63
     7
 74
     1
 91
        0
 64
     7
 65
   257
 75
     1
175
     1
 42
1.0
 92
        8
 66
     8
 43
1.0
 76
     1
 77
     6
 78
     2
 67
     7
 79
     5
170
     0
171
     0
290
     0
174
     0
 93
       13
 44
0.0
173
     0
291
     0
 45
0.0
1001
ACAD
1000
AcDbSavedByObjectVersion
1070
     0
  0
VISUALSTYLE
  5
37
102
{ACAD_REACTORS
330
2A
102
}
102
{ACAD_XDICTIONARY
360
23B
102
}
330
2A
100
AcDbVisualStyle
  2
Thicken
 70
    13
 71
     2
 72
     2
 73
     0
 90
        0
 40
-0.6
 41
-30.0
 62
     5
 63
     7
 74
     1
 91
        4
 64
     7
 65
   257
 75
     1
175
     1
 42
1.0
 92
       12
 66
     7
 43
1.0
 76
     1
 77
     6
 78
     2
 67
     7
 79
     5
170
     0
171
     0
290
     0
174
     0
 93
        1
 44
0.0
173
     0
291
     1
 45
0.0
1001
ACAD
1000
AcDbSavedByObjectVersion
1070
     0
  0
DICTIONARYVAR
  5
220
102
{ACAD_REACTORS
330
21B
102
}
330
21B
100
DictionaryVariables
280
     0
  1
1:1
  0
DICTIONARYVAR
  5
221
102
{ACAD_REACTORS
330
21B
102
}
330
21B
100
DictionaryVariables
280
     0
  1
2
  0
DICTIONARYVAR
  5
222
102
{ACAD_REACTORS
330
21B
102
}
330
21B
100
DictionaryVariables
280
     0
  1
1
  0
DICTIONARYVAR
  5
21F
102
{ACAD_REACTORS
330
21B
102
}
330
21B
100
DictionaryVariables
280
     0
  1
80.000000
  0
DICTIONARYVAR
  5
21E
102
{ACAD_REACTORS
330
21B
102
}
330
21B
100
DictionaryVariables
280
     0
  1
5.000000
  0
DICTIONARY
  5
245
330
3D
100
AcDbDictionary
280
     1
281
     1
  3
ACAD_XREC_ROUNDTRIP
360
246
  0
DICTIONARY
  5
243
330
3C
100
AcDbDictionary
280
     1
281
     1
  3
ACAD_XREC_ROUNDTRIP
360
244
  0
DICTIONARY
  5
247
330
3E
100
AcDbDictionary
280
     1
281
     1
  3
ACAD_XREC_ROUNDTRIP
360
248
  0
DICTIONARY
  5
22B
330
2F
100
AcDbDictionary
280
     1
281
     1
  3
ACAD_XREC_ROUNDTRIP
360
22C
  0
DICTIONARY
  5
22F
330
31
100
AcDbDictionary
280
     1
281
     1
  3
ACAD_XREC_ROUNDTRIP
360
230
  0
DICTIONARY
  5
22D
330
30
100
AcDbDictionary
280
     1
281
     1
  3
ACAD_XREC_ROUNDTRIP
360
22E
  0
DICTIONARY
  5
231
330
32
100
AcDbDictionary
280
     1
281
     1
  3
ACAD_XREC_ROUNDTRIP
360
232
  0
DICTIONARY
  5
239
330
36
100
AcDbDictionary
280
     1
281
     1
  3
ACAD_XREC_ROUNDTRIP
360
23A
  0
DICTIONARY
  5
241
330
3A
100
AcDbDictionary
280
     1
281
     1
  3
ACAD_XREC_ROUNDTRIP
360
242
  0
DICTIONARY
  5
235
330
34
100
AcDbDictionary
280
     1
281
     1
  3
ACAD_XREC_ROUNDTRIP
360
236
  0
DICTIONARY
  5
237
330
35
100
AcDbDictionary
280
     1
281
     1
  3
ACAD_XREC_ROUNDTRIP
360
238
  0
DICTIONARY
  5
23F
330
39
100
AcDbDictionary
280
     1
281
     1
  3
ACAD_XREC_ROUNDTRIP
360
240
  0
DICTIONARY
  5
223
330
2B
100
AcDbDictionary
280
     1
281
     1
  3
ACAD_XREC_ROUNDTRIP
360
224
  0
DICTIONARY
  5
225
330
2C
100
AcDbDictionary
280
     1
281
     1
  3
ACAD_XREC_ROUNDTRIP
360
226
  0
DICTIONARY
  5
227
330
2D
100
AcDbDictionary
280
     1
281
     1
  3
ACAD_XREC_ROUNDTRIP
360
228
  0
DICTIONARY
  5
229
330
2E
100
AcDbDictionary
280
     1
281
     1
  3
ACAD_XREC_ROUNDTRIP
360
22A
  0
DICTIONARY
  5
23D
330
38
100
AcDbDictionary
280
     1
281
     1
  3
ACAD_XREC_ROUNDTRIP
360
23E
  0
DICTIONARY
  5
233
330
33
100
AcDbDictionary
280
     1
281
     1
  3
ACAD_XREC_ROUNDTRIP
360
234
  0
DICTIONARY
  5
23B
330
37
100
AcDbDictionary
280
     1
281
     1
  3
ACAD_XREC_ROUNDTRIP
360
23C
  0
XRECORD
  5
246
102
{ACAD_REACTORS
330
245
102
}
330
245
100
AcDbXrecord
280
     1
102
MATERIAL
148
0.0
149
0.0
149
0.0
 93
        0
 94
      127
282
     0
 72
     1
 77
     1
171
     1
175
     1
179
     1
273
     0
  0
XRECORD
  5
244
102
{ACAD_REACTORS
330
243
102
}
330
243
100
AcDbXrecord
280
     1
102
MATERIAL
148
0.0
149
0.0
149
0.0
 93
        0
 94
      127
282
     0
 72
     1
 77
     1
171
     1
175
     1
179
     1
273
     0
  0
XRECORD
  5
248
102
{ACAD_REACTORS
330
247
102
}
330
247
100
AcDbXrecord
280
     1
102
MATERIAL
148
0.0
149
0.0
149
0.0
 93
        0
 94
      127
282
     0
 72
     1
 77
     1
171
     1
175
     1
179
     1
273
     0
  0
XRECORD
  5
22C
102
{ACAD_REACTORS
330
22B
102
}
330
22B
100
AcDbXrecord
280
     1
102
RTVSPropertyOp0
 70
     1
102
RTVSPropertyOp1
 70
     1
102
RTVSPropertyOp2
 70
     1
102
RTVSPropertyOp3
 70
     1
102
RTVSPropertyOp4
 70
     1
102
RTVSPropertyOp5
 70
     1
102
RTVSPropertyOp6
 70
     1
102
RTVSPropertyOp7
 70
     1
102
RTVSPropertyOp8
 70
     1
102
RTVSPropertyOp9
 70
     1
102
RTVSPropertyOp10
 70
     1
102
RTVSPropertyOp11
 70
     1
102
RTVSPropertyOp12
 70
     1
102
RTVSPropertyOp13
 70
     1
102
RTVSPropertyOp14
 70
     1
102
RTVSPropertyOp15
 70
     1
102
RTVSPropertyOp16
 70
     1
102
RTVSPropertyOp17
 70
     1
102
RTVSPropertyOp18
 70
     1
102
RTVSPropertyOp19
 70
     1
102
RTVSPropertyOp20
 70
     1
102
RTVSPropertyOp21
 70
     1
102
RTVSPropertyOp22
 70
     1
102
RTVSPropertyOp23
 70
     1
102
RTVSPropertyOp24
 70
     1
102
RTVSPropertyOp25
 70
     1
102
RTVSPropertyOp26
 70
     1
102
RTVSPropertyOp27
 70
     1
  0
XRECORD
  5
230
102
{ACAD_REACTORS
330
22F
102
}
330
22F
100
AcDbXrecord
280
     1
102
RTVSPropertyOp0
 70
     1
102
RTVSPropertyOp1
 70
     1
102
RTVSPropertyOp2
 70
     1
102
RTVSPropertyOp3
 70
     1
102
RTVSPropertyOp4
 70
     1
102
RTVSPropertyOp5
 70
     1
102
RTVSPropertyOp6
 70
     1
102
RTVSPropertyOp7
 70
     1
102
RTVSPropertyOp8
 70
     1
102
RTVSPropertyOp9
 70
     1
102
RTVSPropertyOp10
 70
     1
102
RTVSPropertyOp11
 70
     1
102
RTVSPropertyOp12
 70
     1
102
RTVSPropertyOp13
 70
     1
102
RTVSPropertyOp14
 70
     1
102
RTVSPropertyOp15
 70
     1
102
RTVSPropertyOp16
 70
     1
102
RTVSPropertyOp17
 70
     1
102
RTVSPropertyOp18
 70
     1
102
RTVSPropertyOp19
 70
     1
102
RTVSPropertyOp20
 70
     1
102
RTVSPropertyOp21
 70
     1
102
RTVSPropertyOp22
 70
     1
102
RTVSPropertyOp23
 70
     1
102
RTVSPropertyOp24
 70
     1
102
RTVSPropertyOp25
 70
     1
102
RTVSPropertyOp26
 70
     1
102
RTVSPropertyOp27
 70
     1
  0
XRECORD
  5
22E
102
{ACAD_REACTORS
330
22D
102
}
330
22D
100
AcDbXrecord
280
     1
102
RTVSPropertyOp0
 70
     1
102
RTVSPropertyOp1
 70
     1
102
RTVSPropertyOp2
 70
     1
102
RTVSPropertyOp3
 70
     1
102
RTVSPropertyOp4
 70
     1
102
RTVSPropertyOp5
 70
     1
102
RTVSPropertyOp6
 70
     1
102
RTVSPropertyOp7
 70
     1
102
RTVSPropertyOp8
 70
     1
102
RTVSPropertyOp9
 70
     1
102
RTVSPropertyOp10
 70
     1
102
RTVSPropertyOp11
 70
     1
102
RTVSPropertyOp12
 70
     1
102
RTVSPropertyOp13
 70
     1
102
RTVSPropertyOp14
 70
     1
102
RTVSPropertyOp15
 70
     1
102
RTVSPropertyOp16
 70
     1
102
RTVSPropertyOp17
 70
     1
102
RTVSPropertyOp18
 70
     1
102
RTVSPropertyOp19
 70
     1
102
RTVSPropertyOp20
 70
     1
102
RTVSPropertyOp21
 70
     1
102
RTVSPropertyOp22
 70
     1
102
RTVSPropertyOp23
 70
     1
102
RTVSPropertyOp24
 70
     1
102
RTVSPropertyOp25
 70
     1
102
RTVSPropertyOp26
 70
     1
102
RTVSPropertyOp27
 70
     1
  0
XRECORD
  5
232
102
{ACAD_REACTORS
330
231
102
}
330
231
100
AcDbXrecord
280
     1
102
RTVSPropertyOp0
 70
     1
102
RTVSPropertyOp1
 70
     1
102
RTVSPropertyOp2
 70
     1
102
RTVSPropertyOp3
 70
     1
102
RTVSPropertyOp4
 70
     1
102
RTVSPropertyOp5
 70
     1
102
RTVSPropertyOp6
 70
     1
102
RTVSPropertyOp7
 70
     1
102
RTVSPropertyOp8
 70
     1
102
RTVSPropertyOp9
 70
     1
102
RTVSPropertyOp10
 70
     1
102
RTVSPropertyOp11
 70
     1
102
RTVSPropertyOp12
 70
     1
102
RTVSPropertyOp13
 70
     1
102
RTVSPropertyOp14
 70
     1
102
RTVSPropertyOp15
 70
     1
102
RTVSPropertyOp16
 70
     1
102
RTVSPropertyOp17
 70
     1
102
RTVSPropertyOp18
 70
     1
102
RTVSPropertyOp19
 70
     1
102
RTVSPropertyOp20
 70
     1
102
RTVSPropertyOp21
 70
     1
102
RTVSPropertyOp22
 70
     1
102
RTVSPropertyOp23
 70
     1
102
RTVSPropertyOp24
 70
     1
102
RTVSPropertyOp25
 70
     1
102
RTVSPropertyOp26
 70
     1
102
RTVSPropertyOp27
 70
     1
  0
XRECORD
  5
23A
102
{ACAD_REACTORS
330
239
102
}
330
239
100
AcDbXrecord
280
     1
102
RTVSPropertyOp0
 70
     1
102
RTVSPropertyOp1
 70
     1
102
RTVSPropertyOp2
 70
     1
102
RTVSPropertyOp3
 70
     1
102
RTVSPropertyOp4
 70
     1
102
RTVSPropertyOp5
 70
     1
102
RTVSPropertyOp6
 70
     1
102
RTVSPropertyOp7
 70
     1
102
RTVSPropertyOp8
 70
     1
102
RTVSPropertyOp9
 70
     1
102
RTVSPropertyOp10
 70
     1
102
RTVSPropertyOp11
 70
     1
102
RTVSPropertyOp12
 70
     1
102
RTVSPropertyOp13
 70
     1
102
RTVSPropertyOp14
 70
     1
102
RTVSPropertyOp15
 70
     1
102
RTVSPropertyOp16
 70
     1
102
RTVSPropertyOp17
 70
     1
102
RTVSPropertyOp18
 70
     1
102
RTVSPropertyOp19
 70
     1
102
RTVSPropertyOp20
 70
     1
102
RTVSPropertyOp21
 70
     1
102
RTVSPropertyOp22
 70
     1
102
RTVSPropertyOp23
 70
     1
102
RTVSPropertyOp24
 70
     1
102
RTVSPropertyOp25
 70
     1
102
RTVSPropertyOp26
 70
     1
102
RTVSPropertyOp27
 70
     1
  0
XRECORD
  5
242
102
{ACAD_REACTORS
330
241
102
}
330
241
100
AcDbXrecord
280
     1
102
RTVSPropertyOp0
 70
     1
102
RTVSPropertyOp1
 70
     1
102
RTVSPropertyOp2
 70
     1
102
RTVSPropertyOp3
 70
     1
102
RTVSPropertyOp4
 70
     1
102
RTVSPropertyOp5
 70
     1
102
RTVSPropertyOp6
 70
     1
102
RTVSPropertyOp7
 70
     1
102
RTVSPropertyOp8
 70
     1
102
RTVSPropertyOp9
 70
     1
102
RTVSPropertyOp10
 70
     1
102
RTVSPropertyOp11
 70
     1
102
RTVSPropertyOp12
 70
     1
102
RTVSPropertyOp13
 70
     1
102
RTVSPropertyOp14
 70
     1
102
RTVSPropertyOp15
 70
     1
102
RTVSPropertyOp16
 70
     1
102
RTVSPropertyOp17
 70
     1
102
RTVSPropertyOp18
 70
     1
102
RTVSPropertyOp19
 70
     1
102
RTVSPropertyOp20
 70
     1
102
RTVSPropertyOp21
 70
     1
102
RTVSPropertyOp22
 70
     1
102
RTVSPropertyOp23
 70
     1
102
RTVSPropertyOp24
 70
     1
102
RTVSPropertyOp25
 70
     1
102
RTVSPropertyOp26
 70
     1
102
RTVSPropertyOp27
 70
     1
  0
XRECORD
  5
236
102
{ACAD_REACTORS
330
235
102
}
330
235
100
AcDbXrecord
280
     1
102
RTVSPropertyOp0
 70
     1
102
RTVSPropertyOp1
 70
     1
102
RTVSPropertyOp2
 70
     1
102
RTVSPropertyOp3
 70
     1
102
RTVSPropertyOp4
 70
     1
102
RTVSPropertyOp5
 70
     1
102
RTVSPropertyOp6
 70
     1
102
RTVSPropertyOp7
 70
     1
102
RTVSPropertyOp8
 70
     1
102
RTVSPropertyOp9
 70
     1
102
RTVSPropertyOp10
 70
     1
102
RTVSPropertyOp11
 70
     1
102
RTVSPropertyOp12
 70
     1
102
RTVSPropertyOp13
 70
     1
102
RTVSPropertyOp14
 70
     1
102
RTVSPropertyOp15
 70
     1
102
RTVSPropertyOp16
 70
     1
102
RTVSPropertyOp17
 70
     1
102
RTVSPropertyOp18
 70
     1
102
RTVSPropertyOp19
 70
     1
102
RTVSPropertyOp20
 70
     1
102
RTVSPropertyOp21
 70
     1
102
RTVSPropertyOp22
 70
     1
102
RTVSPropertyOp23
 70
     1
102
RTVSPropertyOp24
 70
     1
102
RTVSPropertyOp25
 70
     1
102
RTVSPropertyOp26
 70
     1
102
RTVSPropertyOp27
 70
     1
  0
XRECORD
  5
238
102
{ACAD_REACTORS
330
237
102
}
330
237
100
AcDbXrecord
280
     1
102
RTVSPropertyOp0
 70
     1
102
RTVSPropertyOp1
 70
     1
102
RTVSPropertyOp2
 70
     1
102
RTVSPropertyOp3
 70
     1
102
RTVSPropertyOp4
 70
     1
102
RTVSPropertyOp5
 70
     1
102
RTVSPropertyOp6
 70
     1
102
RTVSPropertyOp7
 70
     1
102
RTVSPropertyOp8
 70
     1
102
RTVSPropertyOp9
 70
     1
102
RTVSPropertyOp10
 70
     1
102
RTVSPropertyOp11
 70
     1
102
RTVSPropertyOp12
 70
     1
102
RTVSPropertyOp13
 70
     1
102
RTVSPropertyOp14
 70
     1
102
RTVSPropertyOp15
 70
     1
102
RTVSPropertyOp16
 70
     1
102
RTVSPropertyOp17
 70
     1
102
RTVSPropertyOp18
 70
     1
102
RTVSPropertyOp19
 70
     1
102
RTVSPropertyOp20
 70
     1
102
RTVSPropertyOp21
 70
     1
102
RTVSPropertyOp22
 70
     1
102
RTVSPropertyOp23
 70
     1
102
RTVSPropertyOp24
 70
     1
102
RTVSPropertyOp25
 70
     1
102
RTVSPropertyOp26
 70
     1
102
RTVSPropertyOp27
 70
     1
  0
XRECORD
  5
240
102
{ACAD_REACTORS
330
23F
102
}
330
23F
100
AcDbXrecord
280
     1
102
RTVSPropertyOp0
 70
     1
102
RTVSPropertyOp1
 70
     1
102
RTVSPropertyOp2
 70
     1
102
RTVSPropertyOp3
 70
     1
102
RTVSPropertyOp4
 70
     1
102
RTVSPropertyOp5
 70
     1
102
RTVSPropertyOp6
 70
     1
102
RTVSPropertyOp7
 70
     1
102
RTVSPropertyOp8
 70
     1
102
RTVSPropertyOp9
 70
     1
102
RTVSPropertyOp10
 70
     1
102
RTVSPropertyOp11
 70
     1
102
RTVSPropertyOp12
 70
     1
102
RTVSPropertyOp13
 70
     1
102
RTVSPropertyOp14
 70
     1
102
RTVSPropertyOp15
 70
     1
102
RTVSPropertyOp16
 70
     1
102
RTVSPropertyOp17
 70
     1
102
RTVSPropertyOp18
 70
     1
102
RTVSPropertyOp19
 70
     1
102
RTVSPropertyOp20
 70
     1
102
RTVSPropertyOp21
 70
     1
102
RTVSPropertyOp22
 70
     1
102
RTVSPropertyOp23
 70
     1
102
RTVSPropertyOp24
 70
     1
102
RTVSPropertyOp25
 70
     1
102
RTVSPropertyOp26
 70
     1
102
RTVSPropertyOp27
 70
     1
  0
XRECORD
  5
224
102
{ACAD_REACTORS
330
223
102
}
330
223
100
AcDbXrecord
280
     1
102
RTVSPropertyOp0
 70
     1
102
RTVSPropertyOp1
 70
     1
102
RTVSPropertyOp2
 70
     1
102
RTVSPropertyOp3
 70
     1
102
RTVSPropertyOp4
 70
     1
102
RTVSPropertyOp5
 70
     1
102
RTVSPropertyOp6
 70
     1
102
RTVSPropertyOp7
 70
     1
102
RTVSPropertyOp8
 70
     1
102
RTVSPropertyOp9
 70
     1
102
RTVSPropertyOp10
 70
     1
102
RTVSPropertyOp11
 70
     1
102
RTVSPropertyOp12
 70
     1
102
RTVSPropertyOp13
 70
     1
102
RTVSPropertyOp14
 70
     1
102
RTVSPropertyOp15
 70
     1
102
RTVSPropertyOp16
 70
     1
102
RTVSPropertyOp17
 70
     1
102
RTVSPropertyOp18
 70
     1
102
RTVSPropertyOp19
 70
     1
102
RTVSPropertyOp20
 70
     1
102
RTVSPropertyOp21
 70
     1
102
RTVSPropertyOp22
 70
     1
102
RTVSPropertyOp23
 70
     1
102
RTVSPropertyOp24
 70
     1
102
RTVSPropertyOp25
 70
     1
102
RTVSPropertyOp26
 70
     1
102
RTVSPropertyOp27
 70
     1
  0
XRECORD
  5
226
102
{ACAD_REACTORS
330
225
102
}
330
225
100
AcDbXrecord
280
     1
102
RTVSPropertyOp0
 70
     1
102
RTVSPropertyOp1
 70
     1
102
RTVSPropertyOp2
 70
     1
102
RTVSPropertyOp3
 70
     1
102
RTVSPropertyOp4
 70
     1
102
RTVSPropertyOp5
 70
     1
102
RTVSPropertyOp6
 70
     1
102
RTVSPropertyOp7
 70
     1
102
RTVSPropertyOp8
 70
     1
102
RTVSPropertyOp9
 70
     1
102
RTVSPropertyOp10
 70
     1
102
RTVSPropertyOp11
 70
     1
102
RTVSPropertyOp12
 70
     1
102
RTVSPropertyOp13
 70
     1
102
RTVSPropertyOp14
 70
     1
102
RTVSPropertyOp15
 70
     1
102
RTVSPropertyOp16
 70
     1
102
RTVSPropertyOp17
 70
     1
102
RTVSPropertyOp18
 70
     1
102
RTVSPropertyOp19
 70
     1
102
RTVSPropertyOp20
 70
     1
102
RTVSPropertyOp21
 70
     1
102
RTVSPropertyOp22
 70
     1
102
RTVSPropertyOp23
 70
     1
102
RTVSPropertyOp24
 70
     1
102
RTVSPropertyOp25
 70
     1
102
RTVSPropertyOp26
 70
     1
102
RTVSPropertyOp27
 70
     1
  0
XRECORD
  5
228
102
{ACAD_REACTORS
330
227
102
}
330
227
100
AcDbXrecord
280
     1
102
RTVSPropertyOp0
 70
     1
102
RTVSPropertyOp1
 70
     1
102
RTVSPropertyOp2
 70
     1
102
RTVSPropertyOp3
 70
     1
102
RTVSPropertyOp4
 70
     1
102
RTVSPropertyOp5
 70
     1
102
RTVSPropertyOp6
 70
     1
102
RTVSPropertyOp7
 70
     1
102
RTVSPropertyOp8
 70
     1
102
RTVSPropertyOp9
 70
     1
102
RTVSPropertyOp10
 70
     1
102
RTVSPropertyOp11
 70
     1
102
RTVSPropertyOp12
 70
     1
102
RTVSPropertyOp13
 70
     1
102
RTVSPropertyOp14
 70
     1
102
RTVSPropertyOp15
 70
     1
102
RTVSPropertyOp16
 70
     1
102
RTVSPropertyOp17
 70
     1
102
RTVSPropertyOp18
 70
     1
102
RTVSPropertyOp19
 70
     1
102
RTVSPropertyOp20
 70
     1
102
RTVSPropertyOp21
 70
     1
102
RTVSPropertyOp22
 70
     1
102
RTVSPropertyOp23
 70
     1
102
RTVSPropertyOp24
 70
     1
102
RTVSPropertyOp25
 70
     1
102
RTVSPropertyOp26
 70
     1
102
RTVSPropertyOp27
 70
     1
  0
XRECORD
  5
22A
102
{ACAD_REACTORS
330
229
102
}
330
229
100
AcDbXrecord
280
     1
102
RTVSPropertyOp0
 70
     1
102
RTVSPropertyOp1
 70
     1
102
RTVSPropertyOp2
 70
     1
102
RTVSPropertyOp3
 70
     1
102
RTVSPropertyOp4
 70
     1
102
RTVSPropertyOp5
 70
     1
102
RTVSPropertyOp6
 70
     1
102
RTVSPropertyOp7
 70
     1
102
RTVSPropertyOp8
 70
     1
102
RTVSPropertyOp9
 70
     1
102
RTVSPropertyOp10
 70
     1
102
RTVSPropertyOp11
 70
     1
102
RTVSPropertyOp12
 70
     1
102
RTVSPropertyOp13
 70
     1
102
RTVSPropertyOp14
 70
     1
102
RTVSPropertyOp15
 70
     1
102
RTVSPropertyOp16
 70
     1
102
RTVSPropertyOp17
 70
     1
102
RTVSPropertyOp18
 70
     1
102
RTVSPropertyOp19
 70
     1
102
RTVSPropertyOp20
 70
     1
102
RTVSPropertyOp21
 70
     1
102
RTVSPropertyOp22
 70
     1
102
RTVSPropertyOp23
 70
     1
102
RTVSPropertyOp24
 70
     1
102
RTVSPropertyOp25
 70
     1
102
RTVSPropertyOp26
 70
     1
102
RTVSPropertyOp27
 70
     1
  0
XRECORD
  5
23E
102
{ACAD_REACTORS
330
23D
102
}
330
23D
100
AcDbXrecord
280
     1
102
RTVSPropertyOp0
 70
     1
102
RTVSPropertyOp1
 70
     1
102
RTVSPropertyOp2
 70
     1
102
RTVSPropertyOp3
 70
     1
102
RTVSPropertyOp4
 70
     1
102
RTVSPropertyOp5
 70
     1
102
RTVSPropertyOp6
 70
     1
102
RTVSPropertyOp7
 70
     1
102
RTVSPropertyOp8
 70
     1
102
RTVSPropertyOp9
 70
     1
102
RTVSPropertyOp10
 70
     1
102
RTVSPropertyOp11
 70
     1
102
RTVSPropertyOp12
 70
     1
102
RTVSPropertyOp13
 70
     1
102
RTVSPropertyOp14
 70
     1
102
RTVSPropertyOp15
 70
     1
102
RTVSPropertyOp16
 70
     1
102
RTVSPropertyOp17
 70
     1
102
RTVSPropertyOp18
 70
     1
102
RTVSPropertyOp19
 70
     1
102
RTVSPropertyOp20
 70
     1
102
RTVSPropertyOp21
 70
     1
102
RTVSPropertyOp22
 70
     1
102
RTVSPropertyOp23
 70
     1
102
RTVSPropertyOp24
 70
     1
102
RTVSPropertyOp25
 70
     1
102
RTVSPropertyOp26
 70
     1
102
RTVSPropertyOp27
 70
     1
  0
XRECORD
  5
234
102
{ACAD_REACTORS
330
233
102
}
330
233
100
AcDbXrecord
280
     1
102
RTVSPropertyOp0
 70
     1
102
RTVSPropertyOp1
 70
     1
102
RTVSPropertyOp2
 70
     1
102
RTVSPropertyOp3
 70
     1
102
RTVSPropertyOp4
 70
     1
102
RTVSPropertyOp5
 70
     1
102
RTVSPropertyOp6
 70
     1
102
RTVSPropertyOp7
 70
     1
102
RTVSPropertyOp8
 70
     1
102
RTVSPropertyOp9
 70
     1
102
RTVSPropertyOp10
 70
     1
102
RTVSPropertyOp11
 70
     1
102
RTVSPropertyOp12
 70
     1
102
RTVSPropertyOp13
 70
     1
102
RTVSPropertyOp14
 70
     1
102
RTVSPropertyOp15
 70
     1
102
RTVSPropertyOp16
 70
     1
102
RTVSPropertyOp17
 70
     1
102
RTVSPropertyOp18
 70
     1
102
RTVSPropertyOp19
 70
     1
102
RTVSPropertyOp20
 70
     1
102
RTVSPropertyOp21
 70
     1
102
RTVSPropertyOp22
 70
     1
102
RTVSPropertyOp23
 70
     1
102
RTVSPropertyOp24
 70
     1
102
RTVSPropertyOp25
 70
     1
102
RTVSPropertyOp26
 70
     1
102
RTVSPropertyOp27
 70
     1
  0
XRECORD
  5
23C
102
{ACAD_REACTORS
330
23B
102
}
330
23B
100
AcDbXrecord
280
     1
102
RTVSPropertyOp0
 70
     1
102
RTVSPropertyOp1
 70
     1
102
RTVSPropertyOp2
 70
     1
102
RTVSPropertyOp3
 70
     1
102
RTVSPropertyOp4
 70
     1
102
RTVSPropertyOp5
 70
     1
102
RTVSPropertyOp6
 70
     1
102
RTVSPropertyOp7
 70
     1
102
RTVSPropertyOp8
 70
     1
102
RTVSPropertyOp9
 70
     1
102
RTVSPropertyOp10
 70
     1
102
RTVSPropertyOp11
 70
     1
102
RTVSPropertyOp12
 70
     1
102
RTVSPropertyOp13
 70
     1
102
RTVSPropertyOp14
 70
     1
102
RTVSPropertyOp15
 70
     1
102
RTVSPropertyOp16
 70
     1
102
RTVSPropertyOp17
 70
     1
102
RTVSPropertyOp18
 70
     1
102
RTVSPropertyOp19
 70
     1
102
RTVSPropertyOp20
 70
     1
102
RTVSPropertyOp21
 70
     1
102
RTVSPropertyOp22
 70
     1
102
RTVSPropertyOp23
 70
     1
102
RTVSPropertyOp24
 70
     1
102
RTVSPropertyOp25
 70
     1
102
RTVSPropertyOp26
 70
     1
102
RTVSPropertyOp27
 70
     1
  0
ENDSEC
  0
EOF
