  0
SECTION
  2
HEADER
  9
$ACADVER
  1
AC1012
  9
$DWGCODEPAGE
  3
ansi_932
  9
$INSBASE
 10
591.720957
 20
8.11036
 30
0.0
  9
$EXTMIN
 10
591.720957
 20
8.11036
 30
0.0
  9
$EXTMAX
 10
962.970964
 20
270.610366
 30
0.0
  9
$LIMMIN
 10
591.720957
 20
8.11036
  9
$LIMMAX
 10
962.970964
 20
270.610366
  9
$ORTHOMODE
 70
     0
  9
$REGENMODE
 70
     1
  9
$FILLMODE
 70
     1
  9
$QTEXTMODE
 70
     0
  9
$MIRRTEXT
 70
     1
  9
$DRAGMODE
 70
     2
  9
$LTSCALE
 40
1.0
  9
$OSMODE
 70
    37
  9
$ATTMODE
 70
     1
  9
$TEXTSIZE
 40
0.2
  9
$TRACEWID
 40
0.05
  9
$TEXTSTYLE
  7
STYLE1
  9
$CLAYER
  8
0
  9
$CELTYPE
  6
BYLAYER
  9
$CECOLOR
 62
   256
  9
$CELTSCALE
 40
1.0
  9
$DELOBJ
 70
     1
  9
$DISPSILH
 70
     0
  9
$DIMSCALE
 40
1.0
  9
$DIMASZ
 40
2.0
  9
$DIMEXO
 40
2.0
  9
$DIMDLI
 40
7.0
  9
$DIMRND
 40
0.0
  9
$DIMDLE
 40
6.0
  9
$DIMEXE
 40
1.0
  9
$DIMTP
 40
0.0
  9
$DIMTM
 40
0.0
  9
$DIMTXT
 40
3.5
  9
$DIMCEN
 40
2.5
  9
$DIMTSZ
 40
0.0
  9
$DIMTOL
 70
     0
  9
$DIMLIM
 70
     0
  9
$DIMTIH
 70
     0
  9
$DIMTOH
 70
     0
  9
$DIMSE1
 70
     0
  9
$DIMSE2
 70
     0
  9
$DIMTAD
 70
     1
  9
$DIMZIN
 70
     8
  9
$DIMBLK
  1

  9
$DIMASO
 70
     1
  9
$DIMSHO
 70
     1
  9
$DIMPOST
  1

  9
$DIMAPOST
  1

  9
$DIMALT
 70
     0
  9
$DIMALTD
 70
     3
  9
$DIMALTF
 40
0.03937
  9
$DIMLFAC
 40
1.0
  9
$DIMTOFL
 70
     1
  9
$DIMTVP
 40
0.0
  9
$DIMTIX
 70
     0
  9
$DIMSOXD
 70
     0
  9
$DIMSAH
 70
     1
  9
$DIMBLK1
  1
FXTIP_ARROW_S
  9
$DIMBLK2
  1
FXTIP_ARROW_E
  9
$DIMSTYLE
  2
FXDIMINFO
  9
$DIMCLRD
 70
     7
  9
$DIMCLRE
 70
     7
  9
$DIMCLRT
 70
     7
  9
$DIMTFAC
 40
1.0
  9
$DIMGAP
 40
1.0
  9
$DIMJUST
 70
     0
  9
$DIMSD1
 70
     0
  9
$DIMSD2
 70
     0
  9
$DIMTOLJ
 70
     0
  9
$DIMTZIN
 70
     8
  9
$DIMALTZ
 70
     0
  9
$DIMALTTZ
 70
     0
  9
$DIMFIT
 70
     3
  9
$DIMUPT
 70
     0
  9
$DIMUNIT
 70
     2
  9
$DIMDEC
 70
     2
  9
$DIMTDEC
 70
     2
  9
$DIMALTU
 70
     2
  9
$DIMALTTD
 70
     3
  9
$DIMTXSTY
  7
STYLE1
  9
$DIMAUNIT
 70
     0
  9
$LUNITS
 70
     2
  9
$LUPREC
 70
     4
  9
$SKETCHINC
 40
0.1
  9
$FILLETRAD
 40
0.5
  9
$AUNITS
 70
     0
  9
$AUPREC
 70
     0
  9
$MENU
  1
.
  9
$ELEVATION
 40
0.0
  9
$PELEVATION
 40
0.0
  9
$THICKNESS
 40
0.0
  9
$LIMCHECK
 70
     0
  9
$CHAMFERA
 40
0.5
  9
$CHAMFERB
 40
0.5
  9
$CHAMFERC
 40
1.0
  9
$CHAMFERD
 40
0.0
  9
$SKPOLY
 70
     0
  9
$TDCREATE
 40
2455587.729872141
  9
$TDUPDATE
 40
2455587.729872153
  9
$TDINDWG
 40
0.0000000116
  9
$TDUSRTIMER
 40
0.0000000116
  9
$USRTIMER
 70
     1
  9
$ANGBASE
 50
0.0
  9
$ANGDIR
 70
     0
  9
$PDMODE
 70
     0
  9
$PDSIZE
 40
0.0
  9
$PLINEWID
 40
0.0
  9
$COORDS
 70
     1
  9
$SPLFRAME
 70
     0
  9
$SPLINETYPE
 70
     6
  9
$SPLINESEGS
 70
     8
  9
$ATTDIA
 70
     0
  9
$ATTREQ
 70
     1
  9
$HANDLING
 70
     1
  9
$HANDSEED
  5
70E
  9
$SURFTAB1
 70
     6
  9
$SURFTAB2
 70
     6
  9
$SURFTYPE
 70
     6
  9
$SURFU
 70
     6
  9
$SURFV
 70
     6
  9
$UCSNAME
  2

  9
$UCSORG
 10
0.0
 20
0.0
 30
0.0
  9
$UCSXDIR
 10
1.0
 20
0.0
 30
0.0
  9
$UCSYDIR
 10
0.0
 20
1.0
 30
0.0
  9
$PUCSNAME
  2

  9
$PUCSORG
 10
0.0
 20
0.0
 30
0.0
  9
$PUCSXDIR
 10
1.0
 20
0.0
 30
0.0
  9
$PUCSYDIR
 10
0.0
 20
1.0
 30
0.0
  9
$USERI1
 70
     0
  9
$USERI2
 70
     0
  9
$USERI3
 70
     0
  9
$USERI4
 70
     0
  9
$USERI5
 70
     0
  9
$USERR1
 40
0.0
  9
$USERR2
 40
0.0
  9
$USERR3
 40
0.0
  9
$USERR4
 40
0.0
  9
$USERR5
 40
0.0
  9
$WORLDVIEW
 70
     1
  9
$SHADEDGE
 70
     3
  9
$SHADEDIF
 70
    70
  9
$TILEMODE
 70
     1
  9
$MAXACTVP
 70
    64
  9
$PINSBASE
 10
0.0
 20
0.0
 30
0.0
  9
$PLIMCHECK
 70
     0
  9
$PEXTMIN
 10
1.000000E+20
 20
1.000000E+20
 30
1.000000E+20
  9
$PEXTMAX
 10
-1.000000E+20
 20
-1.000000E+20
 30
-1.000000E+20
  9
$PLIMMIN
 10
0.0
 20
0.0
  9
$PLIMMAX
 10
12.0
 20
9.0
  9
$UNITMODE
 70
     0
  9
$VISRETAIN
 70
     1
  9
$PLINEGEN
 70
     0
  9
$PSLTSCALE
 70
     1
  9
$TREEDEPTH
 70
  3020
  9
$PICKSTYLE
 70
     1
  9
$CMLSTYLE
  2
STANDARD
  9
$CMLJUST
 70
     0
  9
$CMLSCALE
 40
1.0
  9
$SAVEIMAGES
 70
     1
  0
ENDSEC
  0
SECTION
  2
CLASSES
  0
CLASS
  1
ACDBDICTIONARYWDFLT
  2
AcDbDictionaryWithDefault
  3
ObjectDBX Classes
 90
        0
280
     0
281
     0
  0
CLASS
  1
XRECORD
  2
AcDbXrecord
  3
AutoCAD 2000
 90
    32768
280
     0
281
     0
  0
CLASS
  1
LWPOLYLINE
  2
AcDbPolyline
  3
AutoCAD 2000
 90
    32768
280
     0
281
     1
  0
CLASS
  1
HATCH
  2
AcDbHatch
  3
AutoCAD 2000
 90
    32768
280
     0
281
     1
  0
CLASS
  1
ACDBPLACEHOLDER
  2
AcDbPlaceHolder
  3
ObjectDBX Classes
 90
        0
280
     0
281
     0
  0
CLASS
  1
LAYOUT
  2
AcDbLayout
  3
ObjectDBX Classes
 90
        0
280
     0
281
     0
  0
ENDSEC
  0
SECTION
  2
TABLES
  0
TABLE
  2
VPORT
  5
8
330
0
100
AcDbSymbolTable
 70
     1
  0
VPORT
  5
29
102
{ACAD_XDICTIONARY
360
70C
102
}
330
8
100
AcDbSymbolTableRecord
100
AcDbViewportTableRecord
  2
*ACTIVE
 70
     0
 10
0.0
 20
0.0
 11
1.0
 21
1.0
 12
777.34596
 22
139.360363
 13
0.0
 23
0.0
 14
0.5
 24
0.5
 15
0.5
 25
0.5
 16
0.0
 26
0.0
 36
1.0
 17
0.0
 27
0.0
 37
0.0
 40
262.500005
 41
1.414286
 42
50.0
 43
0.0
 44
0.0
 50
0.0
 51
0.0
 71
     0
 72
   100
 73
     1
 74
     3
 75
     0
 76
     0
 77
     0
 78
     0
  0
ENDTAB
  0
TABLE
  2
LTYPE
  5
5
330
0
100
AcDbSymbolTable
 70
     6
  0
LTYPE
  5
14
330
5
100
AcDbSymbolTableRecord
100
AcDbLinetypeTableRecord
  2
BYBLOCK
 70
     0
  3

 72
    65
 73
     0
 40
0.0
  0
LTYPE
  5
15
330
5
100
AcDbSymbolTableRecord
100
AcDbLinetypeTableRecord
  2
BYLAYER
 70
     0
  3

 72
    65
 73
     0
 40
0.0
  0
LTYPE
  5
16
330
5
100
AcDbSymbolTableRecord
100
AcDbLinetypeTableRecord
  2
CONTINUOUS
 70
     0
  3
--------------------
 72
    65
 73
     0
 40
0.0
  0
LTYPE
  5
A6
330
5
100
AcDbSymbolTableRecord
100
AcDbLinetypeTableRecord
  2
極太の実線
 70
     0
  3

 72
    65
 73
     0
 40
0.0
  0
LTYPE
  5
AF
330
5
100
AcDbSymbolTableRecord
100
AcDbLinetypeTableRecord
  2
太い実線
 70
     0
  3

 72
    65
 73
     0
 40
0.0
  0
LTYPE
  5
B6
330
5
100
AcDbSymbolTableRecord
100
AcDbLinetypeTableRecord
  2
細い実線
 70
     0
  3

 72
    65
 73
     0
 40
0.0
  0
LTYPE
  5
CC
330
5
100
AcDbSymbolTableRecord
100
AcDbLinetypeTableRecord
  2
020-1-CENTER2
 70
     0
  3

 72
    65
 73
     4
 40
1.0
 49
0.7
 74
     0
 49
-0.1
 74
     0
 49
0.1
 74
     0
 49
-0.1
 74
     0
  0
LTYPE
  5
40B
330
5
100
AcDbSymbolTableRecord
100
AcDbLinetypeTableRecord
  2
HIDDEN2
 70
     0
  3

 72
    65
 73
     2
 40
0.2
 49
0.1
 74
     0
 49
-0.1
 74
     0
  0
ENDTAB
  0
TABLE
  2
LAYER
  5
2
330
0
100
AcDbSymbolTable
 70
    19
  0
LAYER
  5
10
330
2
100
AcDbSymbolTableRecord
100
AcDbLayerTableRecord
  2
0
 70
     0
 62
     7
  6
CONTINUOUS
  0
LAYER
  5
A5
330
2
100
AcDbSymbolTableRecord
100
AcDbLayerTableRecord
  2
GR1-1
 70
     0
 62
     7
  6
CONTINUOUS
  0
ENDTAB
  0
TABLE
  2
STYLE
  5
3
330
0
100
AcDbSymbolTable
 70
     4
  0
STYLE
  5
11
330
3
100
AcDbSymbolTableRecord
100
AcDbTextStyleTableRecord
  2
STANDARD
 70
     0
 40
0.0
 41
1.0
 50
0.0
 71
     0
 42
0.2
  3
txt
  4

  0
STYLE
  5
3C
330
3
100
AcDbSymbolTableRecord
100
AcDbTextStyleTableRecord
  2
STYLE1
 70
     0
 40
0.0
 41
1.0
 50
0.0
 71
     0
 42
0.2
  3
MONOTXT.SHX
  4
extfont.shx
  0
STYLE
  5
3D
330
3
100
AcDbSymbolTableRecord
100
AcDbTextStyleTableRecord
  2
FX_VECTOR
 70
     0
 40
0.0
 41
1.0
 50
0.0
 71
     0
 42
0.2
  3
MONOTXT.SHX
  4
BIGFONT.SHX
  0
ENDTAB
  0
TABLE
  2
VIEW
  5
6
330
0
100
AcDbSymbolTable
 70
     0
  0
ENDTAB
  0
TABLE
  2
UCS
  5
7
330
0
100
AcDbSymbolTable
 70
     0
  0
ENDTAB
  0
TABLE
  2
APPID
  5
9
330
0
100
AcDbSymbolTable
 70
     1
  0
APPID
  5
12
330
9
100
AcDbSymbolTableRecord
100
AcDbRegAppTableRecord
  2
ACAD
 70
     0
  0
ENDTAB
  0
TABLE
  2
DIMSTYLE
  5
A
330
0
100
AcDbSymbolTable
 70
     2
  0
DIMSTYLE
105
27
330
A
100
AcDbSymbolTableRecord
100
AcDbDimStyleTableRecord
  2
STANDARD
 70
     0
  3

  4

  5

  6

  7

 40
1.0
 41
0.18
 42
0.0625
 43
0.38
 44
0.18
 45
0.0
 46
0.0
 47
0.0
 48
0.0
140
0.18
141
0.09
142
0.0
143
25.4
144
1.0
145
0.0
146
1.0
147
0.09
 71
     0
 72
     0
 73
     1
 74
     1
 75
     0
 76
     0
 77
     0
 78
     0
170
     0
171
     2
172
     0
173
     0
174
     0
175
     0
176
     0
177
     0
178
     0
270
     2
271
     4
272
     4
273
     2
274
     2
340
11
275
     0
280
     0
281
     0
282
     0
283
     1
284
     0
285
     0
286
     0
287
     3
288
     0
  0
DIMSTYLE
105
A4
330
A
100
AcDbSymbolTableRecord
100
AcDbDimStyleTableRecord
  2
FXDIMINFO
 70
     0
  3

  4

  5

  6
FXTIP_ARROW_S
  7
FXTIP_ARROW_E
 40
1.0
 41
2.0
 42
2.0
 43
7.0
 44
1.0
 45
0.0
 46
6.0
 47
0.0
 48
0.0
140
3.5
141
2.5
142
0.0
143
0.03937
144
1.0
145
0.0
146
1.0
147
1.0
 71
     0
 72
     0
 73
     0
 74
     0
 75
     0
 76
     0
 77
     1
 78
     8
170
     0
171
     3
172
     1
173
     1
174
     0
175
     0
176
     7
177
     7
178
     7
179
     2
270
     2
271
     2
272
     2
273
     2
274
     3
340
3C
275
     0
280
     0
281
     0
282
     0
283
     0
284
     8
285
     0
286
     0
287
     3
288
     0
  0
ENDTAB
  0
TABLE
  2
BLOCK_RECORD
  5
1
330
0
100
AcDbSymbolTable
 70
   109
  0
BLOCK_RECORD
  5
1F
330
1
100
AcDbSymbolTableRecord
100
AcDbBlockTableRecord
  2
*MODEL_SPACE
  0
BLOCK_RECORD
  5
1B
330
1
100
AcDbSymbolTableRecord
100
AcDbBlockTableRecord
  2
*PAPER_SPACE
  0
BLOCK_RECORD
  5
3E
330
1
100
AcDbSymbolTableRecord
100
AcDbBlockTableRecord
  2
FXTIP_ARROW_S
  0
BLOCK_RECORD
  5
44
330
1
100
AcDbSymbolTableRecord
100
AcDbBlockTableRecord
  2
FXTIP_ARROW_E
  0
BLOCK_RECORD
  5
4A
330
1
100
AcDbSymbolTableRecord
100
AcDbBlockTableRecord
  2
FXTIP_BLACKDOT_S
  0
BLOCK_RECORD
  5
50
330
1
100
AcDbSymbolTableRecord
100
AcDbBlockTableRecord
  2
FXTIP_BLACKDOT_E
  0
BLOCK_RECORD
  5
56
330
1
100
AcDbSymbolTableRecord
100
AcDbBlockTableRecord
  2
FXTIP_TRIANGLE_S
  0
BLOCK_RECORD
  5
5D
330
1
100
AcDbSymbolTableRecord
100
AcDbBlockTableRecord
  2
FXTIP_TRIANGLE_E
  0
BLOCK_RECORD
  5
64
330
1
100
AcDbSymbolTableRecord
100
AcDbBlockTableRecord
  2
FXTIP_ARCHITECT_S
  0
BLOCK_RECORD
  5
6A
330
1
100
AcDbSymbolTableRecord
100
AcDbBlockTableRecord
  2
FXTIP_ARCHITECT_E
  0
BLOCK_RECORD
  5
70
330
1
100
AcDbSymbolTableRecord
100
AcDbBlockTableRecord
  2
FXTIP_CIVIL_S
  0
BLOCK_RECORD
  5
76
330
1
100
AcDbSymbolTableRecord
100
AcDbBlockTableRecord
  2
FXTIP_CIVIL_E
  0
BLOCK_RECORD
  5
7C
330
1
100
AcDbSymbolTableRecord
100
AcDbBlockTableRecord
  2
FXTIP_WHITEDOT_S
  0
BLOCK_RECORD
  5
81
330
1
100
AcDbSymbolTableRecord
100
AcDbBlockTableRecord
  2
FXTIP_WHITEDOT_E
  0
BLOCK_RECORD
  5
86
330
1
100
AcDbSymbolTableRecord
100
AcDbBlockTableRecord
  2
FXTIP_UPARROW_S
  0
BLOCK_RECORD
  5
8B
330
1
100
AcDbSymbolTableRecord
100
AcDbBlockTableRecord
  2
FXTIP_UPARROW_E
  0
BLOCK_RECORD
  5
90
330
1
100
AcDbSymbolTableRecord
100
AcDbBlockTableRecord
  2
FXTIP_DOWNARROW_S
  0
BLOCK_RECORD
  5
95
330
1
100
AcDbSymbolTableRecord
100
AcDbBlockTableRecord
  2
FXTIP_DOWNARROW_E
  0
BLOCK_RECORD
  5
9A
330
1
100
AcDbSymbolTableRecord
100
AcDbBlockTableRecord
  2
FXTIP_BLACKTRIANGLE_S
  0
BLOCK_RECORD
  5
9F
330
1
100
AcDbSymbolTableRecord
100
AcDbBlockTableRecord
  2
FXTIP_BLACKTRIANGLE_E
  0
BLOCK_RECORD
  5
DC
330
1
100
AcDbSymbolTableRecord
100
AcDbBlockTableRecord
  2
BLKF021
  0
BLOCK_RECORD
  5
EB
330
1
100
AcDbSymbolTableRecord
100
AcDbBlockTableRecord
  2
BLKF022
  0
BLOCK_RECORD
  5
FE
330
1
100
AcDbSymbolTableRecord
100
AcDbBlockTableRecord
  2
BLKF023
  0
BLOCK_RECORD
  5
10D
330
1
100
AcDbSymbolTableRecord
100
AcDbBlockTableRecord
  2
BLKF024
  0
BLOCK_RECORD
  5
115
330
1
100
AcDbSymbolTableRecord
100
AcDbBlockTableRecord
  2
BLKF025
  0
BLOCK_RECORD
  5
121
330
1
100
AcDbSymbolTableRecord
100
AcDbBlockTableRecord
  2
BLKF026
  0
BLOCK_RECORD
  5
130
330
1
100
AcDbSymbolTableRecord
100
AcDbBlockTableRecord
  2
BLKF027
  0
BLOCK_RECORD
  5
13F
330
1
100
AcDbSymbolTableRecord
100
AcDbBlockTableRecord
  2
BLKF028
  0
BLOCK_RECORD
  5
14E
330
1
100
AcDbSymbolTableRecord
100
AcDbBlockTableRecord
  2
BLKF029
  0
BLOCK_RECORD
  5
15D
330
1
100
AcDbSymbolTableRecord
100
AcDbBlockTableRecord
  2
BLKF030
  0
BLOCK_RECORD
  5
16C
330
1
100
AcDbSymbolTableRecord
100
AcDbBlockTableRecord
  2
BLKF031
  0
BLOCK_RECORD
  5
17B
330
1
100
AcDbSymbolTableRecord
100
AcDbBlockTableRecord
  2
BLKF032
  0
BLOCK_RECORD
  5
18A
330
1
100
AcDbSymbolTableRecord
100
AcDbBlockTableRecord
  2
BLKF033
  0
BLOCK_RECORD
  5
198
330
1
100
AcDbSymbolTableRecord
100
AcDbBlockTableRecord
  2
BLKF034
  0
BLOCK_RECORD
  5
1A8
330
1
100
AcDbSymbolTableRecord
100
AcDbBlockTableRecord
  2
BLKF035
  0
BLOCK_RECORD
  5
1B6
330
1
100
AcDbSymbolTableRecord
100
AcDbBlockTableRecord
  2
BLKF036
  0
BLOCK_RECORD
  5
1C5
330
1
100
AcDbSymbolTableRecord
100
AcDbBlockTableRecord
  2
BLKF037
  0
BLOCK_RECORD
  5
1D4
330
1
100
AcDbSymbolTableRecord
100
AcDbBlockTableRecord
  2
BLKF038
  0
BLOCK_RECORD
  5
1E3
330
1
100
AcDbSymbolTableRecord
100
AcDbBlockTableRecord
  2
BLKF039
  0
BLOCK_RECORD
  5
1F2
330
1
100
AcDbSymbolTableRecord
100
AcDbBlockTableRecord
  2
BLKF040
  0
BLOCK_RECORD
  5
201
330
1
100
AcDbSymbolTableRecord
100
AcDbBlockTableRecord
  2
BLKF041
  0
BLOCK_RECORD
  5
210
330
1
100
AcDbSymbolTableRecord
100
AcDbBlockTableRecord
  2
BLKF042
  0
BLOCK_RECORD
  5
21E
330
1
100
AcDbSymbolTableRecord
100
AcDbBlockTableRecord
  2
BLKF043
  0
BLOCK_RECORD
  5
25E
330
1
100
AcDbSymbolTableRecord
100
AcDbBlockTableRecord
  2
BLKF044
  0
BLOCK_RECORD
  5
26D
330
1
100
AcDbSymbolTableRecord
100
AcDbBlockTableRecord
  2
BLKF045
  0
BLOCK_RECORD
  5
27C
330
1
100
AcDbSymbolTableRecord
100
AcDbBlockTableRecord
  2
BLKF046
  0
BLOCK_RECORD
  5
28B
330
1
100
AcDbSymbolTableRecord
100
AcDbBlockTableRecord
  2
BLKF047
  0
BLOCK_RECORD
  5
29A
330
1
100
AcDbSymbolTableRecord
100
AcDbBlockTableRecord
  2
BLKF048
  0
BLOCK_RECORD
  5
2A9
330
1
100
AcDbSymbolTableRecord
100
AcDbBlockTableRecord
  2
BLKF049
  0
BLOCK_RECORD
  5
2B8
330
1
100
AcDbSymbolTableRecord
100
AcDbBlockTableRecord
  2
BLKF050
  0
BLOCK_RECORD
  5
2C6
330
1
100
AcDbSymbolTableRecord
100
AcDbBlockTableRecord
  2
BLKF051
  0
BLOCK_RECORD
  5
2D4
330
1
100
AcDbSymbolTableRecord
100
AcDbBlockTableRecord
  2
BLKF052
  0
BLOCK_RECORD
  5
2E3
330
1
100
AcDbSymbolTableRecord
100
AcDbBlockTableRecord
  2
BLKF053
  0
BLOCK_RECORD
  5
2F1
330
1
100
AcDbSymbolTableRecord
100
AcDbBlockTableRecord
  2
BLKF054
  0
BLOCK_RECORD
  5
302
330
1
100
AcDbSymbolTableRecord
100
AcDbBlockTableRecord
  2
BLKF055
  0
BLOCK_RECORD
  5
313
330
1
100
AcDbSymbolTableRecord
100
AcDbBlockTableRecord
  2
BLKF056
  0
BLOCK_RECORD
  5
322
330
1
100
AcDbSymbolTableRecord
100
AcDbBlockTableRecord
  2
BLKF057
  0
BLOCK_RECORD
  5
330
330
1
100
AcDbSymbolTableRecord
100
AcDbBlockTableRecord
  2
BLKF058
  0
BLOCK_RECORD
  5
343
330
1
100
AcDbSymbolTableRecord
100
AcDbBlockTableRecord
  2
BLKF059
  0
BLOCK_RECORD
  5
351
330
1
100
AcDbSymbolTableRecord
100
AcDbBlockTableRecord
  2
BLKF060
  0
BLOCK_RECORD
  5
35F
330
1
100
AcDbSymbolTableRecord
100
AcDbBlockTableRecord
  2
BLKF061
  0
BLOCK_RECORD
  5
3C2
330
1
100
AcDbSymbolTableRecord
100
AcDbBlockTableRecord
  2
BLKF062
  0
BLOCK_RECORD
  5
3D1
330
1
100
AcDbSymbolTableRecord
100
AcDbBlockTableRecord
  2
BLKF063
  0
BLOCK_RECORD
  5
3E0
330
1
100
AcDbSymbolTableRecord
100
AcDbBlockTableRecord
  2
BLKF064
  0
BLOCK_RECORD
  5
3EE
330
1
100
AcDbSymbolTableRecord
100
AcDbBlockTableRecord
  2
BLKF065
  0
BLOCK_RECORD
  5
3FC
330
1
100
AcDbSymbolTableRecord
100
AcDbBlockTableRecord
  2
BLKF066
  0
BLOCK_RECORD
  5
418
330
1
100
AcDbSymbolTableRecord
100
AcDbBlockTableRecord
  2
BLKF067
  0
BLOCK_RECORD
  5
427
330
1
100
AcDbSymbolTableRecord
100
AcDbBlockTableRecord
  2
BLKF068
  0
BLOCK_RECORD
  5
435
330
1
100
AcDbSymbolTableRecord
100
AcDbBlockTableRecord
  2
BLKF069
  0
BLOCK_RECORD
  5
443
330
1
100
AcDbSymbolTableRecord
100
AcDbBlockTableRecord
  2
BLKF070
  0
BLOCK_RECORD
  5
451
330
1
100
AcDbSymbolTableRecord
100
AcDbBlockTableRecord
  2
BLKF071
  0
BLOCK_RECORD
  5
463
330
1
100
AcDbSymbolTableRecord
100
AcDbBlockTableRecord
  2
BLKF072
  0
BLOCK_RECORD
  5
471
330
1
100
AcDbSymbolTableRecord
100
AcDbBlockTableRecord
  2
BLKF073
  0
BLOCK_RECORD
  5
480
330
1
100
AcDbSymbolTableRecord
100
AcDbBlockTableRecord
  2
BLKF074
  0
BLOCK_RECORD
  5
48E
330
1
100
AcDbSymbolTableRecord
100
AcDbBlockTableRecord
  2
BLKF075
  0
BLOCK_RECORD
  5
49C
330
1
100
AcDbSymbolTableRecord
100
AcDbBlockTableRecord
  2
BLKF076
  0
BLOCK_RECORD
  5
4AA
330
1
100
AcDbSymbolTableRecord
100
AcDbBlockTableRecord
  2
BLKF077
  0
BLOCK_RECORD
  5
4B9
330
1
100
AcDbSymbolTableRecord
100
AcDbBlockTableRecord
  2
BLKF078
  0
BLOCK_RECORD
  5
4C8
330
1
100
AcDbSymbolTableRecord
100
AcDbBlockTableRecord
  2
BLKF079
  0
BLOCK_RECORD
  5
4D7
330
1
100
AcDbSymbolTableRecord
100
AcDbBlockTableRecord
  2
BLKF080
  0
BLOCK_RECORD
  5
4E5
330
1
100
AcDbSymbolTableRecord
100
AcDbBlockTableRecord
  2
BLKF081
  0
BLOCK_RECORD
  5
4F4
330
1
100
AcDbSymbolTableRecord
100
AcDbBlockTableRecord
  2
BLKF082
  0
BLOCK_RECORD
  5
50A
330
1
100
AcDbSymbolTableRecord
100
AcDbBlockTableRecord
  2
BLKF083
  0
BLOCK_RECORD
  5
519
330
1
100
AcDbSymbolTableRecord
100
AcDbBlockTableRecord
  2
BLKF084
  0
BLOCK_RECORD
  5
528
330
1
100
AcDbSymbolTableRecord
100
AcDbBlockTableRecord
  2
BLKF085
  0
BLOCK_RECORD
  5
539
330
1
100
AcDbSymbolTableRecord
100
AcDbBlockTableRecord
  2
BLKF086
  0
BLOCK_RECORD
  5
548
330
1
100
AcDbSymbolTableRecord
100
AcDbBlockTableRecord
  2
BLKF087
  0
BLOCK_RECORD
  5
559
330
1
100
AcDbSymbolTableRecord
100
AcDbBlockTableRecord
  2
BLKF088
  0
BLOCK_RECORD
  5
56C
330
1
100
AcDbSymbolTableRecord
100
AcDbBlockTableRecord
  2
BLKF089
  0
BLOCK_RECORD
  5
581
330
1
100
AcDbSymbolTableRecord
100
AcDbBlockTableRecord
  2
BLKF090
  0
BLOCK_RECORD
  5
593
330
1
100
AcDbSymbolTableRecord
100
AcDbBlockTableRecord
  2
BLKF091
  0
BLOCK_RECORD
  5
59D
330
1
100
AcDbSymbolTableRecord
100
AcDbBlockTableRecord
  2
BLKF092
  0
BLOCK_RECORD
  5
5A9
330
1
100
AcDbSymbolTableRecord
100
AcDbBlockTableRecord
  2
BLKF093
  0
BLOCK_RECORD
  5
5B7
330
1
100
AcDbSymbolTableRecord
100
AcDbBlockTableRecord
  2
BLKF094
  0
BLOCK_RECORD
  5
5C6
330
1
100
AcDbSymbolTableRecord
100
AcDbBlockTableRecord
  2
BLKF095
  0
BLOCK_RECORD
  5
5D4
330
1
100
AcDbSymbolTableRecord
100
AcDbBlockTableRecord
  2
BLKF096
  0
BLOCK_RECORD
  5
5EF
330
1
100
AcDbSymbolTableRecord
100
AcDbBlockTableRecord
  2
BLKF097
  0
BLOCK_RECORD
  5
5FD
330
1
100
AcDbSymbolTableRecord
100
AcDbBlockTableRecord
  2
BLKF098
  0
BLOCK_RECORD
  5
60E
330
1
100
AcDbSymbolTableRecord
100
AcDbBlockTableRecord
  2
BLKF099
  0
BLOCK_RECORD
  5
61C
330
1
100
AcDbSymbolTableRecord
100
AcDbBlockTableRecord
  2
BLKF100
  0
BLOCK_RECORD
  5
633
330
1
100
AcDbSymbolTableRecord
100
AcDbBlockTableRecord
  2
BLKF101
  0
BLOCK_RECORD
  5
641
330
1
100
AcDbSymbolTableRecord
100
AcDbBlockTableRecord
  2
BLKF102
  0
BLOCK_RECORD
  5
64F
330
1
100
AcDbSymbolTableRecord
100
AcDbBlockTableRecord
  2
BLKF103
  0
BLOCK_RECORD
  5
65D
330
1
100
AcDbSymbolTableRecord
100
AcDbBlockTableRecord
  2
BLKF104
  0
BLOCK_RECORD
  5
66B
330
1
100
AcDbSymbolTableRecord
100
AcDbBlockTableRecord
  2
BLKF105
  0
BLOCK_RECORD
  5
681
330
1
100
AcDbSymbolTableRecord
100
AcDbBlockTableRecord
  2
BLKF106
  0
BLOCK_RECORD
  5
693
330
1
100
AcDbSymbolTableRecord
100
AcDbBlockTableRecord
  2
BLKF107
  0
BLOCK_RECORD
  5
6D8
330
1
100
AcDbSymbolTableRecord
100
AcDbBlockTableRecord
  2
BLKF108
  0
BLOCK_RECORD
  5
6E5
330
1
100
AcDbSymbolTableRecord
100
AcDbBlockTableRecord
  2
BLKF109
  0
BLOCK_RECORD
  5
6F2
330
1
100
AcDbSymbolTableRecord
100
AcDbBlockTableRecord
  2
BLKF110
  0
ENDTAB
  0
ENDSEC
  0
SECTION
  2
BLOCKS
  0
BLOCK
  5
20
330
1F
100
AcDbEntity
  8
0
100
AcDbBlockBegin
  2
*MODEL_SPACE
 70
     0
 71
     0
 10
0.0
 20
0.0
 30
0.0
  3
*MODEL_SPACE
  1

  0
ENDBLK
  5
21
330
1F
100
AcDbEntity
  8
0
100
AcDbBlockEnd
  0
BLOCK
  5
1C
330
1B
100
AcDbEntity
 67
     1
  8
0
100
AcDbBlockBegin
  2
*PAPER_SPACE
 70
     0
 71
     0
 10
0.0
 20
0.0
 30
0.0
  3
*PAPER_SPACE
  1

  0
ENDBLK
  5
1D
330
1B
100
AcDbEntity
 67
     1
  8
0
100
AcDbBlockEnd
  0
BLOCK
  5
3F
330
3E
100
AcDbEntity
  8
0
100
AcDbBlockBegin
  2
FXTIP_ARROW_S
 70
     0
 71
     0
 10
0.0
 20
0.0
 30
0.0
  3
FXTIP_ARROW_S
  1

  0
LINE
  5
41
330
3E
100
AcDbEntity
  8
0
  6
CONTINUOUS
 62
     0
100
AcDbLine
 10
0.0
 20
0.0
 30
0.0
 11
-1.0
 21
0.0
 31
0.0
  0
LINE
  5
42
330
3E
100
AcDbEntity
  8
0
  6
CONTINUOUS
 62
     0
100
AcDbLine
 10
0.0
 20
0.0
 30
0.0
 11
-0.965926
 21
-0.258819
 31
0.0
  0
LINE
  5
43
330
3E
100
AcDbEntity
  8
0
  6
CONTINUOUS
 62
     0
100
AcDbLine
 10
0.0
 20
0.0
 30
0.0
 11
-0.965926
 21
0.258819
 31
0.0
  0
ENDBLK
  5
40
330
3E
100
AcDbEntity
  8
0
100
AcDbBlockEnd
  0
BLOCK
  5
45
330
44
100
AcDbEntity
  8
0
100
AcDbBlockBegin
  2
FXTIP_ARROW_E
 70
     0
 71
     0
 10
0.0
 20
0.0
 30
0.0
  3
FXTIP_ARROW_E
  1

  0
LINE
  5
47
330
44
100
AcDbEntity
  8
0
  6
CONTINUOUS
 62
     0
100
AcDbLine
 10
0.0
 20
0.0
 30
0.0
 11
-1.0
 21
0.0
 31
0.0
  0
LINE
  5
48
330
44
100
AcDbEntity
  8
0
  6
CONTINUOUS
 62
     0
100
AcDbLine
 10
0.0
 20
0.0
 30
0.0
 11
-0.965926
 21
0.258819
 31
0.0
  0
LINE
  5
49
330
44
100
AcDbEntity
  8
0
  6
CONTINUOUS
 62
     0
100
AcDbLine
 10
0.0
 20
0.0
 30
0.0
 11
-0.965926
 21
-0.258819
 31
0.0
  0
ENDBLK
  5
46
330
44
100
AcDbEntity
  8
0
100
AcDbBlockEnd
  0
BLOCK
  5
4B
330
4A
100
AcDbEntity
  8
0
100
AcDbBlockBegin
  2
FXTIP_BLACKDOT_S
 70
     0
 71
     0
 10
0.0
 20
0.0
 30
0.0
  3
FXTIP_BLACKDOT_S
  1

  0
LINE
  5
4D
330
4A
100
AcDbEntity
  8
0
  6
CONTINUOUS
 62
     0
100
AcDbLine
 10
0.0
 20
0.0
 30
0.0
 11
-1.0
 21
0.0
 31
0.0
  0
POLYLINE
  5
4E
330
4A
100
AcDbEntity
  8
0
  6
CONTINUOUS
 62
     0
100
AcDb2dPolyline
 66
     1
 10
0.0
 20
0.0
 30
0.0
 70
     1
  0
VERTEX
  5
707
330
4E
100
AcDbEntity
  8
0
  6
CONTINUOUS
 62
     0
100
AcDbVertex
100
AcDb2dVertex
 10
-0.25
 20
0.0
 30
0.0
 40
0.5
 41
0.5
 42
1.0
  0
VERTEX
  5
708
330
4E
100
AcDbEntity
  8
0
  6
CONTINUOUS
 62
     0
100
AcDbVertex
100
AcDb2dVertex
 10
0.25
 20
0.0
 30
0.0
 40
0.5
 41
0.5
 42
1.0
  0
SEQEND
  5
706
330
4E
100
AcDbEntity
  8
0
  6
CONTINUOUS
 62
     0
  0
CIRCLE
  5
4F
330
4A
100
AcDbEntity
  8
0
  6
CONTINUOUS
 62
     0
100
AcDbCircle
 10
0.0
 20
0.0
 30
0.0
 40
0.5
  0
ENDBLK
  5
4C
330
4A
100
AcDbEntity
  8
0
100
AcDbBlockEnd
  0
BLOCK
  5
51
330
50
100
AcDbEntity
  8
0
100
AcDbBlockBegin
  2
FXTIP_BLACKDOT_E
 70
     0
 71
     0
 10
0.0
 20
0.0
 30
0.0
  3
FXTIP_BLACKDOT_E
  1

  0
LINE
  5
53
330
50
100
AcDbEntity
  8
0
  6
CONTINUOUS
 62
     0
100
AcDbLine
 10
0.0
 20
0.0
 30
0.0
 11
-1.0
 21
0.0
 31
0.0
  0
POLYLINE
  5
54
330
50
100
AcDbEntity
  8
0
  6
CONTINUOUS
 62
     0
100
AcDb2dPolyline
 66
     1
 10
0.0
 20
0.0
 30
0.0
 70
     1
  0
VERTEX
  5
70A
330
54
100
AcDbEntity
  8
0
  6
CONTINUOUS
 62
     0
100
AcDbVertex
100
AcDb2dVertex
 10
-0.25
 20
0.0
 30
0.0
 40
0.5
 41
0.5
 42
1.0
  0
VERTEX
  5
70B
330
54
100
AcDbEntity
  8
0
  6
CONTINUOUS
 62
     0
100
AcDbVertex
100
AcDb2dVertex
 10
0.25
 20
0.0
 30
0.0
 40
0.5
 41
0.5
 42
1.0
  0
SEQEND
  5
709
330
54
100
AcDbEntity
  8
0
  6
CONTINUOUS
 62
     0
  0
CIRCLE
  5
55
330
50
100
AcDbEntity
  8
0
  6
CONTINUOUS
 62
     0
100
AcDbCircle
 10
0.0
 20
0.0
 30
0.0
 40
0.5
  0
ENDBLK
  5
52
330
50
100
AcDbEntity
  8
0
100
AcDbBlockEnd
  0
BLOCK
  5
57
330
56
100
AcDbEntity
  8
0
100
AcDbBlockBegin
  2
FXTIP_TRIANGLE_S
 70
     0
 71
     0
 10
0.0
 20
0.0
 30
0.0
  3
FXTIP_TRIANGLE_S
  1

  0
LINE
  5
59
330
56
100
AcDbEntity
  8
0
  6
CONTINUOUS
 62
     0
100
AcDbLine
 10
0.0
 20
0.0
 30
0.0
 11
-1.0
 21
0.0
 31
0.0
  0
LINE
  5
5A
330
56
100
AcDbEntity
  8
0
  6
CONTINUOUS
 62
     0
100
AcDbLine
 10
0.0
 20
0.0
 30
0.0
 11
-0.965926
 21
-0.258819
 31
0.0
  0
LINE
  5
5B
330
56
100
AcDbEntity
  8
0
  6
CONTINUOUS
 62
     0
100
AcDbLine
 10
0.0
 20
0.0
 30
0.0
 11
-0.965926
 21
0.258819
 31
0.0
  0
LINE
  5
5C
330
56
100
AcDbEntity
  8
0
  6
CONTINUOUS
 62
     0
100
AcDbLine
 10
-0.965926
 20
-0.258819
 30
0.0
 11
-0.965926
 21
0.258819
 31
0.0
  0
ENDBLK
  5
58
330
56
100
AcDbEntity
  8
0
100
AcDbBlockEnd
  0
BLOCK
  5
5E
330
5D
100
AcDbEntity
  8
0
100
AcDbBlockBegin
  2
FXTIP_TRIANGLE_E
 70
     0
 71
     0
 10
0.0
 20
0.0
 30
0.0
  3
FXTIP_TRIANGLE_E
  1

  0
LINE
  5
60
330
5D
100
AcDbEntity
  8
0
  6
CONTINUOUS
 62
     0
100
AcDbLine
 10
0.0
 20
0.0
 30
0.0
 11
-1.0
 21
0.0
 31
0.0
  0
LINE
  5
61
330
5D
100
AcDbEntity
  8
0
  6
CONTINUOUS
 62
     0
100
AcDbLine
 10
0.0
 20
0.0
 30
0.0
 11
-0.965926
 21
0.258819
 31
0.0
  0
LINE
  5
62
330
5D
100
AcDbEntity
  8
0
  6
CONTINUOUS
 62
     0
100
AcDbLine
 10
0.0
 20
0.0
 30
0.0
 11
-0.965926
 21
-0.258819
 31
0.0
  0
LINE
  5
63
330
5D
100
AcDbEntity
  8
0
  6
CONTINUOUS
 62
     0
100
AcDbLine
 10
-0.965926
 20
0.258819
 30
0.0
 11
-0.965926
 21
-0.258819
 31
0.0
  0
ENDBLK
  5
5F
330
5D
100
AcDbEntity
  8
0
100
AcDbBlockEnd
  0
BLOCK
  5
65
330
64
100
AcDbEntity
  8
0
100
AcDbBlockBegin
  2
FXTIP_ARCHITECT_S
 70
     0
 71
     0
 10
0.0
 20
0.0
 30
0.0
  3
FXTIP_ARCHITECT_S
  1

  0
LINE
  5
67
330
64
100
AcDbEntity
  8
0
  6
CONTINUOUS
 62
     0
100
AcDbLine
 10
0.0
 20
0.0
 30
0.0
 11
-1.0
 21
0.0
 31
0.0
  0
LINE
  5
68
330
64
100
AcDbEntity
  8
0
  6
CONTINUOUS
 62
     0
100
AcDbLine
 10
0.0
 20
0.0
 30
0.0
 11
-0.707107
 21
-0.707107
 31
0.0
  0
LINE
  5
69
330
64
100
AcDbEntity
  8
0
  6
CONTINUOUS
 62
     0
100
AcDbLine
 10
0.0
 20
0.0
 30
0.0
 11
0.707107
 21
0.707107
 31
0.0
  0
ENDBLK
  5
66
330
64
100
AcDbEntity
  8
0
100
AcDbBlockEnd
  0
BLOCK
  5
6B
330
6A
100
AcDbEntity
  8
0
100
AcDbBlockBegin
  2
FXTIP_ARCHITECT_E
 70
     0
 71
     0
 10
0.0
 20
0.0
 30
0.0
  3
FXTIP_ARCHITECT_E
  1

  0
LINE
  5
6D
330
6A
100
AcDbEntity
  8
0
  6
CONTINUOUS
 62
     0
100
AcDbLine
 10
0.0
 20
0.0
 30
0.0
 11
-1.0
 21
0.0
 31
0.0
  0
LINE
  5
6E
330
6A
100
AcDbEntity
  8
0
  6
CONTINUOUS
 62
     0
100
AcDbLine
 10
0.0
 20
0.0
 30
0.0
 11
0.707107
 21
0.707107
 31
0.0
  0
LINE
  5
6F
330
6A
100
AcDbEntity
  8
0
  6
CONTINUOUS
 62
     0
100
AcDbLine
 10
0.0
 20
0.0
 30
0.0
 11
-0.707107
 21
-0.707107
 31
0.0
  0
ENDBLK
  5
6C
330
6A
100
AcDbEntity
  8
0
100
AcDbBlockEnd
  0
BLOCK
  5
71
330
70
100
AcDbEntity
  8
0
100
AcDbBlockBegin
  2
FXTIP_CIVIL_S
 70
     0
 71
     0
 10
0.0
 20
0.0
 30
0.0
  3
FXTIP_CIVIL_S
  1

  0
LINE
  5
73
330
70
100
AcDbEntity
  8
0
  6
CONTINUOUS
 62
     0
100
AcDbLine
 10
0.0
 20
0.0
 30
0.0
 11
-1.0
 21
0.0
 31
0.0
  0
LINE
  5
74
330
70
100
AcDbEntity
  8
0
  6
CONTINUOUS
 62
     0
100
AcDbLine
 10
0.0
 20
-0.125
 30
0.0
 11
-1.0
 21
-0.125
 31
0.0
  0
LINE
  5
75
330
70
100
AcDbEntity
  8
0
  6
CONTINUOUS
 62
     0
100
AcDbLine
 10
0.0
 20
-0.25
 30
0.0
 11
-1.0
 21
-0.25
 31
0.0
  0
ENDBLK
  5
72
330
70
100
AcDbEntity
  8
0
100
AcDbBlockEnd
  0
BLOCK
  5
77
330
76
100
AcDbEntity
  8
0
100
AcDbBlockBegin
  2
FXTIP_CIVIL_E
 70
     0
 71
     0
 10
0.0
 20
0.0
 30
0.0
  3
FXTIP_CIVIL_E
  1

  0
LINE
  5
79
330
76
100
AcDbEntity
  8
0
  6
CONTINUOUS
 62
     0
100
AcDbLine
 10
0.0
 20
0.0
 30
0.0
 11
-1.0
 21
0.0
 31
0.0
  0
LINE
  5
7A
330
76
100
AcDbEntity
  8
0
  6
CONTINUOUS
 62
     0
100
AcDbLine
 10
0.0
 20
0.125
 30
0.0
 11
-1.0
 21
0.125
 31
0.0
  0
LINE
  5
7B
330
76
100
AcDbEntity
  8
0
  6
CONTINUOUS
 62
     0
100
AcDbLine
 10
0.0
 20
0.25
 30
0.0
 11
-1.0
 21
0.25
 31
0.0
  0
ENDBLK
  5
78
330
76
100
AcDbEntity
  8
0
100
AcDbBlockEnd
  0
BLOCK
  5
7D
330
7C
100
AcDbEntity
  8
0
100
AcDbBlockBegin
  2
FXTIP_WHITEDOT_S
 70
     0
 71
     0
 10
0.0
 20
0.0
 30
0.0
  3
FXTIP_WHITEDOT_S
  1

  0
LINE
  5
7F
330
7C
100
AcDbEntity
  8
0
  6
CONTINUOUS
 62
     0
100
AcDbLine
 10
0.0
 20
0.0
 30
0.0
 11
-1.0
 21
0.0
 31
0.0
  0
CIRCLE
  5
80
330
7C
100
AcDbEntity
  8
0
  6
CONTINUOUS
 62
     0
100
AcDbCircle
 10
0.0
 20
0.0
 30
0.0
 40
0.5
  0
ENDBLK
  5
7E
330
7C
100
AcDbEntity
  8
0
100
AcDbBlockEnd
  0
BLOCK
  5
82
330
81
100
AcDbEntity
  8
0
100
AcDbBlockBegin
  2
FXTIP_WHITEDOT_E
 70
     0
 71
     0
 10
0.0
 20
0.0
 30
0.0
  3
FXTIP_WHITEDOT_E
  1

  0
LINE
  5
84
330
81
100
AcDbEntity
  8
0
  6
CONTINUOUS
 62
     0
100
AcDbLine
 10
0.0
 20
0.0
 30
0.0
 11
-1.0
 21
0.0
 31
0.0
  0
CIRCLE
  5
85
330
81
100
AcDbEntity
  8
0
  6
CONTINUOUS
 62
     0
100
AcDbCircle
 10
0.0
 20
0.0
 30
0.0
 40
0.5
  0
ENDBLK
  5
83
330
81
100
AcDbEntity
  8
0
100
AcDbBlockEnd
  0
BLOCK
  5
87
330
86
100
AcDbEntity
  8
0
100
AcDbBlockBegin
  2
FXTIP_UPARROW_S
 70
     0
 71
     0
 10
0.0
 20
0.0
 30
0.0
  3
FXTIP_UPARROW_S
  1

  0
LINE
  5
89
330
86
100
AcDbEntity
  8
0
  6
CONTINUOUS
 62
     0
100
AcDbLine
 10
0.0
 20
0.0
 30
0.0
 11
-1.0
 21
0.0
 31
0.0
  0
LINE
  5
8A
330
86
100
AcDbEntity
  8
0
  6
CONTINUOUS
 62
     0
100
AcDbLine
 10
0.0
 20
0.0
 30
0.0
 11
-0.965926
 21
-0.258819
 31
0.0
  0
ENDBLK
  5
88
330
86
100
AcDbEntity
  8
0
100
AcDbBlockEnd
  0
BLOCK
  5
8C
330
8B
100
AcDbEntity
  8
0
100
AcDbBlockBegin
  2
FXTIP_UPARROW_E
 70
     0
 71
     0
 10
0.0
 20
0.0
 30
0.0
  3
FXTIP_UPARROW_E
  1

  0
LINE
  5
8E
330
8B
100
AcDbEntity
  8
0
  6
CONTINUOUS
 62
     0
100
AcDbLine
 10
0.0
 20
0.0
 30
0.0
 11
-1.0
 21
0.0
 31
0.0
  0
LINE
  5
8F
330
8B
100
AcDbEntity
  8
0
  6
CONTINUOUS
 62
     0
100
AcDbLine
 10
0.0
 20
0.0
 30
0.0
 11
-0.965926
 21
0.258819
 31
0.0
  0
ENDBLK
  5
8D
330
8B
100
AcDbEntity
  8
0
100
AcDbBlockEnd
  0
BLOCK
  5
91
330
90
100
AcDbEntity
  8
0
100
AcDbBlockBegin
  2
FXTIP_DOWNARROW_S
 70
     0
 71
     0
 10
0.0
 20
0.0
 30
0.0
  3
FXTIP_DOWNARROW_S
  1

  0
LINE
  5
93
330
90
100
AcDbEntity
  8
0
  6
CONTINUOUS
 62
     0
100
AcDbLine
 10
0.0
 20
0.0
 30
0.0
 11
-1.0
 21
0.0
 31
0.0
  0
LINE
  5
94
330
90
100
AcDbEntity
  8
0
  6
CONTINUOUS
 62
     0
100
AcDbLine
 10
0.0
 20
0.0
 30
0.0
 11
-0.965926
 21
0.258819
 31
0.0
  0
ENDBLK
  5
92
330
90
100
AcDbEntity
  8
0
100
AcDbBlockEnd
  0
BLOCK
  5
96
330
95
100
AcDbEntity
  8
0
100
AcDbBlockBegin
  2
FXTIP_DOWNARROW_E
 70
     0
 71
     0
 10
0.0
 20
0.0
 30
0.0
  3
FXTIP_DOWNARROW_E
  1

  0
LINE
  5
98
330
95
100
AcDbEntity
  8
0
  6
CONTINUOUS
 62
     0
100
AcDbLine
 10
0.0
 20
0.0
 30
0.0
 11
-1.0
 21
0.0
 31
0.0
  0
LINE
  5
99
330
95
100
AcDbEntity
  8
0
  6
CONTINUOUS
 62
     0
100
AcDbLine
 10
0.0
 20
0.0
 30
0.0
 11
-0.965926
 21
-0.258819
 31
0.0
  0
ENDBLK
  5
97
330
95
100
AcDbEntity
  8
0
100
AcDbBlockEnd
  0
BLOCK
  5
9B
330
9A
100
AcDbEntity
  8
0
100
AcDbBlockBegin
  2
FXTIP_BLACKTRIANGLE_S
 70
     0
 71
     0
 10
0.0
 20
0.0
 30
0.0
  3
FXTIP_BLACKTRIANGLE_S
  1

  0
LINE
  5
9D
330
9A
100
AcDbEntity
  8
0
  6
CONTINUOUS
 62
     0
100
AcDbLine
 10
0.0
 20
0.0
 30
0.0
 11
-1.0
 21
0.0
 31
0.0
  0
SOLID
  5
9E
330
9A
100
AcDbEntity
  8
0
  6
CONTINUOUS
 62
     0
100
AcDbTrace
 10
0.0
 20
0.0
 30
0.0
 11
-0.965926
 21
-0.258819
 31
0.0
 12
-0.965926
 22
0.258819
 32
0.0
 13
-0.965926
 23
0.258819
 33
0.0
  0
ENDBLK
  5
9C
330
9A
100
AcDbEntity
  8
0
100
AcDbBlockEnd
  0
BLOCK
  5
A0
330
9F
100
AcDbEntity
  8
0
100
AcDbBlockBegin
  2
FXTIP_BLACKTRIANGLE_E
 70
     0
 71
     0
 10
0.0
 20
0.0
 30
0.0
  3
FXTIP_BLACKTRIANGLE_E
  1

  0
LINE
  5
A2
330
9F
100
AcDbEntity
  8
0
  6
CONTINUOUS
 62
     0
100
AcDbLine
 10
0.0
 20
0.0
 30
0.0
 11
-1.0
 21
0.0
 31
0.0
  0
SOLID
  5
A3
330
9F
100
AcDbEntity
  8
0
  6
CONTINUOUS
 62
     0
100
AcDbTrace
 10
0.0
 20
0.0
 30
0.0
 11
-0.965926
 21
0.258819
 31
0.0
 12
-0.965926
 22
-0.258819
 32
0.0
 13
-0.965926
 23
-0.258819
 33
0.0
  0
ENDBLK
  5
A1
330
9F
100
AcDbEntity
  8
0
100
AcDbBlockEnd
  0
BLOCK
  5
DD
330
DC
100
AcDbEntity
  8
0
100
AcDbBlockBegin
  2
BLKF021
 70
     0
 71
     0
 10
0.0
 20
0.0
 30
0.0
  3
BLKF021
  1

  0
LINE
  5
E0
330
DC
100
AcDbEntity
  8
GR1-1
  6
細い実線
 62
     2
100
AcDbLine
 10
679.863387
 20
183.503677
 30
0.0
 11
679.863387
 21
188.318702
 31
0.0
  0
LINE
  5
E1
330
DC
100
AcDbEntity
  8
GR1-1
  6
細い実線
 62
     2
100
AcDbLine
 10
681.663387
 20
183.503677
 30
0.0
 11
681.663387
 21
188.318702
 31
0.0
  0
LINE
  5
E2
330
DC
100
AcDbEntity
  8
GR1-1
  6
細い実線
 62
     2
100
AcDbLine
 10
679.083387
 20
187.718702
 30
0.0
 11
678.303387
 21
187.718702
 31
0.0
  0
LINE
  5
E3
330
DC
100
AcDbEntity
  8
GR1-1
  6
細い実線
 62
     2
100
AcDbLine
 10
682.443387
 20
187.718702
 30
0.0
 11
683.223387
 21
187.718702
 31
0.0
  0
TEXT
  5
E4
330
DC
100
AcDbEntity
  8
GR1-1
  6
細い実線
 62
     4
100
AcDbText
 10
679.188359
 20
189.218711
 30
0.0
 40
1.5
  1
%%c30
 41
0.7
  7
FX_VECTOR
 72
     5
 11
682.338359
 21
189.218711
 31
0.0
100
AcDbText
  0
LINE
  5
E5
330
DC
100
AcDbEntity
  8
GR1-1
  6
細い実線
 62
     2
100
AcDbLine
 10
679.083387
 20
187.848702
 30
0.0
 11
679.083387
 21
187.588702
 31
0.0
  0
LINE
  5
E6
330
DC
100
AcDbEntity
  8
GR1-1
  6
細い実線
 62
     2
100
AcDbLine
 10
679.083387
 20
187.588702
 30
0.0
 11
679.863387
 21
187.718702
 31
0.0
  0
LINE
  5
E7
330
DC
100
AcDbEntity
  8
GR1-1
  6
細い実線
 62
     2
100
AcDbLine
 10
679.863387
 20
187.718702
 30
0.0
 11
679.083387
 21
187.848702
 31
0.0
  0
LINE
  5
E8
330
DC
100
AcDbEntity
  8
GR1-1
  6
細い実線
 62
     2
100
AcDbLine
 10
682.443387
 20
187.848702
 30
0.0
 11
682.443387
 21
187.588702
 31
0.0
  0
LINE
  5
E9
330
DC
100
AcDbEntity
  8
GR1-1
  6
細い実線
 62
     2
100
AcDbLine
 10
682.443387
 20
187.588702
 30
0.0
 11
681.663387
 21
187.718702
 31
0.0
  0
LINE
  5
EA
330
DC
100
AcDbEntity
  8
GR1-1
  6
細い実線
 62
     2
100
AcDbLine
 10
681.663387
 20
187.718702
 30
0.0
 11
682.443387
 21
187.848702
 31
0.0
  0
ENDBLK
  5
DE
330
DC
100
AcDbEntity
  8
0
100
AcDbBlockEnd
  0
BLOCK
  5
EC
330
EB
100
AcDbEntity
  8
0
100
AcDbBlockBegin
  2
BLKF022
 70
     0
 71
     0
 10
0.0
 20
0.0
 30
0.0
  3
BLKF022
  1

  0
LINE
  5
EF
330
EB
100
AcDbEntity
  8
GR1-1
  6
細い実線
 62
     2
100
AcDbLine
 10
680.388387
 20
178.703677
 30
0.0
 11
680.388387
 21
176.140071
 31
0.0
  0
LINE
  5
F0
330
EB
100
AcDbEntity
  8
GR1-1
  6
細い実線
 62
     2
100
AcDbLine
 10
681.138387
 20
178.703677
 30
0.0
 11
681.138387
 21
176.140071
 31
0.0
  0
LINE
  5
F1
330
EB
100
AcDbEntity
  8
GR1-1
  6
細い実線
 62
     2
100
AcDbLine
 10
679.608387
 20
176.740071
 30
0.0
 11
678.828387
 21
176.740071
 31
0.0
  0
LINE
  5
F2
330
EB
100
AcDbEntity
  8
GR1-1
  6
細い実線
 62
     2
100
AcDbLine
 10
681.918387
 20
176.740071
 30
0.0
 11
682.698387
 21
176.740071
 31
0.0
  0
TEXT
  5
F3
330
EB
100
AcDbEntity
  8
GR1-1
  6
細い実線
 62
     4
100
AcDbText
 10
681.239453
 20
177.285684
 30
0.0
 40
1.5
  1
%%c12.5
 41
0.7
  7
FX_VECTOR
 72
     5
 11
686.489453
 21
177.285684
 31
0.0
100
AcDbText
  0
LINE
  5
F4
330
EB
100
AcDbEntity
  8
GR1-1
  6
細い実線
 62
     2
100
AcDbLine
 10
679.608387
 20
176.870071
 30
0.0
 11
679.608387
 21
176.610071
 31
0.0
  0
LINE
  5
F5
330
EB
100
AcDbEntity
  8
GR1-1
  6
細い実線
 62
     2
100
AcDbLine
 10
679.608387
 20
176.610071
 30
0.0
 11
680.388387
 21
176.740071
 31
0.0
  0
LINE
  5
F6
330
EB
100
AcDbEntity
  8
GR1-1
  6
細い実線
 62
     2
100
AcDbLine
 10
680.388387
 20
176.740071
 30
0.0
 11
679.608387
 21
176.870071
 31
0.0
  0
LINE
  5
F7
330
EB
100
AcDbEntity
  8
GR1-1
  6
細い実線
 62
     2
100
AcDbLine
 10
681.918387
 20
176.870071
 30
0.0
 11
681.918387
 21
176.610071
 31
0.0
  0
LINE
  5
F8
330
EB
100
AcDbEntity
  8
GR1-1
  6
細い実線
 62
     2
100
AcDbLine
 10
681.918387
 20
176.610071
 30
0.0
 11
681.138387
 21
176.740071
 31
0.0
  0
LINE
  5
F9
330
EB
100
AcDbEntity
  8
GR1-1
  6
細い実線
 62
     2
100
AcDbLine
 10
681.138387
 20
176.740071
 30
0.0
 11
681.918387
 21
176.870071
 31
0.0
  0
ENDBLK
  5
ED
330
EB
100
AcDbEntity
  8
0
100
AcDbBlockEnd
  0
BLOCK
  5
FF
330
FE
100
AcDbEntity
  8
0
100
AcDbBlockBegin
  2
BLKF023
 70
     0
 71
     0
 10
0.0
 20
0.0
 30
0.0
  3
BLKF023
  1

  0
LINE
  5
102
330
FE
100
AcDbEntity
  8
GR1-1
  6
細い実線
 62
     2
100
AcDbLine
 10
697.592263
 20
186.718822
 30
0.0
 11
697.592263
 21
188.85793
 31
0.0
  0
LINE
  5
103
330
FE
100
AcDbEntity
  8
GR1-1
  6
細い実線
 62
     2
100
AcDbLine
 10
698.342263
 20
186.718822
 30
0.0
 11
698.342263
 21
188.85793
 31
0.0
  0
LINE
  5
104
330
FE
100
AcDbEntity
  8
GR1-1
  6
細い実線
 62
     2
100
AcDbLine
 10
696.812263
 20
188.25793
 30
0.0
 11
696.032263
 21
188.25793
 31
0.0
  0
LINE
  5
105
330
FE
100
AcDbEntity
  8
GR1-1
  6
細い実線
 62
     2
100
AcDbLine
 10
699.122263
 20
188.25793
 30
0.0
 11
699.902263
 21
188.25793
 31
0.0
  0
TEXT
  5
106
330
FE
100
AcDbEntity
  8
GR1-1
  6
細い実線
 62
     4
100
AcDbText
 10
695.867266
 20
189.75793
 30
0.0
 40
1.5
  1
12.5
 41
0.7
  7
FX_VECTOR
 72
     5
 11
700.067266
 21
189.75793
 31
0.0
100
AcDbText
  0
LINE
  5
107
330
FE
100
AcDbEntity
  8
GR1-1
  6
細い実線
 62
     2
100
AcDbLine
 10
696.812263
 20
188.38793
 30
0.0
 11
696.812263
 21
188.12793
 31
0.0
  0
LINE
  5
108
330
FE
100
AcDbEntity
  8
GR1-1
  6
細い実線
 62
     2
100
AcDbLine
 10
696.812263
 20
188.12793
 30
0.0
 11
697.592263
 21
188.25793
 31
0.0
  0
LINE
  5
109
330
FE
100
AcDbEntity
  8
GR1-1
  6
細い実線
 62
     2
100
AcDbLine
 10
697.592263
 20
188.25793
 30
0.0
 11
696.812263
 21
188.38793
 31
0.0
  0
LINE
  5
10A
330
FE
100
AcDbEntity
  8
GR1-1
  6
細い実線
 62
     2
100
AcDbLine
 10
699.122263
 20
188.38793
 30
0.0
 11
699.122263
 21
188.12793
 31
0.0
  0
LINE
  5
10B
330
FE
100
AcDbEntity
  8
GR1-1
  6
細い実線
 62
     2
100
AcDbLine
 10
699.122263
 20
188.12793
 30
0.0
 11
698.342263
 21
188.25793
 31
0.0
  0
LINE
  5
10C
330
FE
100
AcDbEntity
  8
GR1-1
  6
細い実線
 62
     2
100
AcDbLine
 10
698.342263
 20
188.25793
 30
0.0
 11
699.122263
 21
188.38793
 31
0.0
  0
ENDBLK
  5
100
330
FE
100
AcDbEntity
  8
0
100
AcDbBlockEnd
  0
BLOCK
  5
10E
330
10D
100
AcDbEntity
  8
0
100
AcDbBlockBegin
  2
BLKF024
 70
     0
 71
     0
 10
0.0
 20
0.0
 30
0.0
  3
BLKF024
  1

  0
LINE
  5
111
330
10D
100
AcDbEntity
  8
GR1-1
  6
細い実線
 62
     4
100
AcDbLine
 10
697.067263
 20
181.261561
 30
0.0
 11
698.867263
 21
181.261561
 31
0.0
  0
LINE
  5
112
330
10D
100
AcDbEntity
  8
GR1-1
  6
細い実線
 62
     4
100
AcDbLine
 10
698.867263
 20
181.261561
 30
0.0
 11
698.867263
 21
177.961561
 31
0.0
  0
LINE
  5
113
330
10D
100
AcDbEntity
  8
GR1-1
  6
細い実線
 62
     4
100
AcDbLine
 10
698.867263
 20
177.961561
 30
0.0
 11
697.067263
 21
177.961561
 31
0.0
  0
LINE
  5
114
330
10D
100
AcDbEntity
  8
GR1-1
  6
細い実線
 62
     4
100
AcDbLine
 10
697.067263
 20
177.961561
 30
0.0
 11
697.067263
 21
181.261561
 31
0.0
  0
ENDBLK
  5
10F
330
10D
100
AcDbEntity
  8
0
100
AcDbBlockEnd
  0
BLOCK
  5
116
330
115
100
AcDbEntity
  8
0
100
AcDbBlockBegin
  2
BLKF025
 70
     0
 71
     0
 10
0.0
 20
0.0
 30
0.0
  3
BLKF025
  1

  0
LINE
  5
119
330
115
100
AcDbEntity
  8
GR1-1
  6
細い実線
 62
     4
100
AcDbLine
 10
697.592263
 20
180.661561
 30
0.0
 11
698.342263
 21
180.661561
 31
0.0
  0
LINE
  5
11A
330
115
100
AcDbEntity
  8
GR1-1
  6
細い実線
 62
     4
100
AcDbLine
 10
698.342263
 20
180.661561
 30
0.0
 11
698.342263
 21
178.561561
 31
0.0
  0
LINE
  5
11B
330
115
100
AcDbEntity
  8
GR1-1
  6
細い実線
 62
     4
100
AcDbLine
 10
698.342263
 20
178.561561
 30
0.0
 11
697.592263
 21
178.561561
 31
0.0
  0
LINE
  5
11C
330
115
100
AcDbEntity
  8
GR1-1
  6
細い実線
 62
     4
100
AcDbLine
 10
697.592263
 20
178.561561
 30
0.0
 11
697.592263
 21
180.661561
 31
0.0
  0
ENDBLK
  5
117
330
115
100
AcDbEntity
  8
0
100
AcDbBlockEnd
  0
BLOCK
  5
122
330
121
100
AcDbEntity
  8
0
100
AcDbBlockBegin
  2
BLKF026
 70
     0
 71
     0
 10
0.0
 20
0.0
 30
0.0
  3
BLKF026
  1

  0
LINE
  5
125
330
121
100
AcDbEntity
  8
GR1-1
  6
細い実線
 62
     2
100
AcDbLine
 10
698.342263
 20
177.661561
 30
0.0
 11
698.342263
 21
172.945628
 31
0.0
  0
LINE
  5
126
330
121
100
AcDbEntity
  8
GR1-1
  6
細い実線
 62
     2
100
AcDbLine
 10
698.867263
 20
177.061561
 30
0.0
 11
698.867263
 21
172.945628
 31
0.0
  0
LINE
  5
127
330
121
100
AcDbEntity
  8
GR1-1
  6
細い実線
 62
     2
100
AcDbLine
 10
697.562263
 20
173.545628
 30
0.0
 11
696.782263
 21
173.545628
 31
0.0
  0
LINE
  5
128
330
121
100
AcDbEntity
  8
GR1-1
  6
細い実線
 62
     2
100
AcDbLine
 10
699.647263
 20
173.545628
 30
0.0
 11
700.427263
 21
173.545628
 31
0.0
  0
TEXT
  5
129
330
121
100
AcDbEntity
  8
GR1-1
  6
細い実線
 62
     4
100
AcDbText
 10
698.848438
 20
173.98041
 30
0.0
 40
1.5
  1
8.75
 41
0.7
  7
FX_VECTOR
 72
     5
 11
703.048438
 21
173.98041
 31
0.0
100
AcDbText
  0
LINE
  5
12A
330
121
100
AcDbEntity
  8
GR1-1
  6
細い実線
 62
     2
100
AcDbLine
 10
697.562263
 20
173.675628
 30
0.0
 11
697.562263
 21
173.415628
 31
0.0
  0
LINE
  5
12B
330
121
100
AcDbEntity
  8
GR1-1
  6
細い実線
 62
     2
100
AcDbLine
 10
697.562263
 20
173.415628
 30
0.0
 11
698.342263
 21
173.545628
 31
0.0
  0
LINE
  5
12C
330
121
100
AcDbEntity
  8
GR1-1
  6
細い実線
 62
     2
100
AcDbLine
 10
698.342263
 20
173.545628
 30
0.0
 11
697.562263
 21
173.675628
 31
0.0
  0
LINE
  5
12D
330
121
100
AcDbEntity
  8
GR1-1
  6
細い実線
 62
     2
100
AcDbLine
 10
699.647263
 20
173.675628
 30
0.0
 11
699.647263
 21
173.415628
 31
0.0
  0
LINE
  5
12E
330
121
100
AcDbEntity
  8
GR1-1
  6
細い実線
 62
     2
100
AcDbLine
 10
699.647263
 20
173.415628
 30
0.0
 11
698.867263
 21
173.545628
 31
0.0
  0
LINE
  5
12F
330
121
100
AcDbEntity
  8
GR1-1
  6
細い実線
 62
     2
100
AcDbLine
 10
698.867263
 20
173.545628
 30
0.0
 11
699.647263
 21
173.675628
 31
0.0
  0
ENDBLK
  5
123
330
121
100
AcDbEntity
  8
0
100
AcDbBlockEnd
  0
BLOCK
  5
131
330
130
100
AcDbEntity
  8
0
100
AcDbBlockBegin
  2
BLKF027
 70
     0
 71
     0
 10
0.0
 20
0.0
 30
0.0
  3
BLKF027
  1

  0
LINE
  5
134
330
130
100
AcDbEntity
  8
GR1-1
  6
細い実線
 62
     2
100
AcDbLine
 10
698.342263
 20
177.661561
 30
0.0
 11
698.342263
 21
172.945628
 31
0.0
  0
LINE
  5
135
330
130
100
AcDbEntity
  8
GR1-1
  6
細い実線
 62
     2
100
AcDbLine
 10
697.592263
 20
177.661561
 30
0.0
 11
697.592263
 21
172.945628
 31
0.0
  0
LINE
  5
136
330
130
100
AcDbEntity
  8
GR1-1
  6
細い実線
 62
     2
100
AcDbLine
 10
699.122263
 20
173.545628
 30
0.0
 11
699.902263
 21
173.545628
 31
0.0
  0
LINE
  5
137
330
130
100
AcDbEntity
  8
GR1-1
  6
細い実線
 62
     2
100
AcDbLine
 10
696.812263
 20
173.545628
 30
0.0
 11
696.032263
 21
173.545628
 31
0.0
  0
TEXT
  5
138
330
130
100
AcDbEntity
  8
GR1-1
  6
細い実線
 62
     4
100
AcDbText
 10
695.750313
 20
171.241387
 30
0.0
 40
1.5
  1
12.5
 41
0.7
  7
FX_VECTOR
 72
     5
 11
699.950313
 21
171.241387
 31
0.0
100
AcDbText
  0
LINE
  5
139
330
130
100
AcDbEntity
  8
GR1-1
  6
細い実線
 62
     2
100
AcDbLine
 10
699.122263
 20
173.675628
 30
0.0
 11
699.122263
 21
173.415628
 31
0.0
  0
LINE
  5
13A
330
130
100
AcDbEntity
  8
GR1-1
  6
細い実線
 62
     2
100
AcDbLine
 10
699.122263
 20
173.415628
 30
0.0
 11
698.342263
 21
173.545628
 31
0.0
  0
LINE
  5
13B
330
130
100
AcDbEntity
  8
GR1-1
  6
細い実線
 62
     2
100
AcDbLine
 10
698.342263
 20
173.545628
 30
0.0
 11
699.122263
 21
173.675628
 31
0.0
  0
LINE
  5
13C
330
130
100
AcDbEntity
  8
GR1-1
  6
細い実線
 62
     2
100
AcDbLine
 10
696.812263
 20
173.675628
 30
0.0
 11
696.812263
 21
173.415628
 31
0.0
  0
LINE
  5
13D
330
130
100
AcDbEntity
  8
GR1-1
  6
細い実線
 62
     2
100
AcDbLine
 10
696.812263
 20
173.415628
 30
0.0
 11
697.592263
 21
173.545628
 31
0.0
  0
LINE
  5
13E
330
130
100
AcDbEntity
  8
GR1-1
  6
細い実線
 62
     2
100
AcDbLine
 10
697.592263
 20
173.545628
 30
0.0
 11
696.812263
 21
173.675628
 31
0.0
  0
ENDBLK
  5
132
330
130
100
AcDbEntity
  8
0
100
AcDbBlockEnd
  0
BLOCK
  5
140
330
13F
100
AcDbEntity
  8
0
100
AcDbBlockBegin
  2
BLKF028
 70
     0
 71
     0
 10
0.0
 20
0.0
 30
0.0
  3
BLKF028
  1

  0
LINE
  5
143
330
13F
100
AcDbEntity
  8
GR1-1
  6
細い実線
 62
     2
100
AcDbLine
 10
697.592263
 20
177.661561
 30
0.0
 11
697.592263
 21
172.945628
 31
0.0
  0
LINE
  5
144
330
13F
100
AcDbEntity
  8
GR1-1
  6
細い実線
 62
     2
100
AcDbLine
 10
697.067263
 20
177.061561
 30
0.0
 11
697.067263
 21
172.945628
 31
0.0
  0
LINE
  5
145
330
13F
100
AcDbEntity
  8
GR1-1
  6
細い実線
 62
     2
100
AcDbLine
 10
698.372263
 20
173.545628
 30
0.0
 11
699.152263
 21
173.545628
 31
0.0
  0
LINE
  5
146
330
13F
100
AcDbEntity
  8
GR1-1
  6
細い実線
 62
     2
100
AcDbLine
 10
696.287263
 20
173.545628
 30
0.0
 11
695.507263
 21
173.545628
 31
0.0
  0
TEXT
  5
147
330
13F
100
AcDbEntity
  8
GR1-1
  6
細い実線
 62
     4
100
AcDbText
 10
692.964219
 20
173.869063
 30
0.0
 40
1.5
  1
8.75
 41
0.7
  7
FX_VECTOR
 72
     5
 11
697.164219
 21
173.869063
 31
0.0
100
AcDbText
  0
LINE
  5
148
330
13F
100
AcDbEntity
  8
GR1-1
  6
細い実線
 62
     2
100
AcDbLine
 10
698.372263
 20
173.675628
 30
0.0
 11
698.372263
 21
173.415628
 31
0.0
  0
LINE
  5
149
330
13F
100
AcDbEntity
  8
GR1-1
  6
細い実線
 62
     2
100
AcDbLine
 10
698.372263
 20
173.415628
 30
0.0
 11
697.592263
 21
173.545628
 31
0.0
  0
LINE
  5
14A
330
13F
100
AcDbEntity
  8
GR1-1
  6
細い実線
 62
     2
100
AcDbLine
 10
697.592263
 20
173.545628
 30
0.0
 11
698.372263
 21
173.675628
 31
0.0
  0
LINE
  5
14B
330
13F
100
AcDbEntity
  8
GR1-1
  6
細い実線
 62
     2
100
AcDbLine
 10
696.287263
 20
173.675628
 30
0.0
 11
696.287263
 21
173.415628
 31
0.0
  0
LINE
  5
14C
330
13F
100
AcDbEntity
  8
GR1-1
  6
細い実線
 62
     2
100
AcDbLine
 10
696.287263
 20
173.415628
 30
0.0
 11
697.067263
 21
173.545628
 31
0.0
  0
LINE
  5
14D
330
13F
100
AcDbEntity
  8
GR1-1
  6
細い実線
 62
     2
100
AcDbLine
 10
697.067263
 20
173.545628
 30
0.0
 11
696.287263
 21
173.675628
 31
0.0
  0
ENDBLK
  5
141
330
13F
100
AcDbEntity
  8
0
100
AcDbBlockEnd
  0
BLOCK
  5
14F
330
14E
100
AcDbEntity
  8
0
100
AcDbBlockBegin
  2
BLKF029
 70
     0
 71
     0
 10
0.0
 20
0.0
 30
0.0
  3
BLKF029
  1

  0
LINE
  5
152
330
14E
100
AcDbEntity
  8
GR1-1
  6
細い実線
 62
     2
100
AcDbLine
 10
697.067263
 20
177.061561
 30
0.0
 11
697.067263
 21
167.862866
 31
0.0
  0
LINE
  5
153
330
14E
100
AcDbEntity
  8
GR1-1
  6
細い実線
 62
     2
100
AcDbLine
 10
698.867263
 20
177.061561
 30
0.0
 11
698.867263
 21
167.862866
 31
0.0
  0
LINE
  5
154
330
14E
100
AcDbEntity
  8
GR1-1
  6
細い実線
 62
     2
100
AcDbLine
 10
696.287263
 20
168.462866
 30
0.0
 11
695.507263
 21
168.462866
 31
0.0
  0
LINE
  5
155
330
14E
100
AcDbEntity
  8
GR1-1
  6
細い実線
 62
     2
100
AcDbLine
 10
699.647263
 20
168.462866
 30
0.0
 11
700.427263
 21
168.462866
 31
0.0
  0
TEXT
  5
156
330
14E
100
AcDbEntity
  8
GR1-1
  6
細い実線
 62
     4
100
AcDbText
 10
696.917266
 20
168.975996
 30
0.0
 40
1.5
  1
30
 41
0.7
  7
FX_VECTOR
 72
     5
 11
699.017266
 21
168.975996
 31
0.0
100
AcDbText
  0
LINE
  5
157
330
14E
100
AcDbEntity
  8
GR1-1
  6
細い実線
 62
     2
100
AcDbLine
 10
696.287263
 20
168.592866
 30
0.0
 11
696.287263
 21
168.332866
 31
0.0
  0
LINE
  5
158
330
14E
100
AcDbEntity
  8
GR1-1
  6
細い実線
 62
     2
100
AcDbLine
 10
696.287263
 20
168.332866
 30
0.0
 11
697.067263
 21
168.462866
 31
0.0
  0
LINE
  5
159
330
14E
100
AcDbEntity
  8
GR1-1
  6
細い実線
 62
     2
100
AcDbLine
 10
697.067263
 20
168.462866
 30
0.0
 11
696.287263
 21
168.592866
 31
0.0
  0
LINE
  5
15A
330
14E
100
AcDbEntity
  8
GR1-1
  6
細い実線
 62
     2
100
AcDbLine
 10
699.647263
 20
168.592866
 30
0.0
 11
699.647263
 21
168.332866
 31
0.0
  0
LINE
  5
15B
330
14E
100
AcDbEntity
  8
GR1-1
  6
細い実線
 62
     2
100
AcDbLine
 10
699.647263
 20
168.332866
 30
0.0
 11
698.867263
 21
168.462866
 31
0.0
  0
LINE
  5
15C
330
14E
100
AcDbEntity
  8
GR1-1
  6
細い実線
 62
     2
100
AcDbLine
 10
698.867263
 20
168.462866
 30
0.0
 11
699.647263
 21
168.592866
 31
0.0
  0
ENDBLK
  5
150
330
14E
100
AcDbEntity
  8
0
100
AcDbBlockEnd
  0
BLOCK
  5
15E
330
15D
100
AcDbEntity
  8
0
100
AcDbBlockBegin
  2
BLKF030
 70
     0
 71
     0
 10
0.0
 20
0.0
 30
0.0
  3
BLKF030
  1

  0
LINE
  5
161
330
15D
100
AcDbEntity
  8
GR1-1
  6
細い実線
 62
     2
100
AcDbLine
 10
699.242263
 20
180.661561
 30
0.0
 11
703.673689
 21
180.661561
 31
0.0
  0
LINE
  5
162
330
15D
100
AcDbEntity
  8
GR1-1
  6
細い実線
 62
     2
100
AcDbLine
 10
699.767263
 20
181.261561
 30
0.0
 11
703.673689
 21
181.261561
 31
0.0
  0
LINE
  5
163
330
15D
100
AcDbEntity
  8
GR1-1
  6
細い実線
 62
     2
100
AcDbLine
 10
703.073689
 20
179.881561
 30
0.0
 11
703.073689
 21
179.101561
 31
0.0
  0
LINE
  5
164
330
15D
100
AcDbEntity
  8
GR1-1
  6
細い実線
 62
     2
100
AcDbLine
 10
703.073689
 20
182.041561
 30
0.0
 11
703.073689
 21
182.821561
 31
0.0
  0
TEXT
  5
165
330
15D
100
AcDbEntity
  8
GR1-1
  6
細い実線
 62
     4
100
AcDbText
 10
702.512109
 20
181.246934
 30
0.0
 40
1.5
  1
10
 50
90.0
 41
0.7
  7
FX_VECTOR
 72
     5
 11
702.512109
 21
183.346934
 31
0.0
100
AcDbText
  0
LINE
  5
166
330
15D
100
AcDbEntity
  8
GR1-1
  6
細い実線
 62
     2
100
AcDbLine
 10
702.943689
 20
179.881561
 30
0.0
 11
703.203689
 21
179.881561
 31
0.0
  0
LINE
  5
167
330
15D
100
AcDbEntity
  8
GR1-1
  6
細い実線
 62
     2
100
AcDbLine
 10
703.203689
 20
179.881561
 30
0.0
 11
703.073689
 21
180.661561
 31
0.0
  0
LINE
  5
168
330
15D
100
AcDbEntity
  8
GR1-1
  6
細い実線
 62
     2
100
AcDbLine
 10
703.073689
 20
180.661561
 30
0.0
 11
702.943689
 21
179.881561
 31
0.0
  0
LINE
  5
169
330
15D
100
AcDbEntity
  8
GR1-1
  6
細い実線
 62
     2
100
AcDbLine
 10
702.943689
 20
182.041561
 30
0.0
 11
703.203689
 21
182.041561
 31
0.0
  0
LINE
  5
16A
330
15D
100
AcDbEntity
  8
GR1-1
  6
細い実線
 62
     2
100
AcDbLine
 10
703.203689
 20
182.041561
 30
0.0
 11
703.073689
 21
181.261561
 31
0.0
  0
LINE
  5
16B
330
15D
100
AcDbEntity
  8
GR1-1
  6
細い実線
 62
     2
100
AcDbLine
 10
703.073689
 20
181.261561
 30
0.0
 11
702.943689
 21
182.041561
 31
0.0
  0
ENDBLK
  5
15F
330
15D
100
AcDbEntity
  8
0
100
AcDbBlockEnd
  0
BLOCK
  5
16D
330
16C
100
AcDbEntity
  8
0
100
AcDbBlockBegin
  2
BLKF031
 70
     0
 71
     0
 10
0.0
 20
0.0
 30
0.0
  3
BLKF031
  1

  0
LINE
  5
170
330
16C
100
AcDbEntity
  8
GR1-1
  6
細い実線
 62
     2
100
AcDbLine
 10
699.242263
 20
180.661561
 30
0.0
 11
703.673689
 21
180.661561
 31
0.0
  0
LINE
  5
171
330
16C
100
AcDbEntity
  8
GR1-1
  6
細い実線
 62
     2
100
AcDbLine
 10
699.242263
 20
178.561561
 30
0.0
 11
703.673689
 21
178.561561
 31
0.0
  0
LINE
  5
172
330
16C
100
AcDbEntity
  8
GR1-1
  6
細い実線
 62
     2
100
AcDbLine
 10
703.073689
 20
181.441561
 30
0.0
 11
703.073689
 21
182.221561
 31
0.0
  0
LINE
  5
173
330
16C
100
AcDbEntity
  8
GR1-1
  6
細い実線
 62
     2
100
AcDbLine
 10
703.073689
 20
177.781561
 30
0.0
 11
703.073689
 21
177.001561
 31
0.0
  0
TEXT
  5
174
330
16C
100
AcDbEntity
  8
GR1-1
  6
細い実線
 62
     4
100
AcDbText
 10
702.628516
 20
178.501523
 30
0.0
 40
1.5
  1
35
 50
90.0
 41
0.7
  7
FX_VECTOR
 72
     5
 11
702.628516
 21
180.601523
 31
0.0
100
AcDbText
  0
LINE
  5
175
330
16C
100
AcDbEntity
  8
GR1-1
  6
細い実線
 62
     2
100
AcDbLine
 10
702.943689
 20
181.441561
 30
0.0
 11
703.203689
 21
181.441561
 31
0.0
  0
LINE
  5
176
330
16C
100
AcDbEntity
  8
GR1-1
  6
細い実線
 62
     2
100
AcDbLine
 10
703.203689
 20
181.441561
 30
0.0
 11
703.073689
 21
180.661561
 31
0.0
  0
LINE
  5
177
330
16C
100
AcDbEntity
  8
GR1-1
  6
細い実線
 62
     2
100
AcDbLine
 10
703.073689
 20
180.661561
 30
0.0
 11
702.943689
 21
181.441561
 31
0.0
  0
LINE
  5
178
330
16C
100
AcDbEntity
  8
GR1-1
  6
細い実線
 62
     2
100
AcDbLine
 10
702.943689
 20
177.781561
 30
0.0
 11
703.203689
 21
177.781561
 31
0.0
  0
LINE
  5
179
330
16C
100
AcDbEntity
  8
GR1-1
  6
細い実線
 62
     2
100
AcDbLine
 10
703.203689
 20
177.781561
 30
0.0
 11
703.073689
 21
178.561561
 31
0.0
  0
LINE
  5
17A
330
16C
100
AcDbEntity
  8
GR1-1
  6
細い実線
 62
     2
100
AcDbLine
 10
703.073689
 20
178.561561
 30
0.0
 11
702.943689
 21
177.781561
 31
0.0
  0
ENDBLK
  5
16E
330
16C
100
AcDbEntity
  8
0
100
AcDbBlockEnd
  0
BLOCK
  5
17C
330
17B
100
AcDbEntity
  8
0
100
AcDbBlockBegin
  2
BLKF032
 70
     0
 71
     0
 10
0.0
 20
0.0
 30
0.0
  3
BLKF032
  1

  0
LINE
  5
17F
330
17B
100
AcDbEntity
  8
GR1-1
  6
細い実線
 62
     2
100
AcDbLine
 10
699.242263
 20
178.561561
 30
0.0
 11
703.673689
 21
178.561561
 31
0.0
  0
LINE
  5
180
330
17B
100
AcDbEntity
  8
GR1-1
  6
細い実線
 62
     2
100
AcDbLine
 10
699.767263
 20
177.961561
 30
0.0
 11
703.673689
 21
177.961561
 31
0.0
  0
LINE
  5
181
330
17B
100
AcDbEntity
  8
GR1-1
  6
細い実線
 62
     2
100
AcDbLine
 10
703.073689
 20
179.341561
 30
0.0
 11
703.073689
 21
180.121561
 31
0.0
  0
LINE
  5
182
330
17B
100
AcDbEntity
  8
GR1-1
  6
細い実線
 62
     2
100
AcDbLine
 10
703.073689
 20
177.181561
 30
0.0
 11
703.073689
 21
176.401561
 31
0.0
  0
TEXT
  5
183
330
17B
100
AcDbEntity
  8
GR1-1
  6
細い実線
 62
     4
100
AcDbText
 10
702.605234
 20
175.942246
 30
0.0
 40
1.5
  1
10
 50
90.0
 41
0.7
  7
FX_VECTOR
 72
     5
 11
702.605234
 21
178.042246
 31
0.0
100
AcDbText
  0
LINE
  5
184
330
17B
100
AcDbEntity
  8
GR1-1
  6
細い実線
 62
     2
100
AcDbLine
 10
702.943689
 20
179.341561
 30
0.0
 11
703.203689
 21
179.341561
 31
0.0
  0
LINE
  5
185
330
17B
100
AcDbEntity
  8
GR1-1
  6
細い実線
 62
     2
100
AcDbLine
 10
703.203689
 20
179.341561
 30
0.0
 11
703.073689
 21
178.561561
 31
0.0
  0
LINE
  5
186
330
17B
100
AcDbEntity
  8
GR1-1
  6
細い実線
 62
     2
100
AcDbLine
 10
703.073689
 20
178.561561
 30
0.0
 11
702.943689
 21
179.341561
 31
0.0
  0
LINE
  5
187
330
17B
100
AcDbEntity
  8
GR1-1
  6
細い実線
 62
     2
100
AcDbLine
 10
702.943689
 20
177.181561
 30
0.0
 11
703.203689
 21
177.181561
 31
0.0
  0
LINE
  5
188
330
17B
100
AcDbEntity
  8
GR1-1
  6
細い実線
 62
     2
100
AcDbLine
 10
703.203689
 20
177.181561
 30
0.0
 11
703.073689
 21
177.961561
 31
0.0
  0
LINE
  5
189
330
17B
100
AcDbEntity
  8
GR1-1
  6
細い実線
 62
     2
100
AcDbLine
 10
703.073689
 20
177.961561
 30
0.0
 11
702.943689
 21
177.181561
 31
0.0
  0
ENDBLK
  5
17D
330
17B
100
AcDbEntity
  8
0
100
AcDbBlockEnd
  0
BLOCK
  5
18B
330
18A
100
AcDbEntity
  8
0
100
AcDbBlockBegin
  2
BLKF033
 70
     0
 71
     0
 10
0.0
 20
0.0
 30
0.0
  3
BLKF033
  1

  0
LINE
  5
18E
330
18A
100
AcDbEntity
  8
GR1-1
  6
細い実線
 62
     2
100
AcDbLine
 10
699.767263
 20
181.261561
 30
0.0
 11
706.836621
 21
181.261561
 31
0.0
  0
LINE
  5
18F
330
18A
100
AcDbEntity
  8
GR1-1
  6
細い実線
 62
     2
100
AcDbLine
 10
699.767263
 20
177.961561
 30
0.0
 11
706.836621
 21
177.961561
 31
0.0
  0
LINE
  5
190
330
18A
100
AcDbEntity
  8
GR1-1
  6
細い実線
 62
     2
100
AcDbLine
 10
706.236621
 20
180.481561
 30
0.0
 11
706.236621
 21
178.741561
 31
0.0
  0
LINE
  5
191
330
18A
100
AcDbEntity
  8
GR1-1
  6
細い実線
 62
     2
100
AcDbLine
 10
706.106621
 20
180.481561
 30
0.0
 11
706.366621
 21
180.481561
 31
0.0
  0
LINE
  5
192
330
18A
100
AcDbEntity
  8
GR1-1
  6
細い実線
 62
     2
100
AcDbLine
 10
706.366621
 20
180.481561
 30
0.0
 11
706.236621
 21
181.261561
 31
0.0
  0
LINE
  5
193
330
18A
100
AcDbEntity
  8
GR1-1
  6
細い実線
 62
     2
100
AcDbLine
 10
706.236621
 20
181.261561
 30
0.0
 11
706.106621
 21
180.481561
 31
0.0
  0
LINE
  5
194
330
18A
100
AcDbEntity
  8
GR1-1
  6
細い実線
 62
     2
100
AcDbLine
 10
706.106621
 20
178.741561
 30
0.0
 11
706.366621
 21
178.741561
 31
0.0
  0
LINE
  5
195
330
18A
100
AcDbEntity
  8
GR1-1
  6
細い実線
 62
     2
100
AcDbLine
 10
706.366621
 20
178.741561
 30
0.0
 11
706.236621
 21
177.961561
 31
0.0
  0
LINE
  5
196
330
18A
100
AcDbEntity
  8
GR1-1
  6
細い実線
 62
     2
100
AcDbLine
 10
706.236621
 20
177.961561
 30
0.0
 11
706.106621
 21
178.741561
 31
0.0
  0
TEXT
  5
197
330
18A
100
AcDbEntity
  8
GR1-1
  6
細い実線
 62
     4
100
AcDbText
 10
705.636562
 20
178.561563
 30
0.0
 40
1.5
  1
55
 50
90.0
 41
0.7
  7
FX_VECTOR
 72
     5
 11
705.636562
 21
180.661563
 31
0.0
100
AcDbText
  0
ENDBLK
  5
18C
330
18A
100
AcDbEntity
  8
0
100
AcDbBlockEnd
  0
BLOCK
  5
199
330
198
100
AcDbEntity
  8
0
100
AcDbBlockBegin
  2
BLKF034
 70
     0
 71
     0
 10
0.0
 20
0.0
 30
0.0
  3
BLKF034
  1

  0
LINE
  5
19C
330
198
100
AcDbEntity
  8
GR1-1
  6
細い実線
 62
     2
100
AcDbLine
 10
696.692263
 20
185.818822
 30
0.0
 11
693.055547
 21
185.818822
 31
0.0
  0
LINE
  5
19D
330
198
100
AcDbEntity
  8
GR1-1
  6
細い実線
 62
     2
100
AcDbLine
 10
695.277937
 20
182.818822
 30
0.0
 11
693.055547
 21
182.818822
 31
0.0
  0
LINE
  5
19E
330
198
100
AcDbEntity
  8
GR1-1
  6
細い実線
 62
     2
100
AcDbLine
 10
693.655547
 20
185.038822
 30
0.0
 11
693.655547
 21
183.598822
 31
0.0
  0
LINE
  5
19F
330
198
100
AcDbEntity
  8
GR1-1
  6
細い実線
 62
     2
100
AcDbLine
 10
693.525547
 20
185.038822
 30
0.0
 11
693.785547
 21
185.038822
 31
0.0
  0
LINE
  5
1A0
330
198
100
AcDbEntity
  8
GR1-1
  6
細い実線
 62
     2
100
AcDbLine
 10
693.785547
 20
185.038822
 30
0.0
 11
693.655547
 21
185.818822
 31
0.0
  0
LINE
  5
1A1
330
198
100
AcDbEntity
  8
GR1-1
  6
細い実線
 62
     2
100
AcDbLine
 10
693.655547
 20
185.818822
 30
0.0
 11
693.525547
 21
185.038822
 31
0.0
  0
LINE
  5
1A2
330
198
100
AcDbEntity
  8
GR1-1
  6
細い実線
 62
     2
100
AcDbLine
 10
693.525547
 20
183.598822
 30
0.0
 11
693.785547
 21
183.598822
 31
0.0
  0
LINE
  5
1A3
330
198
100
AcDbEntity
  8
GR1-1
  6
細い実線
 62
     2
100
AcDbLine
 10
693.785547
 20
183.598822
 30
0.0
 11
693.655547
 21
182.818822
 31
0.0
  0
LINE
  5
1A4
330
198
100
AcDbEntity
  8
GR1-1
  6
細い実線
 62
     2
100
AcDbLine
 10
693.655547
 20
182.818822
 30
0.0
 11
693.525547
 21
183.598822
 31
0.0
  0
TEXT
  5
1A5
330
198
100
AcDbEntity
  8
GR1-1
  6
細い実線
 62
     4
100
AcDbText
 10
693.055547
 20
183.268828
 30
0.0
 40
1.5
  1
50
 50
90.0
 41
0.7
  7
FX_VECTOR
 72
     5
 11
693.055547
 21
185.368828
 31
0.0
100
AcDbText
  0
ENDBLK
  5
19A
330
198
100
AcDbEntity
  8
0
100
AcDbBlockEnd
  0
BLOCK
  5
1A9
330
1A8
100
AcDbEntity
  8
0
100
AcDbBlockBegin
  2
BLKF035
 70
     0
 71
     0
 10
0.0
 20
0.0
 30
0.0
  3
BLKF035
  1

  0
LINE
  5
1AC
330
1A8
100
AcDbEntity
  8
GR1-1
  6
細い実線
 62
     2
100
AcDbLine
 10
683.452713
 20
182.603677
 30
0.0
 11
686.427091
 21
182.603677
 31
0.0
  0
LINE
  5
1AD
330
1A8
100
AcDbEntity
  8
GR1-1
  6
細い実線
 62
     2
100
AcDbLine
 10
682.038387
 20
179.603677
 30
0.0
 11
686.427091
 21
179.603677
 31
0.0
  0
LINE
  5
1AE
330
1A8
100
AcDbEntity
  8
GR1-1
  6
細い実線
 62
     2
100
AcDbLine
 10
685.827091
 20
181.823677
 30
0.0
 11
685.827091
 21
180.383677
 31
0.0
  0
LINE
  5
1AF
330
1A8
100
AcDbEntity
  8
GR1-1
  6
細い実線
 62
     2
100
AcDbLine
 10
685.697091
 20
181.823677
 30
0.0
 11
685.957091
 21
181.823677
 31
0.0
  0
LINE
  5
1B0
330
1A8
100
AcDbEntity
  8
GR1-1
  6
細い実線
 62
     2
100
AcDbLine
 10
685.957091
 20
181.823677
 30
0.0
 11
685.827091
 21
182.603677
 31
0.0
  0
LINE
  5
1B1
330
1A8
100
AcDbEntity
  8
GR1-1
  6
細い実線
 62
     2
100
AcDbLine
 10
685.827091
 20
182.603677
 30
0.0
 11
685.697091
 21
181.823677
 31
0.0
  0
LINE
  5
1B2
330
1A8
100
AcDbEntity
  8
GR1-1
  6
細い実線
 62
     2
100
AcDbLine
 10
685.697091
 20
180.383677
 30
0.0
 11
685.957091
 21
180.383677
 31
0.0
  0
LINE
  5
1B3
330
1A8
100
AcDbEntity
  8
GR1-1
  6
細い実線
 62
     2
100
AcDbLine
 10
685.957091
 20
180.383677
 30
0.0
 11
685.827091
 21
179.603677
 31
0.0
  0
LINE
  5
1B4
330
1A8
100
AcDbEntity
  8
GR1-1
  6
細い実線
 62
     2
100
AcDbLine
 10
685.827091
 20
179.603677
 30
0.0
 11
685.697091
 21
180.383677
 31
0.0
  0
TEXT
  5
1B5
330
1A8
100
AcDbEntity
  8
GR1-1
  6
細い実線
 62
     4
100
AcDbText
 10
685.227031
 20
180.053672
 30
0.0
 40
1.5
  1
50
 50
90.0
 41
0.7
  7
FX_VECTOR
 72
     5
 11
685.227031
 21
182.153672
 31
0.0
100
AcDbText
  0
ENDBLK
  5
1AA
330
1A8
100
AcDbEntity
  8
0
100
AcDbBlockEnd
  0
BLOCK
  5
1B7
330
1B6
100
AcDbEntity
  8
0
100
AcDbBlockBegin
  2
BLKF036
 70
     0
 71
     0
 10
0.0
 20
0.0
 30
0.0
  3
BLKF036
  1

  0
LINE
  5
1BA
330
1B6
100
AcDbEntity
  8
GR1-1
  6
細い実線
 62
     2
100
AcDbLine
 10
693.501493
 20
212.140298
 30
0.0
 11
693.501493
 21
208.171677
 31
0.0
  0
LINE
  5
1BB
330
1B6
100
AcDbEntity
  8
GR1-1
  6
細い実線
 62
     2
100
AcDbLine
 10
693.201493
 20
211.420298
 30
0.0
 11
693.201493
 21
208.171677
 31
0.0
  0
LINE
  5
1BC
330
1B6
100
AcDbEntity
  8
GR1-1
  6
細い実線
 62
     2
100
AcDbLine
 10
694.281493
 20
208.771677
 30
0.0
 11
695.061493
 21
208.771677
 31
0.0
  0
LINE
  5
1BD
330
1B6
100
AcDbEntity
  8
GR1-1
  6
細い実線
 62
     2
100
AcDbLine
 10
692.421493
 20
208.771677
 30
0.0
 11
691.641493
 21
208.771677
 31
0.0
  0
TEXT
  5
1BE
330
1B6
100
AcDbEntity
  8
GR1-1
  6
細い実線
 62
     4
100
AcDbText
 10
691.75
 20
209.1375
 30
0.0
 40
1.5
  1
5
 41
0.7
  7
FX_VECTOR
 72
     5
 11
692.8
 21
209.1375
 31
0.0
100
AcDbText
  0
LINE
  5
1BF
330
1B6
100
AcDbEntity
  8
GR1-1
  6
細い実線
 62
     2
100
AcDbLine
 10
694.281493
 20
208.901677
 30
0.0
 11
694.281493
 21
208.641677
 31
0.0
  0
LINE
  5
1C0
330
1B6
100
AcDbEntity
  8
GR1-1
  6
細い実線
 62
     2
100
AcDbLine
 10
694.281493
 20
208.641677
 30
0.0
 11
693.501493
 21
208.771677
 31
0.0
  0
LINE
  5
1C1
330
1B6
100
AcDbEntity
  8
GR1-1
  6
細い実線
 62
     2
100
AcDbLine
 10
693.501493
 20
208.771677
 30
0.0
 11
694.281493
 21
208.901677
 31
0.0
  0
LINE
  5
1C2
330
1B6
100
AcDbEntity
  8
GR1-1
  6
細い実線
 62
     2
100
AcDbLine
 10
692.421493
 20
208.901677
 30
0.0
 11
692.421493
 21
208.641677
 31
0.0
  0
LINE
  5
1C3
330
1B6
100
AcDbEntity
  8
GR1-1
  6
細い実線
 62
     2
100
AcDbLine
 10
692.421493
 20
208.641677
 30
0.0
 11
693.201493
 21
208.771677
 31
0.0
  0
LINE
  5
1C4
330
1B6
100
AcDbEntity
  8
GR1-1
  6
細い実線
 62
     2
100
AcDbLine
 10
693.201493
 20
208.771677
 30
0.0
 11
692.421493
 21
208.901677
 31
0.0
  0
ENDBLK
  5
1B8
330
1B6
100
AcDbEntity
  8
0
100
AcDbBlockEnd
  0
BLOCK
  5
1C6
330
1C5
100
AcDbEntity
  8
0
100
AcDbBlockBegin
  2
BLKF037
 70
     0
 71
     0
 10
0.0
 20
0.0
 30
0.0
  3
BLKF037
  1

  0
LINE
  5
1C9
330
1C5
100
AcDbEntity
  8
GR1-1
  6
細い実線
 62
     2
100
AcDbLine
 10
693.501493
 20
212.140298
 30
0.0
 11
693.501493
 21
208.171677
 31
0.0
  0
LINE
  5
1CA
330
1C5
100
AcDbEntity
  8
GR1-1
  6
細い実線
 62
     2
100
AcDbLine
 10
695.901493
 20
212.140298
 30
0.0
 11
695.901493
 21
208.171677
 31
0.0
  0
LINE
  5
1CB
330
1C5
100
AcDbEntity
  8
GR1-1
  6
細い実線
 62
     2
100
AcDbLine
 10
692.721493
 20
208.771677
 30
0.0
 11
691.941493
 21
208.771677
 31
0.0
  0
LINE
  5
1CC
330
1C5
100
AcDbEntity
  8
GR1-1
  6
細い実線
 62
     2
100
AcDbLine
 10
696.681493
 20
208.771677
 30
0.0
 11
697.461493
 21
208.771677
 31
0.0
  0
TEXT
  5
1CD
330
1C5
100
AcDbEntity
  8
GR1-1
  6
細い実線
 62
     4
100
AcDbText
 10
693.536563
 20
209.215352
 30
0.0
 40
1.5
  1
40
 41
0.7
  7
FX_VECTOR
 72
     5
 11
695.636563
 21
209.215352
 31
0.0
100
AcDbText
  0
LINE
  5
1CE
330
1C5
100
AcDbEntity
  8
GR1-1
  6
細い実線
 62
     2
100
AcDbLine
 10
692.721493
 20
208.901677
 30
0.0
 11
692.721493
 21
208.641677
 31
0.0
  0
LINE
  5
1CF
330
1C5
100
AcDbEntity
  8
GR1-1
  6
細い実線
 62
     2
100
AcDbLine
 10
692.721493
 20
208.641677
 30
0.0
 11
693.501493
 21
208.771677
 31
0.0
  0
LINE
  5
1D0
330
1C5
100
AcDbEntity
  8
GR1-1
  6
細い実線
 62
     2
100
AcDbLine
 10
693.501493
 20
208.771677
 30
0.0
 11
692.721493
 21
208.901677
 31
0.0
  0
LINE
  5
1D1
330
1C5
100
AcDbEntity
  8
GR1-1
  6
細い実線
 62
     2
100
AcDbLine
 10
696.681493
 20
208.901677
 30
0.0
 11
696.681493
 21
208.641677
 31
0.0
  0
LINE
  5
1D2
330
1C5
100
AcDbEntity
  8
GR1-1
  6
細い実線
 62
     2
100
AcDbLine
 10
696.681493
 20
208.641677
 30
0.0
 11
695.901493
 21
208.771677
 31
0.0
  0
LINE
  5
1D3
330
1C5
100
AcDbEntity
  8
GR1-1
  6
細い実線
 62
     2
100
AcDbLine
 10
695.901493
 20
208.771677
 30
0.0
 11
696.681493
 21
208.901677
 31
0.0
  0
ENDBLK
  5
1C7
330
1C5
100
AcDbEntity
  8
0
100
AcDbBlockEnd
  0
BLOCK
  5
1D5
330
1D4
100
AcDbEntity
  8
0
100
AcDbBlockBegin
  2
BLKF038
 70
     0
 71
     0
 10
0.0
 20
0.0
 30
0.0
  3
BLKF038
  1

  0
LINE
  5
1D8
330
1D4
100
AcDbEntity
  8
GR1-1
  6
細い実線
 62
     2
100
AcDbLine
 10
693.201493
 20
211.420298
 30
0.0
 11
693.201493
 21
204.528202
 31
0.0
  0
LINE
  5
1D9
330
1D4
100
AcDbEntity
  8
GR1-1
  6
細い実線
 62
     2
100
AcDbLine
 10
695.901493
 20
212.140298
 30
0.0
 11
695.901493
 21
204.528202
 31
0.0
  0
LINE
  5
1DA
330
1D4
100
AcDbEntity
  8
GR1-1
  6
細い実線
 62
     2
100
AcDbLine
 10
692.421493
 20
205.128202
 30
0.0
 11
691.641493
 21
205.128202
 31
0.0
  0
LINE
  5
1DB
330
1D4
100
AcDbEntity
  8
GR1-1
  6
細い実線
 62
     2
100
AcDbLine
 10
696.681493
 20
205.128202
 30
0.0
 11
697.461493
 21
205.128202
 31
0.0
  0
TEXT
  5
1DC
330
1D4
100
AcDbEntity
  8
GR1-1
  6
細い実線
 62
     4
100
AcDbText
 10
693.458594
 20
205.596563
 30
0.0
 40
1.5
  1
45
 41
0.7
  7
FX_VECTOR
 72
     5
 11
695.558594
 21
205.596563
 31
0.0
100
AcDbText
  0
LINE
  5
1DD
330
1D4
100
AcDbEntity
  8
GR1-1
  6
細い実線
 62
     2
100
AcDbLine
 10
692.421493
 20
205.258202
 30
0.0
 11
692.421493
 21
204.998202
 31
0.0
  0
LINE
  5
1DE
330
1D4
100
AcDbEntity
  8
GR1-1
  6
細い実線
 62
     2
100
AcDbLine
 10
692.421493
 20
204.998202
 30
0.0
 11
693.201493
 21
205.128202
 31
0.0
  0
LINE
  5
1DF
330
1D4
100
AcDbEntity
  8
GR1-1
  6
細い実線
 62
     2
100
AcDbLine
 10
693.201493
 20
205.128202
 30
0.0
 11
692.421493
 21
205.258202
 31
0.0
  0
LINE
  5
1E0
330
1D4
100
AcDbEntity
  8
GR1-1
  6
細い実線
 62
     2
100
AcDbLine
 10
696.681493
 20
205.258202
 30
0.0
 11
696.681493
 21
204.998202
 31
0.0
  0
LINE
  5
1E1
330
1D4
100
AcDbEntity
  8
GR1-1
  6
細い実線
 62
     2
100
AcDbLine
 10
696.681493
 20
204.998202
 30
0.0
 11
695.901493
 21
205.128202
 31
0.0
  0
LINE
  5
1E2
330
1D4
100
AcDbEntity
  8
GR1-1
  6
細い実線
 62
     2
100
AcDbLine
 10
695.901493
 20
205.128202
 30
0.0
 11
696.681493
 21
205.258202
 31
0.0
  0
ENDBLK
  5
1D6
330
1D4
100
AcDbEntity
  8
0
100
AcDbBlockEnd
  0
BLOCK
  5
1E4
330
1E3
100
AcDbEntity
  8
0
100
AcDbBlockBegin
  2
BLKF039
 70
     0
 71
     0
 10
0.0
 20
0.0
 30
0.0
  3
BLKF039
  1

  0
LINE
  5
1E7
330
1E3
100
AcDbEntity
  8
GR1-1
  6
細い実線
 62
     2
100
AcDbLine
 10
683.35119
 20
212.140298
 30
0.0
 11
683.35119
 21
208.171677
 31
0.0
  0
LINE
  5
1E8
330
1E3
100
AcDbEntity
  8
GR1-1
  6
細い実線
 62
     2
100
AcDbLine
 10
683.05119
 20
211.420298
 30
0.0
 11
683.05119
 21
208.171677
 31
0.0
  0
LINE
  5
1E9
330
1E3
100
AcDbEntity
  8
GR1-1
  6
細い実線
 62
     2
100
AcDbLine
 10
684.13119
 20
208.771677
 30
0.0
 11
684.91119
 21
208.771677
 31
0.0
  0
LINE
  5
1EA
330
1E3
100
AcDbEntity
  8
GR1-1
  6
細い実線
 62
     2
100
AcDbLine
 10
682.27119
 20
208.771677
 30
0.0
 11
681.49119
 21
208.771677
 31
0.0
  0
TEXT
  5
1EB
330
1E3
100
AcDbEntity
  8
GR1-1
  6
細い実線
 62
     4
100
AcDbText
 10
681.620625
 20
209.189395
 30
0.0
 40
1.5
  1
5
 41
0.7
  7
FX_VECTOR
 72
     5
 11
682.670625
 21
209.189395
 31
0.0
100
AcDbText
  0
LINE
  5
1EC
330
1E3
100
AcDbEntity
  8
GR1-1
  6
細い実線
 62
     2
100
AcDbLine
 10
684.13119
 20
208.901677
 30
0.0
 11
684.13119
 21
208.641677
 31
0.0
  0
LINE
  5
1ED
330
1E3
100
AcDbEntity
  8
GR1-1
  6
細い実線
 62
     2
100
AcDbLine
 10
684.13119
 20
208.641677
 30
0.0
 11
683.35119
 21
208.771677
 31
0.0
  0
LINE
  5
1EE
330
1E3
100
AcDbEntity
  8
GR1-1
  6
細い実線
 62
     2
100
AcDbLine
 10
683.35119
 20
208.771677
 30
0.0
 11
684.13119
 21
208.901677
 31
0.0
  0
LINE
  5
1EF
330
1E3
100
AcDbEntity
  8
GR1-1
  6
細い実線
 62
     2
100
AcDbLine
 10
682.27119
 20
208.901677
 30
0.0
 11
682.27119
 21
208.641677
 31
0.0
  0
LINE
  5
1F0
330
1E3
100
AcDbEntity
  8
GR1-1
  6
細い実線
 62
     2
100
AcDbLine
 10
682.27119
 20
208.641677
 30
0.0
 11
683.05119
 21
208.771677
 31
0.0
  0
LINE
  5
1F1
330
1E3
100
AcDbEntity
  8
GR1-1
  6
細い実線
 62
     2
100
AcDbLine
 10
683.05119
 20
208.771677
 30
0.0
 11
682.27119
 21
208.901677
 31
0.0
  0
ENDBLK
  5
1E5
330
1E3
100
AcDbEntity
  8
0
100
AcDbBlockEnd
  0
BLOCK
  5
1F3
330
1F2
100
AcDbEntity
  8
0
100
AcDbBlockBegin
  2
BLKF040
 70
     0
 71
     0
 10
0.0
 20
0.0
 30
0.0
  3
BLKF040
  1

  0
LINE
  5
1F6
330
1F2
100
AcDbEntity
  8
GR1-1
  6
細い実線
 62
     2
100
AcDbLine
 10
683.35119
 20
212.140298
 30
0.0
 11
683.35119
 21
208.171677
 31
0.0
  0
LINE
  5
1F7
330
1F2
100
AcDbEntity
  8
GR1-1
  6
細い実線
 62
     2
100
AcDbLine
 10
685.75119
 20
212.140298
 30
0.0
 11
685.75119
 21
208.171677
 31
0.0
  0
LINE
  5
1F8
330
1F2
100
AcDbEntity
  8
GR1-1
  6
細い実線
 62
     2
100
AcDbLine
 10
682.57119
 20
208.771677
 30
0.0
 11
681.79119
 21
208.771677
 31
0.0
  0
LINE
  5
1F9
330
1F2
100
AcDbEntity
  8
GR1-1
  6
細い実線
 62
     2
100
AcDbLine
 10
686.53119
 20
208.771677
 30
0.0
 11
687.31119
 21
208.771677
 31
0.0
  0
TEXT
  5
1FA
330
1F2
100
AcDbEntity
  8
GR1-1
  6
細い実線
 62
     4
100
AcDbText
 10
683.277344
 20
209.215352
 30
0.0
 40
1.5
  1
40
 41
0.7
  7
FX_VECTOR
 72
     5
 11
685.377344
 21
209.215352
 31
0.0
100
AcDbText
  0
LINE
  5
1FB
330
1F2
100
AcDbEntity
  8
GR1-1
  6
細い実線
 62
     2
100
AcDbLine
 10
682.57119
 20
208.901677
 30
0.0
 11
682.57119
 21
208.641677
 31
0.0
  0
LINE
  5
1FC
330
1F2
100
AcDbEntity
  8
GR1-1
  6
細い実線
 62
     2
100
AcDbLine
 10
682.57119
 20
208.641677
 30
0.0
 11
683.35119
 21
208.771677
 31
0.0
  0
LINE
  5
1FD
330
1F2
100
AcDbEntity
  8
GR1-1
  6
細い実線
 62
     2
100
AcDbLine
 10
683.35119
 20
208.771677
 30
0.0
 11
682.57119
 21
208.901677
 31
0.0
  0
LINE
  5
1FE
330
1F2
100
AcDbEntity
  8
GR1-1
  6
細い実線
 62
     2
100
AcDbLine
 10
686.53119
 20
208.901677
 30
0.0
 11
686.53119
 21
208.641677
 31
0.0
  0
LINE
  5
1FF
330
1F2
100
AcDbEntity
  8
GR1-1
  6
細い実線
 62
     2
100
AcDbLine
 10
686.53119
 20
208.641677
 30
0.0
 11
685.75119
 21
208.771677
 31
0.0
  0
LINE
  5
200
330
1F2
100
AcDbEntity
  8
GR1-1
  6
細い実線
 62
     2
100
AcDbLine
 10
685.75119
 20
208.771677
 30
0.0
 11
686.53119
 21
208.901677
 31
0.0
  0
ENDBLK
  5
1F4
330
1F2
100
AcDbEntity
  8
0
100
AcDbBlockEnd
  0
BLOCK
  5
202
330
201
100
AcDbEntity
  8
0
100
AcDbBlockBegin
  2
BLKF041
 70
     0
 71
     0
 10
0.0
 20
0.0
 30
0.0
  3
BLKF041
  1

  0
LINE
  5
205
330
201
100
AcDbEntity
  8
GR1-1
  6
細い実線
 62
     2
100
AcDbLine
 10
685.75119
 20
212.140298
 30
0.0
 11
685.75119
 21
208.171677
 31
0.0
  0
LINE
  5
206
330
201
100
AcDbEntity
  8
GR1-1
  6
細い実線
 62
     2
100
AcDbLine
 10
686.05119
 20
211.420298
 30
0.0
 11
686.05119
 21
208.171677
 31
0.0
  0
LINE
  5
207
330
201
100
AcDbEntity
  8
GR1-1
  6
細い実線
 62
     2
100
AcDbLine
 10
684.97119
 20
208.771677
 30
0.0
 11
684.19119
 21
208.771677
 31
0.0
  0
LINE
  5
208
330
201
100
AcDbEntity
  8
GR1-1
  6
細い実線
 62
     2
100
AcDbLine
 10
686.83119
 20
208.771677
 30
0.0
 11
687.61119
 21
208.771677
 31
0.0
  0
TEXT
  5
209
330
201
100
AcDbEntity
  8
GR1-1
  6
細い実線
 62
     4
100
AcDbText
 10
686.217813
 20
209.215352
 30
0.0
 40
1.5
  1
5
 41
0.7
  7
FX_VECTOR
 72
     5
 11
687.267812
 21
209.215352
 31
0.0
100
AcDbText
  0
LINE
  5
20A
330
201
100
AcDbEntity
  8
GR1-1
  6
細い実線
 62
     2
100
AcDbLine
 10
684.97119
 20
208.901677
 30
0.0
 11
684.97119
 21
208.641677
 31
0.0
  0
LINE
  5
20B
330
201
100
AcDbEntity
  8
GR1-1
  6
細い実線
 62
     2
100
AcDbLine
 10
684.97119
 20
208.641677
 30
0.0
 11
685.75119
 21
208.771677
 31
0.0
  0
LINE
  5
20C
330
201
100
AcDbEntity
  8
GR1-1
  6
細い実線
 62
     2
100
AcDbLine
 10
685.75119
 20
208.771677
 30
0.0
 11
684.97119
 21
208.901677
 31
0.0
  0
LINE
  5
20D
330
201
100
AcDbEntity
  8
GR1-1
  6
細い実線
 62
     2
100
AcDbLine
 10
686.83119
 20
208.901677
 30
0.0
 11
686.83119
 21
208.641677
 31
0.0
  0
LINE
  5
20E
330
201
100
AcDbEntity
  8
GR1-1
  6
細い実線
 62
     2
100
AcDbLine
 10
686.83119
 20
208.641677
 30
0.0
 11
686.05119
 21
208.771677
 31
0.0
  0
LINE
  5
20F
330
201
100
AcDbEntity
  8
GR1-1
  6
細い実線
 62
     2
100
AcDbLine
 10
686.05119
 20
208.771677
 30
0.0
 11
686.83119
 21
208.901677
 31
0.0
  0
ENDBLK
  5
203
330
201
100
AcDbEntity
  8
0
100
AcDbBlockEnd
  0
BLOCK
  5
211
330
210
100
AcDbEntity
  8
0
100
AcDbBlockBegin
  2
BLKF042
 70
     0
 71
     0
 10
0.0
 20
0.0
 30
0.0
  3
BLKF042
  1

  0
LINE
  5
214
330
210
100
AcDbEntity
  8
GR1-1
  6
細い実線
 62
     2
100
AcDbLine
 10
683.05119
 20
211.420298
 30
0.0
 11
683.05119
 21
204.528202
 31
0.0
  0
LINE
  5
215
330
210
100
AcDbEntity
  8
GR1-1
  6
細い実線
 62
     2
100
AcDbLine
 10
686.05119
 20
211.420298
 30
0.0
 11
686.05119
 21
204.528202
 31
0.0
  0
LINE
  5
216
330
210
100
AcDbEntity
  8
GR1-1
  6
細い実線
 62
     2
100
AcDbLine
 10
683.83119
 20
205.128202
 30
0.0
 11
685.27119
 21
205.128202
 31
0.0
  0
LINE
  5
217
330
210
100
AcDbEntity
  8
GR1-1
  6
細い実線
 62
     2
100
AcDbLine
 10
683.83119
 20
205.258202
 30
0.0
 11
683.83119
 21
204.998202
 31
0.0
  0
LINE
  5
218
330
210
100
AcDbEntity
  8
GR1-1
  6
細い実線
 62
     2
100
AcDbLine
 10
683.83119
 20
204.998202
 30
0.0
 11
683.05119
 21
205.128202
 31
0.0
  0
LINE
  5
219
330
210
100
AcDbEntity
  8
GR1-1
  6
細い実線
 62
     2
100
AcDbLine
 10
683.05119
 20
205.128202
 30
0.0
 11
683.83119
 21
205.258202
 31
0.0
  0
LINE
  5
21A
330
210
100
AcDbEntity
  8
GR1-1
  6
細い実線
 62
     2
100
AcDbLine
 10
685.27119
 20
205.258202
 30
0.0
 11
685.27119
 21
204.998202
 31
0.0
  0
LINE
  5
21B
330
210
100
AcDbEntity
  8
GR1-1
  6
細い実線
 62
     2
100
AcDbLine
 10
685.27119
 20
204.998202
 30
0.0
 11
686.05119
 21
205.128202
 31
0.0
  0
LINE
  5
21C
330
210
100
AcDbEntity
  8
GR1-1
  6
細い実線
 62
     2
100
AcDbLine
 10
686.05119
 20
205.128202
 30
0.0
 11
685.27119
 21
205.258202
 31
0.0
  0
TEXT
  5
21D
330
210
100
AcDbEntity
  8
GR1-1
  6
細い実線
 62
     4
100
AcDbText
 10
683.501172
 20
205.728203
 30
0.0
 40
1.5
  1
50
 41
0.7
  7
FX_VECTOR
 72
     5
 11
685.601172
 21
205.728203
 31
0.0
100
AcDbText
  0
ENDBLK
  5
212
330
210
100
AcDbEntity
  8
0
100
AcDbBlockEnd
  0
BLOCK
  5
21F
330
21E
100
AcDbEntity
  8
0
100
AcDbBlockBegin
  2
BLKF043
 70
     0
 71
     0
 10
0.0
 20
0.0
 30
0.0
  3
BLKF043
  1

  0
LINE
  5
222
330
21E
100
AcDbEntity
  8
GR1-1
  6
細い実線
 62
     2
100
AcDbLine
 10
692.301493
 20
212.320298
 30
0.0
 11
688.649178
 21
212.320298
 31
0.0
  0
LINE
  5
223
330
21E
100
AcDbEntity
  8
GR1-1
  6
細い実線
 62
     2
100
AcDbLine
 10
692.601493
 20
213.040298
 30
0.0
 11
688.649178
 21
213.040298
 31
0.0
  0
LINE
  5
224
330
21E
100
AcDbEntity
  8
GR1-1
  6
細い実線
 62
     2
100
AcDbLine
 10
689.249178
 20
211.540298
 30
0.0
 11
689.249178
 21
210.760298
 31
0.0
  0
LINE
  5
225
330
21E
100
AcDbEntity
  8
GR1-1
  6
細い実線
 62
     2
100
AcDbLine
 10
689.249178
 20
213.820298
 30
0.0
 11
689.249178
 21
214.600298
 31
0.0
  0
TEXT
  5
226
330
21E
100
AcDbEntity
  8
GR1-1
  6
細い実線
 62
     4
100
AcDbText
 10
688.700547
 20
213.391562
 30
0.0
 40
1.5
  1
12
 50
90.0
 41
0.7
  7
FX_VECTOR
 72
     5
 11
688.700547
 21
215.491563
 31
0.0
100
AcDbText
  0
LINE
  5
227
330
21E
100
AcDbEntity
  8
GR1-1
  6
細い実線
 62
     2
100
AcDbLine
 10
689.119178
 20
211.540298
 30
0.0
 11
689.379178
 21
211.540298
 31
0.0
  0
LINE
  5
228
330
21E
100
AcDbEntity
  8
GR1-1
  6
細い実線
 62
     2
100
AcDbLine
 10
689.379178
 20
211.540298
 30
0.0
 11
689.249178
 21
212.320298
 31
0.0
  0
LINE
  5
229
330
21E
100
AcDbEntity
  8
GR1-1
  6
細い実線
 62
     2
100
AcDbLine
 10
689.249178
 20
212.320298
 30
0.0
 11
689.119178
 21
211.540298
 31
0.0
  0
LINE
  5
22A
330
21E
100
AcDbEntity
  8
GR1-1
  6
細い実線
 62
     2
100
AcDbLine
 10
689.119178
 20
213.820298
 30
0.0
 11
689.379178
 21
213.820298
 31
0.0
  0
LINE
  5
22B
330
21E
100
AcDbEntity
  8
GR1-1
  6
細い実線
 62
     2
100
AcDbLine
 10
689.379178
 20
213.820298
 30
0.0
 11
689.249178
 21
213.040298
 31
0.0
  0
LINE
  5
22C
330
21E
100
AcDbEntity
  8
GR1-1
  6
細い実線
 62
     2
100
AcDbLine
 10
689.249178
 20
213.040298
 30
0.0
 11
689.119178
 21
213.820298
 31
0.0
  0
ENDBLK
  5
220
330
21E
100
AcDbEntity
  8
0
100
AcDbBlockEnd
  0
BLOCK
  5
25F
330
25E
100
AcDbEntity
  8
0
100
AcDbBlockBegin
  2
BLKF044
 70
     0
 71
     0
 10
0.0
 20
0.0
 30
0.0
  3
BLKF044
  1

  0
LINE
  5
262
330
25E
100
AcDbEntity
  8
GR1-1
  6
CONTINUOUS
 62
     2
100
AcDbLine
 10
796.246336
 20
131.154714
 30
0.0
 11
793.73474
 21
126.131522
 31
0.0
  0
LINE
  5
263
330
25E
100
AcDbEntity
  8
GR1-1
  6
CONTINUOUS
 62
     2
100
AcDbLine
 10
796.604107
 20
130.975828
 30
0.0
 11
794.092511
 21
125.952637
 31
0.0
  0
LINE
  5
264
330
25E
100
AcDbEntity
  8
GR1-1
  6
CONTINUOUS
 62
     2
100
AcDbLine
 10
793.305415
 20
127.017005
 30
0.0
 11
792.607762
 21
127.365832
 31
0.0
  0
LINE
  5
265
330
25E
100
AcDbEntity
  8
GR1-1
  6
CONTINUOUS
 62
     2
100
AcDbLine
 10
795.058493
 20
126.140467
 30
0.0
 11
795.756146
 21
125.79164
 31
0.0
  0
TEXT
  5
266
330
25E
100
AcDbEntity
  8
GR1-1
  6
CONTINUOUS
 62
     4
100
AcDbText
 10
794.857266
 20
126.899043
 30
0.0
 40
1.5
  1
20
 50
333.434937
 41
0.7
  7
FX_VECTOR
 72
     5
 11
796.735563
 21
125.959894
 31
0.0
100
AcDbText
  0
LINE
  5
267
330
25E
100
AcDbEntity
  8
GR1-1
  6
CONTINUOUS
 62
     2
100
AcDbLine
 10
793.363553
 20
127.133281
 30
0.0
 11
793.247278
 21
126.90073
 31
0.0
  0
LINE
  5
268
330
25E
100
AcDbEntity
  8
GR1-1
  6
CONTINUOUS
 62
     2
100
AcDbLine
 10
793.247278
 20
126.90073
 30
0.0
 11
794.003069
 21
126.668179
 31
0.0
  0
LINE
  5
269
330
25E
100
AcDbEntity
  8
GR1-1
  6
CONTINUOUS
 62
     2
100
AcDbLine
 10
794.003069
 20
126.668179
 30
0.0
 11
793.363553
 21
127.133281
 31
0.0
  0
LINE
  5
26A
330
25E
100
AcDbEntity
  8
GR1-1
  6
CONTINUOUS
 62
     2
100
AcDbLine
 10
795.11663
 20
126.256742
 30
0.0
 11
795.000355
 21
126.024191
 31
0.0
  0
LINE
  5
26B
330
25E
100
AcDbEntity
  8
GR1-1
  6
CONTINUOUS
 62
     2
100
AcDbLine
 10
795.000355
 20
126.024191
 30
0.0
 11
794.360839
 21
126.489293
 31
0.0
  0
LINE
  5
26C
330
25E
100
AcDbEntity
  8
GR1-1
  6
CONTINUOUS
 62
     2
100
AcDbLine
 10
794.360839
 20
126.489293
 30
0.0
 11
795.11663
 21
126.256742
 31
0.0
  0
ENDBLK
  5
260
330
25E
100
AcDbEntity
  8
0
100
AcDbBlockEnd
  0
BLOCK
  5
26E
330
26D
100
AcDbEntity
  8
0
100
AcDbBlockBegin
  2
BLKF045
 70
     0
 71
     0
 10
0.0
 20
0.0
 30
0.0
  3
BLKF045
  1

  0
LINE
  5
271
330
26D
100
AcDbEntity
  8
GR1-1
  6
CONTINUOUS
 62
     2
100
AcDbLine
 10
796.246336
 20
131.154714
 30
0.0
 11
793.73474
 21
126.131522
 31
0.0
  0
LINE
  5
272
330
26D
100
AcDbEntity
  8
GR1-1
  6
CONTINUOUS
 62
     2
100
AcDbLine
 10
795.351909
 20
131.601928
 30
0.0
 11
792.840313
 21
126.578736
 31
0.0
  0
LINE
  5
273
330
26D
100
AcDbEntity
  8
GR1-1
  6
CONTINUOUS
 62
     2
100
AcDbLine
 10
794.700722
 20
126.319352
 30
0.0
 11
795.398375
 21
125.970526
 31
0.0
  0
LINE
  5
274
330
26D
100
AcDbEntity
  8
GR1-1
  6
CONTINUOUS
 62
     2
100
AcDbLine
 10
792.410988
 20
127.464219
 30
0.0
 11
791.713335
 21
127.813046
 31
0.0
  0
TEXT
  5
275
330
26D
100
AcDbEntity
  8
GR1-1
  6
CONTINUOUS
 62
     4
100
AcDbText
 10
792.764375
 20
127.923984
 30
0.0
 40
1.5
  1
50
 50
333.434937
 41
0.7
  7
FX_VECTOR
 72
     5
 11
794.642672
 21
126.984835
 31
0.0
100
AcDbText
  0
LINE
  5
276
330
26D
100
AcDbEntity
  8
GR1-1
  6
CONTINUOUS
 62
     2
100
AcDbLine
 10
794.75886
 20
126.435628
 30
0.0
 11
794.642584
 21
126.203077
 31
0.0
  0
LINE
  5
277
330
26D
100
AcDbEntity
  8
GR1-1
  6
CONTINUOUS
 62
     2
100
AcDbLine
 10
794.642584
 20
126.203077
 30
0.0
 11
794.003069
 21
126.668179
 31
0.0
  0
LINE
  5
278
330
26D
100
AcDbEntity
  8
GR1-1
  6
CONTINUOUS
 62
     2
100
AcDbLine
 10
794.003069
 20
126.668179
 30
0.0
 11
794.75886
 21
126.435628
 31
0.0
  0
LINE
  5
279
330
26D
100
AcDbEntity
  8
GR1-1
  6
CONTINUOUS
 62
     2
100
AcDbLine
 10
792.469126
 20
127.580495
 30
0.0
 11
792.35285
 21
127.347943
 31
0.0
  0
LINE
  5
27A
330
26D
100
AcDbEntity
  8
GR1-1
  6
CONTINUOUS
 62
     2
100
AcDbLine
 10
792.35285
 20
127.347943
 30
0.0
 11
793.108641
 21
127.115392
 31
0.0
  0
LINE
  5
27B
330
26D
100
AcDbEntity
  8
GR1-1
  6
CONTINUOUS
 62
     2
100
AcDbLine
 10
793.108641
 20
127.115392
 30
0.0
 11
792.469126
 21
127.580495
 31
0.0
  0
ENDBLK
  5
26F
330
26D
100
AcDbEntity
  8
0
100
AcDbBlockEnd
  0
BLOCK
  5
27D
330
27C
100
AcDbEntity
  8
0
100
AcDbBlockBegin
  2
BLKF046
 70
     0
 71
     0
 10
0.0
 20
0.0
 30
0.0
  3
BLKF046
  1

  0
LINE
  5
280
330
27C
100
AcDbEntity
  8
GR1-1
  6
CONTINUOUS
 62
     2
100
AcDbLine
 10
794.189154
 20
132.183305
 30
0.0
 11
789.897277
 21
123.599551
 31
0.0
  0
LINE
  5
281
330
27C
100
AcDbEntity
  8
GR1-1
  6
CONTINUOUS
 62
     2
100
AcDbLine
 10
795.351909
 20
131.601928
 30
0.0
 11
791.060032
 21
123.018174
 31
0.0
  0
LINE
  5
282
330
27C
100
AcDbEntity
  8
GR1-1
  6
CONTINUOUS
 62
     2
100
AcDbLine
 10
789.467952
 20
124.485034
 30
0.0
 11
788.770298
 21
124.833861
 31
0.0
  0
LINE
  5
283
330
27C
100
AcDbEntity
  8
GR1-1
  6
CONTINUOUS
 62
     2
100
AcDbLine
 10
792.026013
 20
123.206003
 30
0.0
 11
792.723667
 21
122.857177
 31
0.0
  0
TEXT
  5
284
330
27C
100
AcDbEntity
  8
GR1-1
  6
CONTINUOUS
 62
     4
100
AcDbText
 10
788.311797
 20
125.812598
 30
0.0
 40
1.5
  1
65
 50
333.434937
 41
0.7
  7
FX_VECTOR
 72
     5
 11
790.190094
 21
124.873449
 31
0.0
100
AcDbText
  0
LINE
  5
285
330
27C
100
AcDbEntity
  8
GR1-1
  6
CONTINUOUS
 62
     2
100
AcDbLine
 10
789.526089
 20
124.60131
 30
0.0
 11
789.409814
 21
124.368759
 31
0.0
  0
LINE
  5
286
330
27C
100
AcDbEntity
  8
GR1-1
  6
CONTINUOUS
 62
     2
100
AcDbLine
 10
789.409814
 20
124.368759
 30
0.0
 11
790.165605
 21
124.136208
 31
0.0
  0
LINE
  5
287
330
27C
100
AcDbEntity
  8
GR1-1
  6
CONTINUOUS
 62
     2
100
AcDbLine
 10
790.165605
 20
124.136208
 30
0.0
 11
789.526089
 21
124.60131
 31
0.0
  0
LINE
  5
288
330
27C
100
AcDbEntity
  8
GR1-1
  6
CONTINUOUS
 62
     2
100
AcDbLine
 10
792.084151
 20
123.322279
 30
0.0
 11
791.967876
 21
123.089728
 31
0.0
  0
LINE
  5
289
330
27C
100
AcDbEntity
  8
GR1-1
  6
CONTINUOUS
 62
     2
100
AcDbLine
 10
791.967876
 20
123.089728
 30
0.0
 11
791.32836
 21
123.55483
 31
0.0
  0
LINE
  5
28A
330
27C
100
AcDbEntity
  8
GR1-1
  6
CONTINUOUS
 62
     2
100
AcDbLine
 10
791.32836
 20
123.55483
 30
0.0
 11
792.084151
 21
123.322279
 31
0.0
  0
ENDBLK
  5
27E
330
27C
100
AcDbEntity
  8
0
100
AcDbBlockEnd
  0
BLOCK
  5
28C
330
28B
100
AcDbEntity
  8
0
100
AcDbBlockBegin
  2
BLKF047
 70
     0
 71
     0
 10
0.0
 20
0.0
 30
0.0
  3
BLKF047
  1

  0
LINE
  5
28F
330
28B
100
AcDbEntity
  8
GR1-1
  6
CONTINUOUS
 62
     2
100
AcDbLine
 10
818.964787
 20
119.795489
 30
0.0
 11
816.453191
 21
114.772297
 31
0.0
  0
LINE
  5
290
330
28B
100
AcDbEntity
  8
GR1-1
  6
CONTINUOUS
 62
     2
100
AcDbLine
 10
818.607016
 20
119.974374
 30
0.0
 11
816.09542
 21
114.951183
 31
0.0
  0
LINE
  5
291
330
28B
100
AcDbEntity
  8
GR1-1
  6
CONTINUOUS
 62
     2
100
AcDbLine
 10
817.419172
 20
114.960127
 30
0.0
 11
818.116826
 21
114.6113
 31
0.0
  0
LINE
  5
292
330
28B
100
AcDbEntity
  8
GR1-1
  6
CONTINUOUS
 62
     2
100
AcDbLine
 10
815.666095
 20
115.836666
 30
0.0
 11
814.968442
 21
116.185492
 31
0.0
  0
TEXT
  5
293
330
28B
100
AcDbEntity
  8
GR1-1
  6
CONTINUOUS
 62
     4
100
AcDbText
 10
814.515391
 20
117.07002
 30
0.0
 40
1.5
  1
20
 50
333.434937
 41
0.7
  7
FX_VECTOR
 72
     5
 11
816.393688
 21
116.130871
 31
0.0
100
AcDbText
  0
LINE
  5
294
330
28B
100
AcDbEntity
  8
GR1-1
  6
CONTINUOUS
 62
     2
100
AcDbLine
 10
817.47731
 20
115.076402
 30
0.0
 11
817.361035
 21
114.843851
 31
0.0
  0
LINE
  5
295
330
28B
100
AcDbEntity
  8
GR1-1
  6
CONTINUOUS
 62
     2
100
AcDbLine
 10
817.361035
 20
114.843851
 30
0.0
 11
816.721519
 21
115.308953
 31
0.0
  0
LINE
  5
296
330
28B
100
AcDbEntity
  8
GR1-1
  6
CONTINUOUS
 62
     2
100
AcDbLine
 10
816.721519
 20
115.308953
 30
0.0
 11
817.47731
 21
115.076402
 31
0.0
  0
LINE
  5
297
330
28B
100
AcDbEntity
  8
GR1-1
  6
CONTINUOUS
 62
     2
100
AcDbLine
 10
815.724233
 20
115.952941
 30
0.0
 11
815.607957
 21
115.72039
 31
0.0
  0
LINE
  5
298
330
28B
100
AcDbEntity
  8
GR1-1
  6
CONTINUOUS
 62
     2
100
AcDbLine
 10
815.607957
 20
115.72039
 30
0.0
 11
816.363748
 21
115.487839
 31
0.0
  0
LINE
  5
299
330
28B
100
AcDbEntity
  8
GR1-1
  6
CONTINUOUS
 62
     2
100
AcDbLine
 10
816.363748
 20
115.487839
 30
0.0
 11
815.724233
 21
115.952941
 31
0.0
  0
ENDBLK
  5
28D
330
28B
100
AcDbEntity
  8
0
100
AcDbBlockEnd
  0
BLOCK
  5
29B
330
29A
100
AcDbEntity
  8
0
100
AcDbBlockBegin
  2
BLKF048
 70
     0
 71
     0
 10
0.0
 20
0.0
 30
0.0
  3
BLKF048
  1

  0
LINE
  5
29E
330
29A
100
AcDbEntity
  8
GR1-1
  6
CONTINUOUS
 62
     2
100
AcDbLine
 10
821.021969
 20
118.766897
 30
0.0
 11
816.730092
 21
110.183143
 31
0.0
  0
LINE
  5
29F
330
29A
100
AcDbEntity
  8
GR1-1
  6
CONTINUOUS
 62
     2
100
AcDbLine
 10
819.859214
 20
119.348275
 30
0.0
 11
815.567337
 21
110.764521
 31
0.0
  0
LINE
  5
2A0
330
29A
100
AcDbEntity
  8
GR1-1
  6
CONTINUOUS
 62
     2
100
AcDbLine
 10
817.696074
 20
110.370973
 30
0.0
 11
818.393727
 21
110.022146
 31
0.0
  0
LINE
  5
2A1
330
29A
100
AcDbEntity
  8
GR1-1
  6
CONTINUOUS
 62
     2
100
AcDbLine
 10
815.138012
 20
111.650004
 30
0.0
 11
814.440359
 21
111.998831
 31
0.0
  0
TEXT
  5
2A2
330
29A
100
AcDbEntity
  8
GR1-1
  6
CONTINUOUS
 62
     4
100
AcDbText
 10
817.573516
 20
111.181777
 30
0.0
 40
1.5
  1
65
 50
333.434937
 41
0.7
  7
FX_VECTOR
 72
     5
 11
819.451813
 21
110.242628
 31
0.0
100
AcDbText
  0
LINE
  5
2A3
330
29A
100
AcDbEntity
  8
GR1-1
  6
CONTINUOUS
 62
     2
100
AcDbLine
 10
817.754211
 20
110.487249
 30
0.0
 11
817.637936
 21
110.254697
 31
0.0
  0
LINE
  5
2A4
330
29A
100
AcDbEntity
  8
GR1-1
  6
CONTINUOUS
 62
     2
100
AcDbLine
 10
817.637936
 20
110.254697
 30
0.0
 11
816.99842
 21
110.7198
 31
0.0
  0
LINE
  5
2A5
330
29A
100
AcDbEntity
  8
GR1-1
  6
CONTINUOUS
 62
     2
100
AcDbLine
 10
816.99842
 20
110.7198
 30
0.0
 11
817.754211
 21
110.487249
 31
0.0
  0
LINE
  5
2A6
330
29A
100
AcDbEntity
  8
GR1-1
  6
CONTINUOUS
 62
     2
100
AcDbLine
 10
815.19615
 20
111.766279
 30
0.0
 11
815.079874
 21
111.533728
 31
0.0
  0
LINE
  5
2A7
330
29A
100
AcDbEntity
  8
GR1-1
  6
CONTINUOUS
 62
     2
100
AcDbLine
 10
815.079874
 20
111.533728
 30
0.0
 11
815.835665
 21
111.301177
 31
0.0
  0
LINE
  5
2A8
330
29A
100
AcDbEntity
  8
GR1-1
  6
CONTINUOUS
 62
     2
100
AcDbLine
 10
815.835665
 20
111.301177
 30
0.0
 11
815.19615
 21
111.766279
 31
0.0
  0
ENDBLK
  5
29C
330
29A
100
AcDbEntity
  8
0
100
AcDbBlockEnd
  0
BLOCK
  5
2AA
330
2A9
100
AcDbEntity
  8
0
100
AcDbBlockBegin
  2
BLKF049
 70
     0
 71
     0
 10
0.0
 20
0.0
 30
0.0
  3
BLKF049
  1

  0
LINE
  5
2AD
330
2A9
100
AcDbEntity
  8
GR1-1
  6
CONTINUOUS
 62
     2
100
AcDbLine
 10
818.964787
 20
119.795489
 30
0.0
 11
816.453191
 21
114.772297
 31
0.0
  0
LINE
  5
2AE
330
2A9
100
AcDbEntity
  8
GR1-1
  6
CONTINUOUS
 62
     2
100
AcDbLine
 10
819.859214
 20
119.348275
 30
0.0
 11
817.347618
 21
114.325084
 31
0.0
  0
LINE
  5
2AF
330
2A9
100
AcDbEntity
  8
GR1-1
  6
CONTINUOUS
 62
     2
100
AcDbLine
 10
816.023866
 20
115.65778
 30
0.0
 11
815.326213
 21
116.006607
 31
0.0
  0
LINE
  5
2B0
330
2A9
100
AcDbEntity
  8
GR1-1
  6
CONTINUOUS
 62
     2
100
AcDbLine
 10
818.3136
 20
114.512913
 30
0.0
 11
819.011253
 21
114.164087
 31
0.0
  0
TEXT
  5
2B1
330
2A9
100
AcDbEntity
  8
GR1-1
  6
CONTINUOUS
 62
     4
100
AcDbText
 10
816.591094
 20
116.010664
 30
0.0
 40
1.5
  1
50
 50
333.434937
 41
0.7
  7
FX_VECTOR
 72
     5
 11
818.469391
 21
115.071515
 31
0.0
100
AcDbText
  0
LINE
  5
2B2
330
2A9
100
AcDbEntity
  8
GR1-1
  6
CONTINUOUS
 62
     2
100
AcDbLine
 10
816.082004
 20
115.774056
 30
0.0
 11
815.965728
 21
115.541505
 31
0.0
  0
LINE
  5
2B3
330
2A9
100
AcDbEntity
  8
GR1-1
  6
CONTINUOUS
 62
     2
100
AcDbLine
 10
815.965728
 20
115.541505
 30
0.0
 11
816.721519
 21
115.308953
 31
0.0
  0
LINE
  5
2B4
330
2A9
100
AcDbEntity
  8
GR1-1
  6
CONTINUOUS
 62
     2
100
AcDbLine
 10
816.721519
 20
115.308953
 30
0.0
 11
816.082004
 21
115.774056
 31
0.0
  0
LINE
  5
2B5
330
2A9
100
AcDbEntity
  8
GR1-1
  6
CONTINUOUS
 62
     2
100
AcDbLine
 10
818.371737
 20
114.629189
 30
0.0
 11
818.255462
 21
114.396638
 31
0.0
  0
LINE
  5
2B6
330
2A9
100
AcDbEntity
  8
GR1-1
  6
CONTINUOUS
 62
     2
100
AcDbLine
 10
818.255462
 20
114.396638
 30
0.0
 11
817.615946
 21
114.86174
 31
0.0
  0
LINE
  5
2B7
330
2A9
100
AcDbEntity
  8
GR1-1
  6
CONTINUOUS
 62
     2
100
AcDbLine
 10
817.615946
 20
114.86174
 30
0.0
 11
818.371737
 21
114.629189
 31
0.0
  0
ENDBLK
  5
2AB
330
2A9
100
AcDbEntity
  8
0
100
AcDbBlockEnd
  0
BLOCK
  5
2B9
330
2B8
100
AcDbEntity
  8
0
100
AcDbBlockBegin
  2
BLKF050
 70
     0
 71
     0
 10
0.0
 20
0.0
 30
0.0
  3
BLKF050
  1

  0
LINE
  5
2BC
330
2B8
100
AcDbEntity
  8
GR1-1
  6
CONTINUOUS
 62
     2
100
AcDbLine
 10
795.351909
 20
131.601928
 30
0.0
 11
791.060032
 21
123.018174
 31
0.0
  0
LINE
  5
2BD
330
2B8
100
AcDbEntity
  8
GR1-1
  6
CONTINUOUS
 62
     2
100
AcDbLine
 10
819.859214
 20
119.348275
 30
0.0
 11
815.567337
 21
110.764521
 31
0.0
  0
LINE
  5
2BE
330
2B8
100
AcDbEntity
  8
GR1-1
  6
CONTINUOUS
 62
     2
100
AcDbLine
 10
792.026013
 20
123.206003
 30
0.0
 11
815.138012
 21
111.650004
 31
0.0
  0
LINE
  5
2BF
330
2B8
100
AcDbEntity
  8
GR1-1
  6
CONTINUOUS
 62
     2
100
AcDbLine
 10
792.084151
 20
123.322279
 30
0.0
 11
791.967876
 21
123.089728
 31
0.0
  0
LINE
  5
2C0
330
2B8
100
AcDbEntity
  8
GR1-1
  6
CONTINUOUS
 62
     2
100
AcDbLine
 10
791.967876
 20
123.089728
 30
0.0
 11
791.32836
 21
123.55483
 31
0.0
  0
LINE
  5
2C1
330
2B8
100
AcDbEntity
  8
GR1-1
  6
CONTINUOUS
 62
     2
100
AcDbLine
 10
791.32836
 20
123.55483
 30
0.0
 11
792.084151
 21
123.322279
 31
0.0
  0
LINE
  5
2C2
330
2B8
100
AcDbEntity
  8
GR1-1
  6
CONTINUOUS
 62
     2
100
AcDbLine
 10
815.19615
 20
111.766279
 30
0.0
 11
815.079874
 21
111.533728
 31
0.0
  0
LINE
  5
2C3
330
2B8
100
AcDbEntity
  8
GR1-1
  6
CONTINUOUS
 62
     2
100
AcDbLine
 10
815.079874
 20
111.533728
 30
0.0
 11
815.835665
 21
111.301177
 31
0.0
  0
LINE
  5
2C4
330
2B8
100
AcDbEntity
  8
GR1-1
  6
CONTINUOUS
 62
     2
100
AcDbLine
 10
815.835665
 20
111.301177
 30
0.0
 11
815.19615
 21
111.766279
 31
0.0
  0
TEXT
  5
2C5
330
2B8
100
AcDbEntity
  8
GR1-1
  6
CONTINUOUS
 62
     4
100
AcDbText
 10
801.972031
 20
118.903809
 30
0.0
 40
1.5
  1
1370
 50
333.434937
 41
0.7
  7
FX_VECTOR
 72
     5
 11
805.728625
 21
117.025511
 31
0.0
100
AcDbText
  0
ENDBLK
  5
2BA
330
2B8
100
AcDbEntity
  8
0
100
AcDbBlockEnd
  0
BLOCK
  5
2C7
330
2C6
100
AcDbEntity
  8
0
100
AcDbBlockBegin
  2
BLKF051
 70
     0
 71
     0
 10
0.0
 20
0.0
 30
0.0
  3
BLKF051
  1

  0
LINE
  5
2CA
330
2C6
100
AcDbEntity
  8
GR1-1
  6
CONTINUOUS
 62
     2
100
AcDbLine
 10
794.189154
 20
132.183305
 30
0.0
 11
788.31517
 21
120.435339
 31
0.0
  0
LINE
  5
2CB
330
2C6
100
AcDbEntity
  8
GR1-1
  6
CONTINUOUS
 62
     2
100
AcDbLine
 10
821.021969
 20
118.766897
 30
0.0
 11
815.147986
 21
107.018931
 31
0.0
  0
LINE
  5
2CC
330
2C6
100
AcDbEntity
  8
GR1-1
  6
CONTINUOUS
 62
     2
100
AcDbLine
 10
789.281152
 20
120.623168
 30
0.0
 11
814.718661
 21
107.904414
 31
0.0
  0
LINE
  5
2CD
330
2C6
100
AcDbEntity
  8
GR1-1
  6
CONTINUOUS
 62
     2
100
AcDbLine
 10
789.33929
 20
120.739444
 30
0.0
 11
789.223014
 21
120.506893
 31
0.0
  0
LINE
  5
2CE
330
2C6
100
AcDbEntity
  8
GR1-1
  6
CONTINUOUS
 62
     2
100
AcDbLine
 10
789.223014
 20
120.506893
 30
0.0
 11
788.583499
 21
120.971995
 31
0.0
  0
LINE
  5
2CF
330
2C6
100
AcDbEntity
  8
GR1-1
  6
CONTINUOUS
 62
     2
100
AcDbLine
 10
788.583499
 20
120.971995
 30
0.0
 11
789.33929
 21
120.739444
 31
0.0
  0
LINE
  5
2D0
330
2C6
100
AcDbEntity
  8
GR1-1
  6
CONTINUOUS
 62
     2
100
AcDbLine
 10
814.776799
 20
108.020689
 30
0.0
 11
814.660523
 21
107.788138
 31
0.0
  0
LINE
  5
2D1
330
2C6
100
AcDbEntity
  8
GR1-1
  6
CONTINUOUS
 62
     2
100
AcDbLine
 10
814.660523
 20
107.788138
 30
0.0
 11
815.416314
 21
107.555587
 31
0.0
  0
LINE
  5
2D2
330
2C6
100
AcDbEntity
  8
GR1-1
  6
CONTINUOUS
 62
     2
100
AcDbLine
 10
815.416314
 20
107.555587
 30
0.0
 11
814.776799
 21
108.020689
 31
0.0
  0
TEXT
  5
2D3
330
2C6
100
AcDbEntity
  8
GR1-1
  6
CONTINUOUS
 62
     4
100
AcDbText
 10
800.389922
 20
115.73959
 30
0.0
 40
1.5
  1
1500
 50
333.434937
 41
0.7
  7
FX_VECTOR
 72
     5
 11
804.146516
 21
113.861292
 31
0.0
100
AcDbText
  0
ENDBLK
  5
2C8
330
2C6
100
AcDbEntity
  8
0
100
AcDbBlockEnd
  0
BLOCK
  5
2D5
330
2D4
100
AcDbEntity
  8
0
100
AcDbBlockBegin
  2
BLKF052
 70
     0
 71
     0
 10
0.0
 20
0.0
 30
0.0
  3
BLKF052
  1

  0
LINE
  5
2D8
330
2D4
100
AcDbEntity
  8
GR1-1
  6
CONTINUOUS
 62
     2
100
AcDbLine
 10
794.189154
 20
132.183305
 30
0.0
 11
788.31517
 21
120.435339
 31
0.0
  0
LINE
  5
2D9
330
2D4
100
AcDbEntity
  8
GR1-1
  6
CONTINUOUS
 62
     2
100
AcDbLine
 10
793.563055
 20
132.496355
 30
0.0
 11
787.689071
 21
120.748388
 31
0.0
  0
LINE
  5
2DA
330
2D4
100
AcDbEntity
  8
GR1-1
  6
CONTINUOUS
 62
     2
100
AcDbLine
 10
789.281152
 20
120.623168
 30
0.0
 11
789.978805
 21
120.274342
 31
0.0
  0
LINE
  5
2DB
330
2D4
100
AcDbEntity
  8
GR1-1
  6
CONTINUOUS
 62
     2
100
AcDbLine
 10
787.259746
 20
121.633871
 30
0.0
 11
786.562093
 21
121.982698
 31
0.0
  0
TEXT
  5
2DC
330
2D4
100
AcDbEntity
  8
GR1-1
  6
CONTINUOUS
 62
     4
100
AcDbText
 10
784.946797
 20
123.665195
 30
0.0
 40
1.5
  1
35
 50
333.434937
 41
0.7
  7
FX_VECTOR
 72
     5
 11
786.825094
 21
122.726046
 31
0.0
100
AcDbText
  0
LINE
  5
2DD
330
2D4
100
AcDbEntity
  8
GR1-1
  6
CONTINUOUS
 62
     2
100
AcDbLine
 10
789.33929
 20
120.739444
 30
0.0
 11
789.223014
 21
120.506893
 31
0.0
  0
LINE
  5
2DE
330
2D4
100
AcDbEntity
  8
GR1-1
  6
CONTINUOUS
 62
     2
100
AcDbLine
 10
789.223014
 20
120.506893
 30
0.0
 11
788.583499
 21
120.971995
 31
0.0
  0
LINE
  5
2DF
330
2D4
100
AcDbEntity
  8
GR1-1
  6
CONTINUOUS
 62
     2
100
AcDbLine
 10
788.583499
 20
120.971995
 30
0.0
 11
789.33929
 21
120.739444
 31
0.0
  0
LINE
  5
2E0
330
2D4
100
AcDbEntity
  8
GR1-1
  6
CONTINUOUS
 62
     2
100
AcDbLine
 10
787.317884
 20
121.750147
 30
0.0
 11
787.201609
 21
121.517596
 31
0.0
  0
LINE
  5
2E1
330
2D4
100
AcDbEntity
  8
GR1-1
  6
CONTINUOUS
 62
     2
100
AcDbLine
 10
787.201609
 20
121.517596
 30
0.0
 11
787.957399
 21
121.285045
 31
0.0
  0
LINE
  5
2E2
330
2D4
100
AcDbEntity
  8
GR1-1
  6
CONTINUOUS
 62
     2
100
AcDbLine
 10
787.957399
 20
121.285045
 30
0.0
 11
787.317884
 21
121.750147
 31
0.0
  0
ENDBLK
  5
2D6
330
2D4
100
AcDbEntity
  8
0
100
AcDbBlockEnd
  0
BLOCK
  5
2E4
330
2E3
100
AcDbEntity
  8
0
100
AcDbBlockBegin
  2
BLKF053
 70
     0
 71
     0
 10
0.0
 20
0.0
 30
0.0
  3
BLKF053
  1

  0
LINE
  5
2E7
330
2E3
100
AcDbEntity
  8
GR1-1
  6
CONTINUOUS
 62
     2
100
AcDbLine
 10
685.470348
 20
129.989242
 30
0.0
 11
687.691705
 21
125.546527
 31
0.0
  0
LINE
  5
2E8
330
2E3
100
AcDbEntity
  8
GR1-1
  6
CONTINUOUS
 62
     2
100
AcDbLine
 10
712.303164
 20
143.405649
 30
0.0
 11
714.524521
 21
138.962935
 31
0.0
  0
LINE
  5
2E9
330
2E3
100
AcDbEntity
  8
GR1-1
  6
CONTINUOUS
 62
     2
100
AcDbLine
 10
688.12103
 20
126.43201
 30
0.0
 11
713.558539
 21
139.150765
 31
0.0
  0
LINE
  5
2EA
330
2E3
100
AcDbEntity
  8
GR1-1
  6
CONTINUOUS
 62
     2
100
AcDbLine
 10
688.062892
 20
126.548286
 30
0.0
 11
688.179168
 21
126.315735
 31
0.0
  0
LINE
  5
2EB
330
2E3
100
AcDbEntity
  8
GR1-1
  6
CONTINUOUS
 62
     2
100
AcDbLine
 10
688.179168
 20
126.315735
 30
0.0
 11
687.423377
 21
126.083184
 31
0.0
  0
LINE
  5
2EC
330
2E3
100
AcDbEntity
  8
GR1-1
  6
CONTINUOUS
 62
     2
100
AcDbLine
 10
687.423377
 20
126.083184
 30
0.0
 11
688.062892
 21
126.548286
 31
0.0
  0
LINE
  5
2ED
330
2E3
100
AcDbEntity
  8
GR1-1
  6
CONTINUOUS
 62
     2
100
AcDbLine
 10
713.500402
 20
139.267041
 30
0.0
 11
713.616677
 21
139.034489
 31
0.0
  0
LINE
  5
2EE
330
2E3
100
AcDbEntity
  8
GR1-1
  6
CONTINUOUS
 62
     2
100
AcDbLine
 10
713.616677
 20
139.034489
 30
0.0
 11
714.256193
 21
139.499592
 31
0.0
  0
LINE
  5
2EF
330
2E3
100
AcDbEntity
  8
GR1-1
  6
CONTINUOUS
 62
     2
100
AcDbLine
 10
714.256193
 20
139.499592
 30
0.0
 11
713.500402
 21
139.267041
 31
0.0
  0
TEXT
  5
2F0
330
2E3
100
AcDbEntity
  8
GR1-1
  6
CONTINUOUS
 62
     4
100
AcDbText
 10
698.693125
 20
132.388887
 30
0.0
 40
1.5
  1
1500
 50
26.565052
 41
0.7
  7
FX_VECTOR
 72
     5
 11
702.449719
 21
134.267184
 31
0.0
100
AcDbText
  0
ENDBLK
  5
2E5
330
2E3
100
AcDbEntity
  8
0
100
AcDbBlockEnd
  0
BLOCK
  5
2F2
330
2F1
100
AcDbEntity
  8
0
100
AcDbBlockBegin
  2
BLKF054
 70
     0
 71
     0
 10
0.0
 20
0.0
 30
0.0
  3
BLKF054
  1

  0
LINE
  5
2F5
330
2F1
100
AcDbEntity
  8
GR1-1
  6
CONTINUOUS
 62
     2
100
AcDbLine
 10
711.18289
 20
145.689156
 30
0.0
 11
713.370614
 21
141.313707
 31
0.0
  0
LINE
  5
2F6
330
2F1
100
AcDbEntity
  8
GR1-1
  6
CONTINUOUS
 62
     2
100
AcDbLine
 10
711.808989
 20
146.002205
 30
0.0
 11
713.996713
 21
141.626756
 31
0.0
  0
LINE
  5
2F7
330
2F1
100
AcDbEntity
  8
GR1-1
  6
CONTINUOUS
 62
     2
100
AcDbLine
 10
712.404633
 20
141.501536
 30
0.0
 11
711.70698
 21
141.15271
 31
0.0
  0
LINE
  5
2F8
330
2F1
100
AcDbEntity
  8
GR1-1
  6
CONTINUOUS
 62
     2
100
AcDbLine
 10
714.426038
 20
142.512239
 30
0.0
 11
715.123691
 21
142.861066
 31
0.0
  0
TEXT
  5
2F9
330
2F1
100
AcDbEntity
  8
GR1-1
  6
CONTINUOUS
 62
     4
100
AcDbText
 10
714.631094
 20
143.241465
 30
0.0
 40
1.5
  1
35
 50
26.565052
 41
0.7
  7
FX_VECTOR
 72
     5
 11
716.509391
 21
144.180613
 31
0.0
100
AcDbText
  0
LINE
  5
2FA
330
2F1
100
AcDbEntity
  8
GR1-1
  6
CONTINUOUS
 62
     2
100
AcDbLine
 10
712.346495
 20
141.617812
 30
0.0
 11
712.462771
 21
141.385261
 31
0.0
  0
LINE
  5
2FB
330
2F1
100
AcDbEntity
  8
GR1-1
  6
CONTINUOUS
 62
     2
100
AcDbLine
 10
712.462771
 20
141.385261
 30
0.0
 11
713.102286
 21
141.850363
 31
0.0
  0
LINE
  5
2FC
330
2F1
100
AcDbEntity
  8
GR1-1
  6
CONTINUOUS
 62
     2
100
AcDbLine
 10
713.102286
 20
141.850363
 30
0.0
 11
712.346495
 21
141.617812
 31
0.0
  0
LINE
  5
2FD
330
2F1
100
AcDbEntity
  8
GR1-1
  6
CONTINUOUS
 62
     2
100
AcDbLine
 10
714.367901
 20
142.628515
 30
0.0
 11
714.484176
 21
142.395963
 31
0.0
  0
LINE
  5
2FE
330
2F1
100
AcDbEntity
  8
GR1-1
  6
CONTINUOUS
 62
     2
100
AcDbLine
 10
714.484176
 20
142.395963
 30
0.0
 11
713.728385
 21
142.163412
 31
0.0
  0
LINE
  5
2FF
330
2F1
100
AcDbEntity
  8
GR1-1
  6
CONTINUOUS
 62
     2
100
AcDbLine
 10
713.728385
 20
142.163412
 30
0.0
 11
714.367901
 21
142.628515
 31
0.0
  0
ENDBLK
  5
2F3
330
2F1
100
AcDbEntity
  8
0
100
AcDbBlockEnd
  0
BLOCK
  5
303
330
302
100
AcDbEntity
  8
0
100
AcDbBlockBegin
  2
BLKF055
 70
     0
 71
     0
 10
0.0
 20
0.0
 30
0.0
  3
BLKF055
  1

  0
LINE
  5
306
330
302
100
AcDbEntity
  8
GR1-1
  6
CONTINUOUS
 62
     2
100
AcDbLine
 10
801.344571
 20
147.39414
 30
0.0
 11
801.344571
 21
154.36824
 31
0.0
  0
LINE
  5
307
330
302
100
AcDbEntity
  8
GR1-1
  6
CONTINUOUS
 62
     2
100
AcDbLine
 10
834.885591
 20
147.39414
 30
0.0
 11
834.885591
 21
154.36824
 31
0.0
  0
LINE
  5
308
330
302
100
AcDbEntity
  8
GR1-1
  6
CONTINUOUS
 62
     2
100
AcDbLine
 10
802.124571
 20
153.76824
 30
0.0
 11
834.105591
 21
153.76824
 31
0.0
  0
LINE
  5
309
330
302
100
AcDbEntity
  8
GR1-1
  6
CONTINUOUS
 62
     2
100
AcDbLine
 10
802.124571
 20
153.89824
 30
0.0
 11
802.124571
 21
153.63824
 31
0.0
  0
LINE
  5
30A
330
302
100
AcDbEntity
  8
GR1-1
  6
CONTINUOUS
 62
     2
100
AcDbLine
 10
802.124571
 20
153.63824
 30
0.0
 11
801.344571
 21
153.76824
 31
0.0
  0
LINE
  5
30B
330
302
100
AcDbEntity
  8
GR1-1
  6
CONTINUOUS
 62
     2
100
AcDbLine
 10
801.344571
 20
153.76824
 30
0.0
 11
802.124571
 21
153.89824
 31
0.0
  0
LINE
  5
30C
330
302
100
AcDbEntity
  8
GR1-1
  6
CONTINUOUS
 62
     2
100
AcDbLine
 10
834.105591
 20
153.89824
 30
0.0
 11
834.105591
 21
153.63824
 31
0.0
  0
LINE
  5
30D
330
302
100
AcDbEntity
  8
GR1-1
  6
CONTINUOUS
 62
     2
100
AcDbLine
 10
834.105591
 20
153.63824
 30
0.0
 11
834.885591
 21
153.76824
 31
0.0
  0
LINE
  5
30E
330
302
100
AcDbEntity
  8
GR1-1
  6
CONTINUOUS
 62
     2
100
AcDbLine
 10
834.885591
 20
153.76824
 30
0.0
 11
834.105591
 21
153.89824
 31
0.0
  0
TEXT
  5
30F
330
302
100
AcDbEntity
  8
GR1-1
  6
CONTINUOUS
 62
     4
100
AcDbText
 10
816.015078
 20
154.368242
 30
0.0
 40
1.5
  1
1677
 41
0.7
  7
FX_VECTOR
 72
     5
 11
820.215078
 21
154.368242
 31
0.0
100
AcDbText
  0
ENDBLK
  5
304
330
302
100
AcDbEntity
  8
0
100
AcDbBlockEnd
  0
BLOCK
  5
314
330
313
100
AcDbEntity
  8
0
100
AcDbBlockBegin
  2
BLKF056
 70
     0
 71
     0
 10
0.0
 20
0.0
 30
0.0
  3
BLKF056
  1

  0
LINE
  5
317
330
313
100
AcDbEntity
  8
GR1-1
  6
CONTINUOUS
 62
     2
100
AcDbLine
 10
830.860668
 20
139.115116
 30
0.0
 11
831.22699
 21
139.84776
 31
0.0
  0
LINE
  5
318
330
313
100
AcDbEntity
  8
GR1-1
  6
CONTINUOUS
 62
     2
100
AcDbLine
 10
831.128996
 20
138.980952
 30
0.0
 11
831.495318
 21
139.713596
 31
0.0
  0
LINE
  5
319
330
313
100
AcDbEntity
  8
GR1-1
  6
CONTINUOUS
 62
     2
100
AcDbLine
 10
830.261009
 20
139.65993
 30
0.0
 11
829.563356
 21
140.008757
 31
0.0
  0
LINE
  5
31A
330
313
100
AcDbEntity
  8
GR1-1
  6
CONTINUOUS
 62
     2
100
AcDbLine
 10
831.924643
 20
138.828113
 30
0.0
 11
832.622297
 21
138.479286
 31
0.0
  0
TEXT
  5
31B
330
313
100
AcDbEntity
  8
GR1-1
  6
CONTINUOUS
 62
     4
100
AcDbText
 10
831.65
 20
139.455156
 30
0.0
 40
1.5
  1
15
 50
333.434937
 41
0.7
  7
FX_VECTOR
 72
     5
 11
833.528297
 21
138.516007
 31
0.0
100
AcDbText
  0
LINE
  5
31C
330
313
100
AcDbEntity
  8
GR1-1
  6
CONTINUOUS
 62
     2
100
AcDbLine
 10
830.319147
 20
139.776205
 30
0.0
 11
830.202871
 21
139.543654
 31
0.0
  0
LINE
  5
31D
330
313
100
AcDbEntity
  8
GR1-1
  6
CONTINUOUS
 62
     2
100
AcDbLine
 10
830.202871
 20
139.543654
 30
0.0
 11
830.958662
 21
139.311103
 31
0.0
  0
LINE
  5
31E
330
313
100
AcDbEntity
  8
GR1-1
  6
CONTINUOUS
 62
     2
100
AcDbLine
 10
830.958662
 20
139.311103
 30
0.0
 11
830.319147
 21
139.776205
 31
0.0
  0
LINE
  5
31F
330
313
100
AcDbEntity
  8
GR1-1
  6
CONTINUOUS
 62
     2
100
AcDbLine
 10
831.982781
 20
138.944388
 30
0.0
 11
831.866506
 21
138.711837
 31
0.0
  0
LINE
  5
320
330
313
100
AcDbEntity
  8
GR1-1
  6
CONTINUOUS
 62
     2
100
AcDbLine
 10
831.866506
 20
138.711837
 30
0.0
 11
831.22699
 21
139.176939
 31
0.0
  0
LINE
  5
321
330
313
100
AcDbEntity
  8
GR1-1
  6
CONTINUOUS
 62
     2
100
AcDbLine
 10
831.22699
 20
139.176939
 30
0.0
 11
831.982781
 21
138.944388
 31
0.0
  0
ENDBLK
  5
315
330
313
100
AcDbEntity
  8
0
100
AcDbBlockEnd
  0
BLOCK
  5
323
330
322
100
AcDbEntity
  8
0
100
AcDbBlockBegin
  2
BLKF057
 70
     0
 71
     0
 10
0.0
 20
0.0
 30
0.0
  3
BLKF057
  1

  0
LINE
  5
326
330
322
100
AcDbEntity
  8
GR1-1
  6
CONTINUOUS
 62
     2
100
AcDbLine
 10
829.742635
 20
134.866587
 30
0.0
 11
833.396946
 21
133.039432
 31
0.0
  0
LINE
  5
327
330
322
100
AcDbEntity
  8
GR1-1
  6
CONTINUOUS
 62
     2
100
AcDbLine
 10
831.263161
 20
137.907639
 30
0.0
 11
834.917472
 21
136.080484
 31
0.0
  0
LINE
  5
328
330
322
100
AcDbEntity
  8
GR1-1
  6
CONTINUOUS
 62
     2
100
AcDbLine
 10
833.209116
 20
134.005413
 30
0.0
 11
834.031989
 21
135.651159
 31
0.0
  0
TEXT
  5
329
330
322
100
AcDbEntity
  8
GR1-1
  6
CONTINUOUS
 62
     4
100
AcDbText
 10
832.230859
 20
133.812207
 30
0.0
 40
1.5
  1
170
 50
63.434952
 41
0.7
  7
FX_VECTOR
 72
     5
 11
833.639582
 21
136.629653
 31
0.0
100
AcDbText
  0
LINE
  5
32A
330
322
100
AcDbEntity
  8
GR1-1
  6
CONTINUOUS
 62
     2
100
AcDbLine
 10
833.09284
 20
134.063551
 30
0.0
 11
833.325392
 21
133.947275
 31
0.0
  0
LINE
  5
32B
330
322
100
AcDbEntity
  8
GR1-1
  6
CONTINUOUS
 62
     2
100
AcDbLine
 10
833.325392
 20
133.947275
 30
0.0
 11
832.860289
 21
133.30776
 31
0.0
  0
LINE
  5
32C
330
322
100
AcDbEntity
  8
GR1-1
  6
CONTINUOUS
 62
     2
100
AcDbLine
 10
832.860289
 20
133.30776
 30
0.0
 11
833.09284
 21
134.063551
 31
0.0
  0
LINE
  5
32D
330
322
100
AcDbEntity
  8
GR1-1
  6
CONTINUOUS
 62
     2
100
AcDbLine
 10
833.915713
 20
135.709297
 30
0.0
 11
834.148264
 21
135.593021
 31
0.0
  0
LINE
  5
32E
330
322
100
AcDbEntity
  8
GR1-1
  6
CONTINUOUS
 62
     2
100
AcDbLine
 10
834.148264
 20
135.593021
 30
0.0
 11
834.380815
 21
136.348812
 31
0.0
  0
LINE
  5
32F
330
322
100
AcDbEntity
  8
GR1-1
  6
CONTINUOUS
 62
     2
100
AcDbLine
 10
834.380815
 20
136.348812
 30
0.0
 11
833.915713
 21
135.709297
 31
0.0
  0
ENDBLK
  5
324
330
322
100
AcDbEntity
  8
0
100
AcDbBlockEnd
  0
BLOCK
  5
331
330
330
100
AcDbEntity
  8
0
100
AcDbBlockBegin
  2
BLKF058
 70
     0
 71
     0
 10
0.0
 20
0.0
 30
0.0
  3
BLKF058
  1

  0
LINE
  5
334
330
330
100
AcDbEntity
  8
GR1-1
  6
CONTINUOUS
 62
     2
100
AcDbLine
 10
828.535158
 20
131.780813
 30
0.0
 11
835.77858
 21
128.159102
 31
0.0
  0
LINE
  5
335
330
330
100
AcDbEntity
  8
GR1-1
  6
CONTINUOUS
 62
     2
100
AcDbLine
 10
830.771226
 20
136.252949
 30
0.0
 11
838.014648
 21
132.631238
 31
0.0
  0
LINE
  5
336
330
330
100
AcDbEntity
  8
GR1-1
  6
CONTINUOUS
 62
     2
100
AcDbLine
 10
835.59075
 20
129.125083
 30
0.0
 11
837.129165
 21
132.201913
 31
0.0
  0
LINE
  5
337
330
330
100
AcDbEntity
  8
GR1-1
  6
CONTINUOUS
 62
     2
100
AcDbLine
 10
835.474474
 20
129.183221
 30
0.0
 11
835.707025
 21
129.066946
 31
0.0
  0
LINE
  5
338
330
330
100
AcDbEntity
  8
GR1-1
  6
CONTINUOUS
 62
     2
100
AcDbLine
 10
835.707025
 20
129.066946
 30
0.0
 11
835.241923
 21
128.42743
 31
0.0
  0
LINE
  5
339
330
330
100
AcDbEntity
  8
GR1-1
  6
CONTINUOUS
 62
     2
100
AcDbLine
 10
835.241923
 20
128.42743
 30
0.0
 11
835.474474
 21
129.183221
 31
0.0
  0
LINE
  5
33A
330
330
100
AcDbEntity
  8
GR1-1
  6
CONTINUOUS
 62
     2
100
AcDbLine
 10
837.012889
 20
132.260051
 30
0.0
 11
837.24544
 21
132.143775
 31
0.0
  0
LINE
  5
33B
330
330
100
AcDbEntity
  8
GR1-1
  6
CONTINUOUS
 62
     2
100
AcDbLine
 10
837.24544
 20
132.143775
 30
0.0
 11
837.477991
 21
132.899566
 31
0.0
  0
LINE
  5
33C
330
330
100
AcDbEntity
  8
GR1-1
  6
CONTINUOUS
 62
     2
100
AcDbLine
 10
837.477991
 20
132.899566
 30
0.0
 11
837.012889
 21
132.260051
 31
0.0
  0
TEXT
  5
33D
330
330
100
AcDbEntity
  8
GR1-1
  6
CONTINUOUS
 62
     4
100
AcDbText
 10
835.118906
 20
129.523105
 30
0.0
 40
1.5
  1
250
 50
63.434948
 41
0.7
  7
FX_VECTOR
 72
     5
 11
836.527629
 21
132.340551
 31
0.0
100
AcDbText
  0
ENDBLK
  5
332
330
330
100
AcDbEntity
  8
0
100
AcDbBlockEnd
  0
BLOCK
  5
344
330
343
100
AcDbEntity
  8
0
100
AcDbBlockBegin
  2
BLKF059
 70
     0
 71
     0
 10
0.0
 20
0.0
 30
0.0
  3
BLKF059
  1

  0
LINE
  5
347
330
343
100
AcDbEntity
  8
GR1-1
  6
CONTINUOUS
 62
     2
100
AcDbLine
 10
795.195384
 20
136.655441
 30
0.0
 11
789.944178
 21
139.281044
 31
0.0
  0
LINE
  5
348
330
343
100
AcDbEntity
  8
GR1-1
  6
CONTINUOUS
 62
     2
100
AcDbLine
 10
793.205284
 20
132.67524
 30
0.0
 11
787.954077
 21
135.300843
 31
0.0
  0
LINE
  5
349
330
343
100
AcDbEntity
  8
GR1-1
  6
CONTINUOUS
 62
     2
100
AcDbLine
 10
790.132008
 20
138.315063
 30
0.0
 11
788.83956
 21
135.730168
 31
0.0
  0
TEXT
  5
34A
330
343
100
AcDbEntity
  8
GR1-1
  6
CONTINUOUS
 62
     4
100
AcDbText
 10
787.664219
 20
135.054258
 30
0.0
 40
1.5
  1
222.5
 50
63.434948
 41
0.7
  7
FX_VECTOR
 72
     5
 11
790.01209
 21
139.750001
 31
0.0
100
AcDbText
  0
LINE
  5
34B
330
343
100
AcDbEntity
  8
GR1-1
  6
CONTINUOUS
 62
     2
100
AcDbLine
 10
790.015732
 20
138.373201
 30
0.0
 11
790.248283
 21
138.256925
 31
0.0
  0
LINE
  5
34C
330
343
100
AcDbEntity
  8
GR1-1
  6
CONTINUOUS
 62
     2
100
AcDbLine
 10
790.248283
 20
138.256925
 30
0.0
 11
790.480834
 21
139.012716
 31
0.0
  0
LINE
  5
34D
330
343
100
AcDbEntity
  8
GR1-1
  6
CONTINUOUS
 62
     2
100
AcDbLine
 10
790.480834
 20
139.012716
 30
0.0
 11
790.015732
 21
138.373201
 31
0.0
  0
LINE
  5
34E
330
343
100
AcDbEntity
  8
GR1-1
  6
CONTINUOUS
 62
     2
100
AcDbLine
 10
788.723285
 20
135.788306
 30
0.0
 11
788.955836
 21
135.672031
 31
0.0
  0
LINE
  5
34F
330
343
100
AcDbEntity
  8
GR1-1
  6
CONTINUOUS
 62
     2
100
AcDbLine
 10
788.955836
 20
135.672031
 30
0.0
 11
788.490734
 21
135.032515
 31
0.0
  0
LINE
  5
350
330
343
100
AcDbEntity
  8
GR1-1
  6
CONTINUOUS
 62
     2
100
AcDbLine
 10
788.490734
 20
135.032515
 30
0.0
 11
788.723285
 21
135.788306
 31
0.0
  0
ENDBLK
  5
345
330
343
100
AcDbEntity
  8
0
100
AcDbBlockEnd
  0
BLOCK
  5
352
330
351
100
AcDbEntity
  8
0
100
AcDbBlockBegin
  2
BLKF060
 70
     0
 71
     0
 10
0.0
 20
0.0
 30
0.0
  3
BLKF060
  1

  0
LINE
  5
355
330
351
100
AcDbEntity
  8
GR1-1
  6
CONTINUOUS
 62
     2
100
AcDbLine
 10
795.955647
 20
138.175967
 30
0.0
 11
793.504637
 21
139.401473
 31
0.0
  0
LINE
  5
356
330
351
100
AcDbEntity
  8
GR1-1
  6
CONTINUOUS
 62
     2
100
AcDbLine
 10
794.435121
 20
135.134915
 30
0.0
 11
791.984111
 21
136.36042
 31
0.0
  0
LINE
  5
357
330
351
100
AcDbEntity
  8
GR1-1
  6
CONTINUOUS
 62
     2
100
AcDbLine
 10
793.692467
 20
138.435491
 30
0.0
 11
792.869594
 21
136.789745
 31
0.0
  0
TEXT
  5
358
330
351
100
AcDbEntity
  8
GR1-1
  6
CONTINUOUS
 62
     4
100
AcDbText
 10
791.984297
 20
136.486582
 30
0.0
 40
1.5
  1
170
 50
63.434948
 41
0.7
  7
FX_VECTOR
 72
     5
 11
793.39302
 21
139.304028
 31
0.0
100
AcDbText
  0
LINE
  5
359
330
351
100
AcDbEntity
  8
GR1-1
  6
CONTINUOUS
 62
     2
100
AcDbLine
 10
793.576191
 20
138.493629
 30
0.0
 11
793.808742
 21
138.377353
 31
0.0
  0
LINE
  5
35A
330
351
100
AcDbEntity
  8
GR1-1
  6
CONTINUOUS
 62
     2
100
AcDbLine
 10
793.808742
 20
138.377353
 30
0.0
 11
794.041293
 21
139.133144
 31
0.0
  0
LINE
  5
35B
330
351
100
AcDbEntity
  8
GR1-1
  6
CONTINUOUS
 62
     2
100
AcDbLine
 10
794.041293
 20
139.133144
 30
0.0
 11
793.576191
 21
138.493629
 31
0.0
  0
LINE
  5
35C
330
351
100
AcDbEntity
  8
GR1-1
  6
CONTINUOUS
 62
     2
100
AcDbLine
 10
792.753318
 20
136.847883
 30
0.0
 11
792.985869
 21
136.731607
 31
0.0
  0
LINE
  5
35D
330
351
100
AcDbEntity
  8
GR1-1
  6
CONTINUOUS
 62
     2
100
AcDbLine
 10
792.985869
 20
136.731607
 30
0.0
 11
792.520767
 21
136.092092
 31
0.0
  0
LINE
  5
35E
330
351
100
AcDbEntity
  8
GR1-1
  6
CONTINUOUS
 62
     2
100
AcDbLine
 10
792.520767
 20
136.092092
 30
0.0
 11
792.753318
 21
136.847883
 31
0.0
  0
ENDBLK
  5
353
330
351
100
AcDbEntity
  8
0
100
AcDbBlockEnd
  0
BLOCK
  5
360
330
35F
100
AcDbEntity
  8
0
100
AcDbBlockBegin
  2
BLKF061
 70
     0
 71
     0
 10
0.0
 20
0.0
 30
0.0
  3
BLKF061
  1

  0
LINE
  5
363
330
35F
100
AcDbEntity
  8
GR1-1
  6
CONTINUOUS
 62
     2
100
AcDbLine
 10
793.384169
 20
132.585797
 30
0.0
 11
784.978241
 21
136.788762
 31
0.0
  0
LINE
  5
364
330
35F
100
AcDbEntity
  8
GR1-1
  6
CONTINUOUS
 62
     2
100
AcDbLine
 10
800.539587
 20
146.896632
 30
0.0
 11
792.133658
 21
151.099597
 31
0.0
  0
LINE
  5
365
330
35F
100
AcDbEntity
  8
GR1-1
  6
CONTINUOUS
 62
     2
100
AcDbLine
 10
785.863723
 20
137.218087
 30
0.0
 11
792.321488
 21
150.133615
 31
0.0
  0
LINE
  5
366
330
35F
100
AcDbEntity
  8
GR1-1
  6
CONTINUOUS
 62
     2
100
AcDbLine
 10
785.747448
 20
137.276225
 30
0.0
 11
785.979999
 21
137.159949
 31
0.0
  0
LINE
  5
367
330
35F
100
AcDbEntity
  8
GR1-1
  6
CONTINUOUS
 62
     2
100
AcDbLine
 10
785.979999
 20
137.159949
 30
0.0
 11
785.514897
 21
136.520434
 31
0.0
  0
LINE
  5
368
330
35F
100
AcDbEntity
  8
GR1-1
  6
CONTINUOUS
 62
     2
100
AcDbLine
 10
785.514897
 20
136.520434
 30
0.0
 11
785.747448
 21
137.276225
 31
0.0
  0
LINE
  5
369
330
35F
100
AcDbEntity
  8
GR1-1
  6
CONTINUOUS
 62
     2
100
AcDbLine
 10
792.205212
 20
150.191753
 30
0.0
 11
792.437763
 21
150.075478
 31
0.0
  0
LINE
  5
36A
330
35F
100
AcDbEntity
  8
GR1-1
  6
CONTINUOUS
 62
     2
100
AcDbLine
 10
792.437763
 20
150.075478
 30
0.0
 11
792.670314
 21
150.831269
 31
0.0
  0
LINE
  5
36B
330
35F
100
AcDbEntity
  8
GR1-1
  6
CONTINUOUS
 62
     2
100
AcDbLine
 10
792.670314
 20
150.831269
 30
0.0
 11
792.205212
 21
150.191753
 31
0.0
  0
TEXT
  5
36C
330
35F
100
AcDbEntity
  8
GR1-1
  6
CONTINUOUS
 62
     4
100
AcDbText
 10
787.851563
 20
142.535449
 30
0.0
 40
1.5
  1
800
 50
63.434948
 41
0.7
  7
FX_VECTOR
 72
     5
 11
789.260285
 21
145.352895
 31
0.0
100
AcDbText
  0
ENDBLK
  5
361
330
35F
100
AcDbEntity
  8
0
100
AcDbBlockEnd
  0
BLOCK
  5
3C3
330
3C2
100
AcDbEntity
  8
0
100
AcDbBlockBegin
  2
BLKF062
 70
     0
 71
     0
 10
0.0
 20
0.0
 30
0.0
  3
BLKF062
  1

  0
LINE
  5
3C6
330
3C2
100
AcDbEntity
  8
GR1-1
  6
CONTINUOUS
 62
     2
100
AcDbLine
 10
710.758918
 20
147.39414
 30
0.0
 11
710.758918
 21
149.060389
 31
0.0
  0
LINE
  5
3C7
330
3C2
100
AcDbEntity
  8
GR1-1
  6
CONTINUOUS
 62
     2
100
AcDbLine
 10
708.758918
 20
145.828726
 30
0.0
 11
708.758918
 21
149.060389
 31
0.0
  0
LINE
  5
3C8
330
3C2
100
AcDbEntity
  8
GR1-1
  6
CONTINUOUS
 62
     2
100
AcDbLine
 10
711.538918
 20
148.460389
 30
0.0
 11
712.318918
 21
148.460389
 31
0.0
  0
LINE
  5
3C9
330
3C2
100
AcDbEntity
  8
GR1-1
  6
CONTINUOUS
 62
     2
100
AcDbLine
 10
707.978918
 20
148.460389
 30
0.0
 11
707.198918
 21
148.460389
 31
0.0
  0
TEXT
  5
3CA
330
3C2
100
AcDbEntity
  8
GR1-1
  6
CONTINUOUS
 62
     4
100
AcDbText
 10
708.183906
 20
149.960391
 30
0.0
 40
1.5
  1
100
 41
0.7
  7
FX_VECTOR
 72
     5
 11
711.333906
 21
149.960391
 31
0.0
100
AcDbText
  0
LINE
  5
3CB
330
3C2
100
AcDbEntity
  8
GR1-1
  6
CONTINUOUS
 62
     2
100
AcDbLine
 10
711.538918
 20
148.590389
 30
0.0
 11
711.538918
 21
148.330389
 31
0.0
  0
LINE
  5
3CC
330
3C2
100
AcDbEntity
  8
GR1-1
  6
CONTINUOUS
 62
     2
100
AcDbLine
 10
711.538918
 20
148.330389
 30
0.0
 11
710.758918
 21
148.460389
 31
0.0
  0
LINE
  5
3CD
330
3C2
100
AcDbEntity
  8
GR1-1
  6
CONTINUOUS
 62
     2
100
AcDbLine
 10
710.758918
 20
148.460389
 30
0.0
 11
711.538918
 21
148.590389
 31
0.0
  0
LINE
  5
3CE
330
3C2
100
AcDbEntity
  8
GR1-1
  6
CONTINUOUS
 62
     2
100
AcDbLine
 10
707.978918
 20
148.590389
 30
0.0
 11
707.978918
 21
148.330389
 31
0.0
  0
LINE
  5
3CF
330
3C2
100
AcDbEntity
  8
GR1-1
  6
CONTINUOUS
 62
     2
100
AcDbLine
 10
707.978918
 20
148.330389
 30
0.0
 11
708.758918
 21
148.460389
 31
0.0
  0
LINE
  5
3D0
330
3C2
100
AcDbEntity
  8
GR1-1
  6
CONTINUOUS
 62
     2
100
AcDbLine
 10
708.758918
 20
148.460389
 30
0.0
 11
707.978918
 21
148.590389
 31
0.0
  0
ENDBLK
  5
3C4
330
3C2
100
AcDbEntity
  8
0
100
AcDbBlockEnd
  0
BLOCK
  5
3D2
330
3D1
100
AcDbEntity
  8
0
100
AcDbBlockBegin
  2
BLKF063
 70
     0
 71
     0
 10
0.0
 20
0.0
 30
0.0
  3
BLKF063
  1

  0
LINE
  5
3D5
330
3D1
100
AcDbEntity
  8
GR1-1
  6
CONTINUOUS
 62
     2
100
AcDbLine
 10
715.914336
 20
132.754969
 30
0.0
 11
715.914336
 21
128.336886
 31
0.0
  0
LINE
  5
3D6
330
3D1
100
AcDbEntity
  8
GR1-1
  6
CONTINUOUS
 62
     2
100
AcDbLine
 10
717.914336
 20
131.283305
 30
0.0
 11
717.914336
 21
128.336886
 31
0.0
  0
LINE
  5
3D7
330
3D1
100
AcDbEntity
  8
GR1-1
  6
CONTINUOUS
 62
     2
100
AcDbLine
 10
715.134336
 20
128.936886
 30
0.0
 11
714.354336
 21
128.936886
 31
0.0
  0
LINE
  5
3D8
330
3D1
100
AcDbEntity
  8
GR1-1
  6
CONTINUOUS
 62
     2
100
AcDbLine
 10
718.694336
 20
128.936886
 30
0.0
 11
719.474336
 21
128.936886
 31
0.0
  0
TEXT
  5
3D9
330
3D1
100
AcDbEntity
  8
GR1-1
  6
CONTINUOUS
 62
     4
100
AcDbText
 10
715.339297
 20
129.421309
 30
0.0
 40
1.5
  1
100
 41
0.7
  7
FX_VECTOR
 72
     5
 11
718.489297
 21
129.421309
 31
0.0
100
AcDbText
  0
LINE
  5
3DA
330
3D1
100
AcDbEntity
  8
GR1-1
  6
CONTINUOUS
 62
     2
100
AcDbLine
 10
715.134336
 20
129.066886
 30
0.0
 11
715.134336
 21
128.806886
 31
0.0
  0
LINE
  5
3DB
330
3D1
100
AcDbEntity
  8
GR1-1
  6
CONTINUOUS
 62
     2
100
AcDbLine
 10
715.134336
 20
128.806886
 30
0.0
 11
715.914336
 21
128.936886
 31
0.0
  0
LINE
  5
3DC
330
3D1
100
AcDbEntity
  8
GR1-1
  6
CONTINUOUS
 62
     2
100
AcDbLine
 10
715.914336
 20
128.936886
 30
0.0
 11
715.134336
 21
129.066886
 31
0.0
  0
LINE
  5
3DD
330
3D1
100
AcDbEntity
  8
GR1-1
  6
CONTINUOUS
 62
     2
100
AcDbLine
 10
718.694336
 20
129.066886
 30
0.0
 11
718.694336
 21
128.806886
 31
0.0
  0
LINE
  5
3DE
330
3D1
100
AcDbEntity
  8
GR1-1
  6
CONTINUOUS
 62
     2
100
AcDbLine
 10
718.694336
 20
128.806886
 30
0.0
 11
717.914336
 21
128.936886
 31
0.0
  0
LINE
  5
3DF
330
3D1
100
AcDbEntity
  8
GR1-1
  6
CONTINUOUS
 62
     2
100
AcDbLine
 10
717.914336
 20
128.936886
 30
0.0
 11
718.694336
 21
129.066886
 31
0.0
  0
ENDBLK
  5
3D3
330
3D1
100
AcDbEntity
  8
0
100
AcDbBlockEnd
  0
BLOCK
  5
3E1
330
3E0
100
AcDbEntity
  8
0
100
AcDbBlockBegin
  2
BLKF064
 70
     0
 71
     0
 10
0.0
 20
0.0
 30
0.0
  3
BLKF064
  1

  0
LINE
  5
3E4
330
3E0
100
AcDbEntity
  8
GR1-1
  6
CONTINUOUS
 62
     2
100
AcDbLine
 10
717.914336
 20
131.283305
 30
0.0
 11
717.914336
 21
121.943158
 31
0.0
  0
LINE
  5
3E5
330
3E0
100
AcDbEntity
  8
GR1-1
  6
CONTINUOUS
 62
     2
100
AcDbLine
 10
712.514336
 20
131.283305
 30
0.0
 11
712.514336
 21
121.943158
 31
0.0
  0
LINE
  5
3E6
330
3E0
100
AcDbEntity
  8
GR1-1
  6
CONTINUOUS
 62
     2
100
AcDbLine
 10
717.134336
 20
122.543158
 30
0.0
 11
713.294336
 21
122.543158
 31
0.0
  0
LINE
  5
3E7
330
3E0
100
AcDbEntity
  8
GR1-1
  6
CONTINUOUS
 62
     2
100
AcDbLine
 10
717.134336
 20
122.673158
 30
0.0
 11
717.134336
 21
122.413158
 31
0.0
  0
LINE
  5
3E8
330
3E0
100
AcDbEntity
  8
GR1-1
  6
CONTINUOUS
 62
     2
100
AcDbLine
 10
717.134336
 20
122.413158
 30
0.0
 11
717.914336
 21
122.543158
 31
0.0
  0
LINE
  5
3E9
330
3E0
100
AcDbEntity
  8
GR1-1
  6
CONTINUOUS
 62
     2
100
AcDbLine
 10
717.914336
 20
122.543158
 30
0.0
 11
717.134336
 21
122.673158
 31
0.0
  0
LINE
  5
3EA
330
3E0
100
AcDbEntity
  8
GR1-1
  6
CONTINUOUS
 62
     2
100
AcDbLine
 10
713.294336
 20
122.673158
 30
0.0
 11
713.294336
 21
122.413158
 31
0.0
  0
LINE
  5
3EB
330
3E0
100
AcDbEntity
  8
GR1-1
  6
CONTINUOUS
 62
     2
100
AcDbLine
 10
713.294336
 20
122.413158
 30
0.0
 11
712.514336
 21
122.543158
 31
0.0
  0
LINE
  5
3EC
330
3E0
100
AcDbEntity
  8
GR1-1
  6
CONTINUOUS
 62
     2
100
AcDbLine
 10
712.514336
 20
122.543158
 30
0.0
 11
713.294336
 21
122.673158
 31
0.0
  0
TEXT
  5
3ED
330
3E0
100
AcDbEntity
  8
GR1-1
  6
CONTINUOUS
 62
     4
100
AcDbText
 10
713.639297
 20
123.143145
 30
0.0
 40
1.5
  1
270
 41
0.7
  7
FX_VECTOR
 72
     5
 11
716.789297
 21
123.143145
 31
0.0
100
AcDbText
  0
ENDBLK
  5
3E2
330
3E0
100
AcDbEntity
  8
0
100
AcDbBlockEnd
  0
BLOCK
  5
3EF
330
3EE
100
AcDbEntity
  8
0
100
AcDbBlockBegin
  2
BLKF065
 70
     0
 71
     0
 10
0.0
 20
0.0
 30
0.0
  3
BLKF065
  1

  0
LINE
  5
3F2
330
3EE
100
AcDbEntity
  8
GR1-1
  6
CONTINUOUS
 62
     2
100
AcDbLine
 10
688.573316
 20
131.283305
 30
0.0
 11
688.573316
 21
121.943158
 31
0.0
  0
LINE
  5
3F3
330
3EE
100
AcDbEntity
  8
GR1-1
  6
CONTINUOUS
 62
     2
100
AcDbLine
 10
684.373316
 20
131.283305
 30
0.0
 11
684.373316
 21
121.943158
 31
0.0
  0
LINE
  5
3F4
330
3EE
100
AcDbEntity
  8
GR1-1
  6
CONTINUOUS
 62
     2
100
AcDbLine
 10
687.793316
 20
122.543158
 30
0.0
 11
685.153316
 21
122.543158
 31
0.0
  0
LINE
  5
3F5
330
3EE
100
AcDbEntity
  8
GR1-1
  6
CONTINUOUS
 62
     2
100
AcDbLine
 10
687.793316
 20
122.673158
 30
0.0
 11
687.793316
 21
122.413158
 31
0.0
  0
LINE
  5
3F6
330
3EE
100
AcDbEntity
  8
GR1-1
  6
CONTINUOUS
 62
     2
100
AcDbLine
 10
687.793316
 20
122.413158
 30
0.0
 11
688.573316
 21
122.543158
 31
0.0
  0
LINE
  5
3F7
330
3EE
100
AcDbEntity
  8
GR1-1
  6
CONTINUOUS
 62
     2
100
AcDbLine
 10
688.573316
 20
122.543158
 30
0.0
 11
687.793316
 21
122.673158
 31
0.0
  0
LINE
  5
3F8
330
3EE
100
AcDbEntity
  8
GR1-1
  6
CONTINUOUS
 62
     2
100
AcDbLine
 10
685.153316
 20
122.673158
 30
0.0
 11
685.153316
 21
122.413158
 31
0.0
  0
LINE
  5
3F9
330
3EE
100
AcDbEntity
  8
GR1-1
  6
CONTINUOUS
 62
     2
100
AcDbLine
 10
685.153316
 20
122.413158
 30
0.0
 11
684.373316
 21
122.543158
 31
0.0
  0
LINE
  5
3FA
330
3EE
100
AcDbEntity
  8
GR1-1
  6
CONTINUOUS
 62
     2
100
AcDbLine
 10
684.373316
 20
122.543158
 30
0.0
 11
685.153316
 21
122.673158
 31
0.0
  0
TEXT
  5
3FB
330
3EE
100
AcDbEntity
  8
GR1-1
  6
CONTINUOUS
 62
     4
100
AcDbText
 10
684.898281
 20
123.143145
 30
0.0
 40
1.5
  1
210
 41
0.7
  7
FX_VECTOR
 72
     5
 11
688.048281
 21
123.143145
 31
0.0
100
AcDbText
  0
ENDBLK
  5
3F0
330
3EE
100
AcDbEntity
  8
0
100
AcDbBlockEnd
  0
BLOCK
  5
3FD
330
3FC
100
AcDbEntity
  8
0
100
AcDbBlockBegin
  2
BLKF066
 70
     0
 71
     0
 10
0.0
 20
0.0
 30
0.0
  3
BLKF066
  1

  0
LINE
  5
400
330
3FC
100
AcDbEntity
  8
GR1-1
  6
CONTINUOUS
 62
     2
100
AcDbLine
 10
684.665866
 20
132.610321
 30
0.0
 11
691.424766
 21
138.339946
 31
0.0
  0
INSERT
  5
401
330
3FC
100
AcDbEntity
  8
GR1-1
  6
CONTINUOUS
 62
     2
100
AcDbBlockReference
  2
FXTIP_ARROW_S
 10
684.665866
 20
132.610321
 30
0.0
 41
2.0
 42
2.0
 50
220.288466
  0
LINE
  5
402
330
3FC
100
AcDbEntity
  8
GR1-1
  6
CONTINUOUS
 62
     2
100
AcDbLine
 10
691.424766
 20
138.339946
 30
0.0
 11
691.1056
 21
138.339946
 31
0.0
  0
LINE
  5
403
330
3FC
100
AcDbEntity
  8
GR1-1
  6
CONTINUOUS
 62
     2
100
AcDbLine
 10
691.1056
 20
138.339946
 30
0.0
 11
699.1656
 21
138.339946
 31
0.0
  0
TEXT
  5
404
330
3FC
100
AcDbEntity
  8
GR1-1
  6
CONTINUOUS
 62
     4
100
AcDbText
 10
692.485547
 20
138.939941
 30
0.0
 40
1.5
  1
バール挿入孔
 41
0.7
  7
FX_VECTOR
 72
     5
 11
698.785547
 21
138.939941
 31
0.0
100
AcDbText
  0
ENDBLK
  5
3FE
330
3FC
100
AcDbEntity
  8
0
100
AcDbBlockEnd
  0
BLOCK
  5
419
330
418
100
AcDbEntity
  8
0
100
AcDbBlockBegin
  2
BLKF067
 70
     0
 71
     0
 10
0.0
 20
0.0
 30
0.0
  3
BLKF067
  1

  0
LINE
  5
41C
330
418
100
AcDbEntity
  8
GR1-1
  6
CONTINUOUS
 62
     2
100
AcDbLine
 10
753.710901
 20
88.605105
 30
0.0
 11
753.710901
 21
91.872095
 31
0.0
  0
LINE
  5
41D
330
418
100
AcDbEntity
  8
GR1-1
  6
CONTINUOUS
 62
     2
100
AcDbLine
 10
752.710901
 20
88.605105
 30
0.0
 11
752.710901
 21
91.872095
 31
0.0
  0
LINE
  5
41E
330
418
100
AcDbEntity
  8
GR1-1
  6
CONTINUOUS
 62
     2
100
AcDbLine
 10
754.490901
 20
91.272095
 30
0.0
 11
755.270901
 21
91.272095
 31
0.0
  0
LINE
  5
41F
330
418
100
AcDbEntity
  8
GR1-1
  6
CONTINUOUS
 62
     2
100
AcDbLine
 10
751.930901
 20
91.272095
 30
0.0
 11
751.150901
 21
91.272095
 31
0.0
  0
TEXT
  5
420
330
418
100
AcDbEntity
  8
GR1-1
  6
CONTINUOUS
 62
     4
100
AcDbText
 10
750.369922
 20
91.737168
 30
0.0
 40
1.5
  1
50
 41
0.7
  7
FX_VECTOR
 72
     5
 11
752.469922
 21
91.737168
 31
0.0
100
AcDbText
  0
LINE
  5
421
330
418
100
AcDbEntity
  8
GR1-1
  6
CONTINUOUS
 62
     2
100
AcDbLine
 10
754.490901
 20
91.402095
 30
0.0
 11
754.490901
 21
91.142095
 31
0.0
  0
LINE
  5
422
330
418
100
AcDbEntity
  8
GR1-1
  6
CONTINUOUS
 62
     2
100
AcDbLine
 10
754.490901
 20
91.142095
 30
0.0
 11
753.710901
 21
91.272095
 31
0.0
  0
LINE
  5
423
330
418
100
AcDbEntity
  8
GR1-1
  6
CONTINUOUS
 62
     2
100
AcDbLine
 10
753.710901
 20
91.272095
 30
0.0
 11
754.490901
 21
91.402095
 31
0.0
  0
LINE
  5
424
330
418
100
AcDbEntity
  8
GR1-1
  6
CONTINUOUS
 62
     2
100
AcDbLine
 10
751.930901
 20
91.402095
 30
0.0
 11
751.930901
 21
91.142095
 31
0.0
  0
LINE
  5
425
330
418
100
AcDbEntity
  8
GR1-1
  6
CONTINUOUS
 62
     2
100
AcDbLine
 10
751.930901
 20
91.142095
 30
0.0
 11
752.710901
 21
91.272095
 31
0.0
  0
LINE
  5
426
330
418
100
AcDbEntity
  8
GR1-1
  6
CONTINUOUS
 62
     2
100
AcDbLine
 10
752.710901
 20
91.272095
 30
0.0
 11
751.930901
 21
91.402095
 31
0.0
  0
ENDBLK
  5
41A
330
418
100
AcDbEntity
  8
0
100
AcDbBlockEnd
  0
BLOCK
  5
428
330
427
100
AcDbEntity
  8
0
100
AcDbBlockBegin
  2
BLKF068
 70
     0
 71
     0
 10
0.0
 20
0.0
 30
0.0
  3
BLKF068
  1

  0
LINE
  5
42B
330
427
100
AcDbEntity
  8
GR1-1
  6
CONTINUOUS
 62
     2
100
AcDbLine
 10
749.460901
 20
82.825105
 30
0.0
 11
749.460901
 21
76.21319
 31
0.0
  0
LINE
  5
42C
330
427
100
AcDbEntity
  8
GR1-1
  6
CONTINUOUS
 62
     2
100
AcDbLine
 10
745.460901
 20
82.825105
 30
0.0
 11
745.460901
 21
76.21319
 31
0.0
  0
LINE
  5
42D
330
427
100
AcDbEntity
  8
GR1-1
  6
CONTINUOUS
 62
     2
100
AcDbLine
 10
748.680901
 20
76.81319
 30
0.0
 11
746.240901
 21
76.81319
 31
0.0
  0
TEXT
  5
42E
330
427
100
AcDbEntity
  8
GR1-1
  6
CONTINUOUS
 62
     4
100
AcDbText
 10
745.900313
 20
77.453286
 30
0.0
 40
1.5
  1
200
 41
0.7
  7
FX_VECTOR
 72
     5
 11
749.050313
 21
77.453286
 31
0.0
100
AcDbText
  0
LINE
  5
42F
330
427
100
AcDbEntity
  8
GR1-1
  6
CONTINUOUS
 62
     2
100
AcDbLine
 10
748.680901
 20
76.94319
 30
0.0
 11
748.680901
 21
76.68319
 31
0.0
  0
LINE
  5
430
330
427
100
AcDbEntity
  8
GR1-1
  6
CONTINUOUS
 62
     2
100
AcDbLine
 10
748.680901
 20
76.68319
 30
0.0
 11
749.460901
 21
76.81319
 31
0.0
  0
LINE
  5
431
330
427
100
AcDbEntity
  8
GR1-1
  6
CONTINUOUS
 62
     2
100
AcDbLine
 10
749.460901
 20
76.81319
 30
0.0
 11
748.680901
 21
76.94319
 31
0.0
  0
LINE
  5
432
330
427
100
AcDbEntity
  8
GR1-1
  6
CONTINUOUS
 62
     2
100
AcDbLine
 10
746.240901
 20
76.94319
 30
0.0
 11
746.240901
 21
76.68319
 31
0.0
  0
LINE
  5
433
330
427
100
AcDbEntity
  8
GR1-1
  6
CONTINUOUS
 62
     2
100
AcDbLine
 10
746.240901
 20
76.68319
 30
0.0
 11
745.460901
 21
76.81319
 31
0.0
  0
LINE
  5
434
330
427
100
AcDbEntity
  8
GR1-1
  6
CONTINUOUS
 62
     2
100
AcDbLine
 10
745.460901
 20
76.81319
 30
0.0
 11
746.240901
 21
76.94319
 31
0.0
  0
ENDBLK
  5
429
330
427
100
AcDbEntity
  8
0
100
AcDbBlockEnd
  0
BLOCK
  5
436
330
435
100
AcDbEntity
  8
0
100
AcDbBlockBegin
  2
BLKF069
 70
     0
 71
     0
 10
0.0
 20
0.0
 30
0.0
  3
BLKF069
  1

  0
LINE
  5
439
330
435
100
AcDbEntity
  8
GR1-1
  6
CONTINUOUS
 62
     2
100
AcDbLine
 10
745.460901
 20
82.825105
 30
0.0
 11
745.460901
 21
76.21319
 31
0.0
  0
LINE
  5
43A
330
435
100
AcDbEntity
  8
GR1-1
  6
CONTINUOUS
 62
     2
100
AcDbLine
 10
741.210901
 20
82.825105
 30
0.0
 11
741.210901
 21
76.21319
 31
0.0
  0
LINE
  5
43B
330
435
100
AcDbEntity
  8
GR1-1
  6
CONTINUOUS
 62
     2
100
AcDbLine
 10
744.680901
 20
76.81319
 30
0.0
 11
741.990901
 21
76.81319
 31
0.0
  0
TEXT
  5
43C
330
435
100
AcDbEntity
  8
GR1-1
  6
CONTINUOUS
 62
     4
100
AcDbText
 10
740.679375
 20
77.4252
 30
0.0
 40
1.5
  1
212.5
 41
0.7
  7
FX_VECTOR
 72
     5
 11
745.929375
 21
77.4252
 31
0.0
100
AcDbText
  0
LINE
  5
43D
330
435
100
AcDbEntity
  8
GR1-1
  6
CONTINUOUS
 62
     2
100
AcDbLine
 10
744.680901
 20
76.94319
 30
0.0
 11
744.680901
 21
76.68319
 31
0.0
  0
LINE
  5
43E
330
435
100
AcDbEntity
  8
GR1-1
  6
CONTINUOUS
 62
     2
100
AcDbLine
 10
744.680901
 20
76.68319
 30
0.0
 11
745.460901
 21
76.81319
 31
0.0
  0
LINE
  5
43F
330
435
100
AcDbEntity
  8
GR1-1
  6
CONTINUOUS
 62
     2
100
AcDbLine
 10
745.460901
 20
76.81319
 30
0.0
 11
744.680901
 21
76.94319
 31
0.0
  0
LINE
  5
440
330
435
100
AcDbEntity
  8
GR1-1
  6
CONTINUOUS
 62
     2
100
AcDbLine
 10
741.990901
 20
76.94319
 30
0.0
 11
741.990901
 21
76.68319
 31
0.0
  0
LINE
  5
441
330
435
100
AcDbEntity
  8
GR1-1
  6
CONTINUOUS
 62
     2
100
AcDbLine
 10
741.990901
 20
76.68319
 30
0.0
 11
741.210901
 21
76.81319
 31
0.0
  0
LINE
  5
442
330
435
100
AcDbEntity
  8
GR1-1
  6
CONTINUOUS
 62
     2
100
AcDbLine
 10
741.210901
 20
76.81319
 30
0.0
 11
741.990901
 21
76.94319
 31
0.0
  0
ENDBLK
  5
437
330
435
100
AcDbEntity
  8
0
100
AcDbBlockEnd
  0
BLOCK
  5
444
330
443
100
AcDbEntity
  8
0
100
AcDbBlockBegin
  2
BLKF070
 70
     0
 71
     0
 10
0.0
 20
0.0
 30
0.0
  3
BLKF070
  1

  0
LINE
  5
447
330
443
100
AcDbEntity
  8
GR1-1
  6
CONTINUOUS
 62
     2
100
AcDbLine
 10
749.460901
 20
82.825105
 30
0.0
 11
749.460901
 21
76.21319
 31
0.0
  0
LINE
  5
448
330
443
100
AcDbEntity
  8
GR1-1
  6
CONTINUOUS
 62
     2
100
AcDbLine
 10
753.710901
 20
82.825105
 30
0.0
 11
753.710901
 21
76.21319
 31
0.0
  0
LINE
  5
449
330
443
100
AcDbEntity
  8
GR1-1
  6
CONTINUOUS
 62
     2
100
AcDbLine
 10
750.240901
 20
76.81319
 30
0.0
 11
752.930901
 21
76.81319
 31
0.0
  0
TEXT
  5
44A
330
443
100
AcDbEntity
  8
GR1-1
  6
CONTINUOUS
 62
     4
100
AcDbText
 10
748.920156
 20
77.4252
 30
0.0
 40
1.5
  1
212.5
 41
0.7
  7
FX_VECTOR
 72
     5
 11
754.170156
 21
77.4252
 31
0.0
100
AcDbText
  0
LINE
  5
44B
330
443
100
AcDbEntity
  8
GR1-1
  6
CONTINUOUS
 62
     2
100
AcDbLine
 10
750.240901
 20
76.94319
 30
0.0
 11
750.240901
 21
76.68319
 31
0.0
  0
LINE
  5
44C
330
443
100
AcDbEntity
  8
GR1-1
  6
CONTINUOUS
 62
     2
100
AcDbLine
 10
750.240901
 20
76.68319
 30
0.0
 11
749.460901
 21
76.81319
 31
0.0
  0
LINE
  5
44D
330
443
100
AcDbEntity
  8
GR1-1
  6
CONTINUOUS
 62
     2
100
AcDbLine
 10
749.460901
 20
76.81319
 30
0.0
 11
750.240901
 21
76.94319
 31
0.0
  0
LINE
  5
44E
330
443
100
AcDbEntity
  8
GR1-1
  6
CONTINUOUS
 62
     2
100
AcDbLine
 10
752.930901
 20
76.94319
 30
0.0
 11
752.930901
 21
76.68319
 31
0.0
  0
LINE
  5
44F
330
443
100
AcDbEntity
  8
GR1-1
  6
CONTINUOUS
 62
     2
100
AcDbLine
 10
752.930901
 20
76.68319
 30
0.0
 11
753.710901
 21
76.81319
 31
0.0
  0
LINE
  5
450
330
443
100
AcDbEntity
  8
GR1-1
  6
CONTINUOUS
 62
     2
100
AcDbLine
 10
753.710901
 20
76.81319
 30
0.0
 11
752.930901
 21
76.94319
 31
0.0
  0
ENDBLK
  5
445
330
443
100
AcDbEntity
  8
0
100
AcDbBlockEnd
  0
BLOCK
  5
452
330
451
100
AcDbEntity
  8
0
100
AcDbBlockBegin
  2
BLKF071
 70
     0
 71
     0
 10
0.0
 20
0.0
 30
0.0
  3
BLKF071
  1

  0
LINE
  5
455
330
451
100
AcDbEntity
  8
GR1-1
  6
CONTINUOUS
 62
     2
100
AcDbLine
 10
741.210901
 20
82.825105
 30
0.0
 11
741.210901
 21
72.998267
 31
0.0
  0
LINE
  5
456
330
451
100
AcDbEntity
  8
GR1-1
  6
CONTINUOUS
 62
     2
100
AcDbLine
 10
753.710901
 20
82.825105
 30
0.0
 11
753.710901
 21
72.998267
 31
0.0
  0
LINE
  5
457
330
451
100
AcDbEntity
  8
GR1-1
  6
CONTINUOUS
 62
     2
100
AcDbLine
 10
741.990901
 20
73.598267
 30
0.0
 11
752.930901
 21
73.598267
 31
0.0
  0
LINE
  5
458
330
451
100
AcDbEntity
  8
GR1-1
  6
CONTINUOUS
 62
     2
100
AcDbLine
 10
741.990901
 20
73.728267
 30
0.0
 11
741.990901
 21
73.468267
 31
0.0
  0
LINE
  5
459
330
451
100
AcDbEntity
  8
GR1-1
  6
CONTINUOUS
 62
     2
100
AcDbLine
 10
741.990901
 20
73.468267
 30
0.0
 11
741.210901
 21
73.598267
 31
0.0
  0
LINE
  5
45A
330
451
100
AcDbEntity
  8
GR1-1
  6
CONTINUOUS
 62
     2
100
AcDbLine
 10
741.210901
 20
73.598267
 30
0.0
 11
741.990901
 21
73.728267
 31
0.0
  0
LINE
  5
45B
330
451
100
AcDbEntity
  8
GR1-1
  6
CONTINUOUS
 62
     2
100
AcDbLine
 10
752.930901
 20
73.728267
 30
0.0
 11
752.930901
 21
73.468267
 31
0.0
  0
LINE
  5
45C
330
451
100
AcDbEntity
  8
GR1-1
  6
CONTINUOUS
 62
     2
100
AcDbLine
 10
752.930901
 20
73.468267
 30
0.0
 11
753.710901
 21
73.598267
 31
0.0
  0
LINE
  5
45D
330
451
100
AcDbEntity
  8
GR1-1
  6
CONTINUOUS
 62
     2
100
AcDbLine
 10
753.710901
 20
73.598267
 30
0.0
 11
752.930901
 21
73.728267
 31
0.0
  0
TEXT
  5
45E
330
451
100
AcDbEntity
  8
GR1-1
  6
CONTINUOUS
 62
     4
100
AcDbText
 10
745.885859
 20
74.198267
 30
0.0
 40
1.5
  1
625
 41
0.7
  7
FX_VECTOR
 72
     5
 11
749.035859
 21
74.198267
 31
0.0
100
AcDbText
  0
ENDBLK
  5
453
330
451
100
AcDbEntity
  8
0
100
AcDbBlockEnd
  0
BLOCK
  5
464
330
463
100
AcDbEntity
  8
0
100
AcDbBlockBegin
  2
BLKF072
 70
     0
 71
     0
 10
0.0
 20
0.0
 30
0.0
  3
BLKF072
  1

  0
LINE
  5
467
330
463
100
AcDbEntity
  8
GR1-1
  6
CONTINUOUS
 62
     2
100
AcDbLine
 10
834.007882
 20
142.938723
 30
0.0
 11
842.815104
 21
142.938723
 31
0.0
  0
LINE
  5
468
330
463
100
AcDbEntity
  8
GR1-1
  6
CONTINUOUS
 62
     2
100
AcDbLine
 10
835.785591
 20
146.49414
 30
0.0
 11
842.815104
 21
146.49414
 31
0.0
  0
LINE
  5
469
330
463
100
AcDbEntity
  8
GR1-1
  6
CONTINUOUS
 62
     2
100
AcDbLine
 10
842.215104
 20
143.718723
 30
0.0
 11
842.215104
 21
145.71414
 31
0.0
  0
TEXT
  5
46A
330
463
100
AcDbEntity
  8
GR1-1
  6
CONTINUOUS
 62
     4
100
AcDbText
 10
841.567969
 20
142.091426
 30
0.0
 40
1.5
  1
177.8
 50
90.0
 41
0.7
  7
FX_VECTOR
 72
     5
 11
841.567969
 21
147.341426
 31
0.0
100
AcDbText
  0
LINE
  5
46B
330
463
100
AcDbEntity
  8
GR1-1
  6
CONTINUOUS
 62
     2
100
AcDbLine
 10
842.085104
 20
143.718723
 30
0.0
 11
842.345104
 21
143.718723
 31
0.0
  0
LINE
  5
46C
330
463
100
AcDbEntity
  8
GR1-1
  6
CONTINUOUS
 62
     2
100
AcDbLine
 10
842.345104
 20
143.718723
 30
0.0
 11
842.215104
 21
142.938723
 31
0.0
  0
LINE
  5
46D
330
463
100
AcDbEntity
  8
GR1-1
  6
CONTINUOUS
 62
     2
100
AcDbLine
 10
842.215104
 20
142.938723
 30
0.0
 11
842.085104
 21
143.718723
 31
0.0
  0
LINE
  5
46E
330
463
100
AcDbEntity
  8
GR1-1
  6
CONTINUOUS
 62
     2
100
AcDbLine
 10
842.085104
 20
145.71414
 30
0.0
 11
842.345104
 21
145.71414
 31
0.0
  0
LINE
  5
46F
330
463
100
AcDbEntity
  8
GR1-1
  6
CONTINUOUS
 62
     2
100
AcDbLine
 10
842.345104
 20
145.71414
 30
0.0
 11
842.215104
 21
146.49414
 31
0.0
  0
LINE
  5
470
330
463
100
AcDbEntity
  8
GR1-1
  6
CONTINUOUS
 62
     2
100
AcDbLine
 10
842.215104
 20
146.49414
 30
0.0
 11
842.085104
 21
145.71414
 31
0.0
  0
ENDBLK
  5
465
330
463
100
AcDbEntity
  8
0
100
AcDbBlockEnd
  0
BLOCK
  5
472
330
471
100
AcDbEntity
  8
0
100
AcDbBlockBegin
  2
BLKF073
 70
     0
 71
     0
 10
0.0
 20
0.0
 30
0.0
  3
BLKF073
  1

  0
LINE
  5
475
330
471
100
AcDbEntity
  8
GR1-1
  6
CONTINUOUS
 62
     2
100
AcDbLine
 10
833.707882
 20
142.338723
 30
0.0
 11
842.815104
 21
142.338723
 31
0.0
  0
LINE
  5
476
330
471
100
AcDbEntity
  8
GR1-1
  6
CONTINUOUS
 62
     2
100
AcDbLine
 10
834.007882
 20
142.938723
 30
0.0
 11
842.815104
 21
142.938723
 31
0.0
  0
LINE
  5
477
330
471
100
AcDbEntity
  8
GR1-1
  6
CONTINUOUS
 62
     2
100
AcDbLine
 10
842.215104
 20
141.558723
 30
0.0
 11
842.215104
 21
140.778723
 31
0.0
  0
LINE
  5
478
330
471
100
AcDbEntity
  8
GR1-1
  6
CONTINUOUS
 62
     2
100
AcDbLine
 10
842.215104
 20
143.718723
 30
0.0
 11
842.215104
 21
144.498723
 31
0.0
  0
TEXT
  5
479
330
471
100
AcDbEntity
  8
GR1-1
  6
CONTINUOUS
 62
     4
100
AcDbText
 10
844.776172
 20
141.588711
 30
0.0
 40
1.5
  1
30
 50
90.0
 41
0.7
  7
FX_VECTOR
 72
     5
 11
844.776172
 21
143.688711
 31
0.0
100
AcDbText
  0
LINE
  5
47A
330
471
100
AcDbEntity
  8
GR1-1
  6
CONTINUOUS
 62
     2
100
AcDbLine
 10
842.085104
 20
141.558723
 30
0.0
 11
842.345104
 21
141.558723
 31
0.0
  0
LINE
  5
47B
330
471
100
AcDbEntity
  8
GR1-1
  6
CONTINUOUS
 62
     2
100
AcDbLine
 10
842.345104
 20
141.558723
 30
0.0
 11
842.215104
 21
142.338723
 31
0.0
  0
LINE
  5
47C
330
471
100
AcDbEntity
  8
GR1-1
  6
CONTINUOUS
 62
     2
100
AcDbLine
 10
842.215104
 20
142.338723
 30
0.0
 11
842.085104
 21
141.558723
 31
0.0
  0
LINE
  5
47D
330
471
100
AcDbEntity
  8
GR1-1
  6
CONTINUOUS
 62
     2
100
AcDbLine
 10
842.085104
 20
143.718723
 30
0.0
 11
842.345104
 21
143.718723
 31
0.0
  0
LINE
  5
47E
330
471
100
AcDbEntity
  8
GR1-1
  6
CONTINUOUS
 62
     2
100
AcDbLine
 10
842.345104
 20
143.718723
 30
0.0
 11
842.215104
 21
142.938723
 31
0.0
  0
LINE
  5
47F
330
471
100
AcDbEntity
  8
GR1-1
  6
CONTINUOUS
 62
     2
100
AcDbLine
 10
842.215104
 20
142.938723
 30
0.0
 11
842.085104
 21
143.718723
 31
0.0
  0
ENDBLK
  5
473
330
471
100
AcDbEntity
  8
0
100
AcDbBlockEnd
  0
BLOCK
  5
481
330
480
100
AcDbEntity
  8
0
100
AcDbBlockBegin
  2
BLKF074
 70
     0
 71
     0
 10
0.0
 20
0.0
 30
0.0
  3
BLKF074
  1

  0
LINE
  5
484
330
480
100
AcDbEntity
  8
GR1-1
  6
CONTINUOUS
 62
     2
100
AcDbLine
 10
835.785591
 20
146.49414
 30
0.0
 11
848.351911
 21
146.49414
 31
0.0
  0
LINE
  5
485
330
480
100
AcDbEntity
  8
GR1-1
  6
CONTINUOUS
 62
     2
100
AcDbLine
 10
828.630173
 20
132.183305
 30
0.0
 11
848.351911
 21
132.183305
 31
0.0
  0
LINE
  5
486
330
480
100
AcDbEntity
  8
GR1-1
  6
CONTINUOUS
 62
     2
100
AcDbLine
 10
847.751911
 20
145.71414
 30
0.0
 11
847.751911
 21
132.963305
 31
0.0
  0
LINE
  5
487
330
480
100
AcDbEntity
  8
GR1-1
  6
CONTINUOUS
 62
     2
100
AcDbLine
 10
847.621911
 20
145.71414
 30
0.0
 11
847.881911
 21
145.71414
 31
0.0
  0
LINE
  5
488
330
480
100
AcDbEntity
  8
GR1-1
  6
CONTINUOUS
 62
     2
100
AcDbLine
 10
847.881911
 20
145.71414
 30
0.0
 11
847.751911
 21
146.49414
 31
0.0
  0
LINE
  5
489
330
480
100
AcDbEntity
  8
GR1-1
  6
CONTINUOUS
 62
     2
100
AcDbLine
 10
847.751911
 20
146.49414
 30
0.0
 11
847.621911
 21
145.71414
 31
0.0
  0
LINE
  5
48A
330
480
100
AcDbEntity
  8
GR1-1
  6
CONTINUOUS
 62
     2
100
AcDbLine
 10
847.621911
 20
132.963305
 30
0.0
 11
847.881911
 21
132.963305
 31
0.0
  0
LINE
  5
48B
330
480
100
AcDbEntity
  8
GR1-1
  6
CONTINUOUS
 62
     2
100
AcDbLine
 10
847.881911
 20
132.963305
 30
0.0
 11
847.751911
 21
132.183305
 31
0.0
  0
LINE
  5
48C
330
480
100
AcDbEntity
  8
GR1-1
  6
CONTINUOUS
 62
     2
100
AcDbLine
 10
847.751911
 20
132.183305
 30
0.0
 11
847.621911
 21
132.963305
 31
0.0
  0
TEXT
  5
48D
330
480
100
AcDbEntity
  8
GR1-1
  6
CONTINUOUS
 62
     4
100
AcDbText
 10
847.151875
 20
136.713711
 30
0.0
 40
1.5
  1
715.5
 50
90.0
 41
0.7
  7
FX_VECTOR
 72
     5
 11
847.151875
 21
141.963711
 31
0.0
100
AcDbText
  0
ENDBLK
  5
482
330
480
100
AcDbEntity
  8
0
100
AcDbBlockEnd
  0
BLOCK
  5
48F
330
48E
100
AcDbEntity
  8
0
100
AcDbBlockBegin
  2
BLKF075
 70
     0
 71
     0
 10
0.0
 20
0.0
 30
0.0
  3
BLKF075
  1

  0
LINE
  5
492
330
48E
100
AcDbEntity
  8
GR1-1
  6
CONTINUOUS
 62
     2
100
AcDbLine
 10
830.707882
 20
136.338723
 30
0.0
 11
842.815104
 21
136.338723
 31
0.0
  0
LINE
  5
493
330
48E
100
AcDbEntity
  8
GR1-1
  6
CONTINUOUS
 62
     2
100
AcDbLine
 10
833.707882
 20
142.338723
 30
0.0
 11
842.815104
 21
142.338723
 31
0.0
  0
LINE
  5
494
330
48E
100
AcDbEntity
  8
GR1-1
  6
CONTINUOUS
 62
     2
100
AcDbLine
 10
842.215104
 20
137.118723
 30
0.0
 11
842.215104
 21
141.558723
 31
0.0
  0
LINE
  5
495
330
48E
100
AcDbEntity
  8
GR1-1
  6
CONTINUOUS
 62
     2
100
AcDbLine
 10
842.085104
 20
137.118723
 30
0.0
 11
842.345104
 21
137.118723
 31
0.0
  0
LINE
  5
496
330
48E
100
AcDbEntity
  8
GR1-1
  6
CONTINUOUS
 62
     2
100
AcDbLine
 10
842.345104
 20
137.118723
 30
0.0
 11
842.215104
 21
136.338723
 31
0.0
  0
LINE
  5
497
330
48E
100
AcDbEntity
  8
GR1-1
  6
CONTINUOUS
 62
     2
100
AcDbLine
 10
842.215104
 20
136.338723
 30
0.0
 11
842.085104
 21
137.118723
 31
0.0
  0
LINE
  5
498
330
48E
100
AcDbEntity
  8
GR1-1
  6
CONTINUOUS
 62
     2
100
AcDbLine
 10
842.085104
 20
141.558723
 30
0.0
 11
842.345104
 21
141.558723
 31
0.0
  0
LINE
  5
499
330
48E
100
AcDbEntity
  8
GR1-1
  6
CONTINUOUS
 62
     2
100
AcDbLine
 10
842.345104
 20
141.558723
 30
0.0
 11
842.215104
 21
142.338723
 31
0.0
  0
LINE
  5
49A
330
48E
100
AcDbEntity
  8
GR1-1
  6
CONTINUOUS
 62
     2
100
AcDbLine
 10
842.215104
 20
142.338723
 30
0.0
 11
842.085104
 21
141.558723
 31
0.0
  0
TEXT
  5
49B
330
48E
100
AcDbEntity
  8
GR1-1
  6
CONTINUOUS
 62
     4
100
AcDbText
 10
841.615078
 20
137.763711
 30
0.0
 40
1.5
  1
300
 50
90.0
 41
0.7
  7
FX_VECTOR
 72
     5
 11
841.615078
 21
140.913711
 31
0.0
100
AcDbText
  0
ENDBLK
  5
490
330
48E
100
AcDbEntity
  8
0
100
AcDbBlockEnd
  0
BLOCK
  5
49D
330
49C
100
AcDbEntity
  8
0
100
AcDbBlockBegin
  2
BLKF076
 70
     0
 71
     0
 10
0.0
 20
0.0
 30
0.0
  3
BLKF076
  1

  0
LINE
  5
4A0
330
49C
100
AcDbEntity
  8
GR1-1
  6
CONTINUOUS
 62
     2
100
AcDbLine
 10
828.630173
 20
132.183305
 30
0.0
 11
842.815104
 21
132.183305
 31
0.0
  0
LINE
  5
4A1
330
49C
100
AcDbEntity
  8
GR1-1
  6
CONTINUOUS
 62
     2
100
AcDbLine
 10
830.407882
 20
135.738723
 30
0.0
 11
842.815104
 21
135.738723
 31
0.0
  0
LINE
  5
4A2
330
49C
100
AcDbEntity
  8
GR1-1
  6
CONTINUOUS
 62
     2
100
AcDbLine
 10
842.215104
 20
132.963305
 30
0.0
 11
842.215104
 21
134.958723
 31
0.0
  0
TEXT
  5
4A3
330
49C
100
AcDbEntity
  8
GR1-1
  6
CONTINUOUS
 62
     4
100
AcDbText
 10
841.671406
 20
131.336016
 30
0.0
 40
1.5
  1
177.8
 50
90.0
 41
0.7
  7
FX_VECTOR
 72
     5
 11
841.671406
 21
136.586016
 31
0.0
100
AcDbText
  0
LINE
  5
4A4
330
49C
100
AcDbEntity
  8
GR1-1
  6
CONTINUOUS
 62
     2
100
AcDbLine
 10
842.085104
 20
132.963305
 30
0.0
 11
842.345104
 21
132.963305
 31
0.0
  0
LINE
  5
4A5
330
49C
100
AcDbEntity
  8
GR1-1
  6
CONTINUOUS
 62
     2
100
AcDbLine
 10
842.345104
 20
132.963305
 30
0.0
 11
842.215104
 21
132.183305
 31
0.0
  0
LINE
  5
4A6
330
49C
100
AcDbEntity
  8
GR1-1
  6
CONTINUOUS
 62
     2
100
AcDbLine
 10
842.215104
 20
132.183305
 30
0.0
 11
842.085104
 21
132.963305
 31
0.0
  0
LINE
  5
4A7
330
49C
100
AcDbEntity
  8
GR1-1
  6
CONTINUOUS
 62
     2
100
AcDbLine
 10
842.085104
 20
134.958723
 30
0.0
 11
842.345104
 21
134.958723
 31
0.0
  0
LINE
  5
4A8
330
49C
100
AcDbEntity
  8
GR1-1
  6
CONTINUOUS
 62
     2
100
AcDbLine
 10
842.345104
 20
134.958723
 30
0.0
 11
842.215104
 21
135.738723
 31
0.0
  0
LINE
  5
4A9
330
49C
100
AcDbEntity
  8
GR1-1
  6
CONTINUOUS
 62
     2
100
AcDbLine
 10
842.215104
 20
135.738723
 30
0.0
 11
842.085104
 21
134.958723
 31
0.0
  0
ENDBLK
  5
49E
330
49C
100
AcDbEntity
  8
0
100
AcDbBlockEnd
  0
BLOCK
  5
4AB
330
4AA
100
AcDbEntity
  8
0
100
AcDbBlockBegin
  2
BLKF077
 70
     0
 71
     0
 10
0.0
 20
0.0
 30
0.0
  3
BLKF077
  1

  0
LINE
  5
4AE
330
4AA
100
AcDbEntity
  8
GR1-1
  6
CONTINUOUS
 62
     2
100
AcDbLine
 10
830.407882
 20
135.738723
 30
0.0
 11
842.815104
 21
135.738723
 31
0.0
  0
LINE
  5
4AF
330
4AA
100
AcDbEntity
  8
GR1-1
  6
CONTINUOUS
 62
     2
100
AcDbLine
 10
830.707882
 20
136.338723
 30
0.0
 11
842.815104
 21
136.338723
 31
0.0
  0
LINE
  5
4B0
330
4AA
100
AcDbEntity
  8
GR1-1
  6
CONTINUOUS
 62
     2
100
AcDbLine
 10
842.215104
 20
134.958723
 30
0.0
 11
842.215104
 21
134.178723
 31
0.0
  0
LINE
  5
4B1
330
4AA
100
AcDbEntity
  8
GR1-1
  6
CONTINUOUS
 62
     2
100
AcDbLine
 10
842.215104
 20
137.118723
 30
0.0
 11
842.215104
 21
137.898723
 31
0.0
  0
TEXT
  5
4B2
330
4AA
100
AcDbEntity
  8
GR1-1
  6
CONTINUOUS
 62
     4
100
AcDbText
 10
844.724453
 20
134.988711
 30
0.0
 40
1.5
  1
30
 50
90.0
 41
0.7
  7
FX_VECTOR
 72
     5
 11
844.724453
 21
137.088711
 31
0.0
100
AcDbText
  0
LINE
  5
4B3
330
4AA
100
AcDbEntity
  8
GR1-1
  6
CONTINUOUS
 62
     2
100
AcDbLine
 10
842.085104
 20
134.958723
 30
0.0
 11
842.345104
 21
134.958723
 31
0.0
  0
LINE
  5
4B4
330
4AA
100
AcDbEntity
  8
GR1-1
  6
CONTINUOUS
 62
     2
100
AcDbLine
 10
842.345104
 20
134.958723
 30
0.0
 11
842.215104
 21
135.738723
 31
0.0
  0
LINE
  5
4B5
330
4AA
100
AcDbEntity
  8
GR1-1
  6
CONTINUOUS
 62
     2
100
AcDbLine
 10
842.215104
 20
135.738723
 30
0.0
 11
842.085104
 21
134.958723
 31
0.0
  0
LINE
  5
4B6
330
4AA
100
AcDbEntity
  8
GR1-1
  6
CONTINUOUS
 62
     2
100
AcDbLine
 10
842.085104
 20
137.118723
 30
0.0
 11
842.345104
 21
137.118723
 31
0.0
  0
LINE
  5
4B7
330
4AA
100
AcDbEntity
  8
GR1-1
  6
CONTINUOUS
 62
     2
100
AcDbLine
 10
842.345104
 20
137.118723
 30
0.0
 11
842.215104
 21
136.338723
 31
0.0
  0
LINE
  5
4B8
330
4AA
100
AcDbEntity
  8
GR1-1
  6
CONTINUOUS
 62
     2
100
AcDbLine
 10
842.215104
 20
136.338723
 30
0.0
 11
842.085104
 21
137.118723
 31
0.0
  0
ENDBLK
  5
4AC
330
4AA
100
AcDbEntity
  8
0
100
AcDbBlockEnd
  0
BLOCK
  5
4BA
330
4B9
100
AcDbEntity
  8
0
100
AcDbBlockBegin
  2
BLKF078
 70
     0
 71
     0
 10
0.0
 20
0.0
 30
0.0
  3
BLKF078
  1

  0
LINE
  5
4BD
330
4B9
100
AcDbEntity
  8
GR1-1
  6
CONTINUOUS
 62
     2
100
AcDbLine
 10
802.585554
 20
147.39414
 30
0.0
 11
802.585554
 21
150.686023
 31
0.0
  0
LINE
  5
4BE
330
4B9
100
AcDbEntity
  8
GR1-1
  6
CONTINUOUS
 62
     2
100
AcDbLine
 10
801.344571
 20
147.39414
 30
0.0
 11
801.344571
 21
150.686023
 31
0.0
  0
LINE
  5
4BF
330
4B9
100
AcDbEntity
  8
GR1-1
  6
CONTINUOUS
 62
     2
100
AcDbLine
 10
803.365554
 20
150.086023
 30
0.0
 11
804.145554
 21
150.086023
 31
0.0
  0
LINE
  5
4C0
330
4B9
100
AcDbEntity
  8
GR1-1
  6
CONTINUOUS
 62
     2
100
AcDbLine
 10
800.564571
 20
150.086023
 30
0.0
 11
799.784571
 21
150.086023
 31
0.0
  0
TEXT
  5
4C1
330
4B9
100
AcDbEntity
  8
GR1-1
  6
CONTINUOUS
 62
     4
100
AcDbText
 10
798.807266
 20
150.731445
 30
0.0
 40
1.5
  1
62
 41
0.7
  7
FX_VECTOR
 72
     5
 11
800.907266
 21
150.731445
 31
0.0
100
AcDbText
  0
LINE
  5
4C2
330
4B9
100
AcDbEntity
  8
GR1-1
  6
CONTINUOUS
 62
     2
100
AcDbLine
 10
803.365554
 20
150.216023
 30
0.0
 11
803.365554
 21
149.956023
 31
0.0
  0
LINE
  5
4C3
330
4B9
100
AcDbEntity
  8
GR1-1
  6
CONTINUOUS
 62
     2
100
AcDbLine
 10
803.365554
 20
149.956023
 30
0.0
 11
802.585554
 21
150.086023
 31
0.0
  0
LINE
  5
4C4
330
4B9
100
AcDbEntity
  8
GR1-1
  6
CONTINUOUS
 62
     2
100
AcDbLine
 10
802.585554
 20
150.086023
 30
0.0
 11
803.365554
 21
150.216023
 31
0.0
  0
LINE
  5
4C5
330
4B9
100
AcDbEntity
  8
GR1-1
  6
CONTINUOUS
 62
     2
100
AcDbLine
 10
800.564571
 20
150.216023
 30
0.0
 11
800.564571
 21
149.956023
 31
0.0
  0
LINE
  5
4C6
330
4B9
100
AcDbEntity
  8
GR1-1
  6
CONTINUOUS
 62
     2
100
AcDbLine
 10
800.564571
 20
149.956023
 30
0.0
 11
801.344571
 21
150.086023
 31
0.0
  0
LINE
  5
4C7
330
4B9
100
AcDbEntity
  8
GR1-1
  6
CONTINUOUS
 62
     2
100
AcDbLine
 10
801.344571
 20
150.086023
 30
0.0
 11
800.564571
 21
150.216023
 31
0.0
  0
ENDBLK
  5
4BB
330
4B9
100
AcDbEntity
  8
0
100
AcDbBlockEnd
  0
BLOCK
  5
4C9
330
4C8
100
AcDbEntity
  8
0
100
AcDbBlockBegin
  2
BLKF079
 70
     0
 71
     0
 10
0.0
 20
0.0
 30
0.0
  3
BLKF079
  1

  0
LINE
  5
4CC
330
4C8
100
AcDbEntity
  8
GR1-1
  6
CONTINUOUS
 62
     2
100
AcDbLine
 10
802.585554
 20
147.39414
 30
0.0
 11
802.585554
 21
150.686023
 31
0.0
  0
LINE
  5
4CD
330
4C8
100
AcDbEntity
  8
GR1-1
  6
CONTINUOUS
 62
     2
100
AcDbLine
 10
803.185554
 20
147.39414
 30
0.0
 11
803.185554
 21
150.686023
 31
0.0
  0
LINE
  5
4CE
330
4C8
100
AcDbEntity
  8
GR1-1
  6
CONTINUOUS
 62
     2
100
AcDbLine
 10
801.805554
 20
150.086023
 30
0.0
 11
801.025554
 21
150.086023
 31
0.0
  0
LINE
  5
4CF
330
4C8
100
AcDbEntity
  8
GR1-1
  6
CONTINUOUS
 62
     2
100
AcDbLine
 10
803.965554
 20
150.086023
 30
0.0
 11
804.745554
 21
150.086023
 31
0.0
  0
TEXT
  5
4D0
330
4C8
100
AcDbEntity
  8
GR1-1
  6
CONTINUOUS
 62
     4
100
AcDbText
 10
801.825859
 20
151.001543
 30
0.0
 40
1.5
  1
30
 41
0.7
  7
FX_VECTOR
 72
     5
 11
803.925859
 21
151.001543
 31
0.0
100
AcDbText
  0
LINE
  5
4D1
330
4C8
100
AcDbEntity
  8
GR1-1
  6
CONTINUOUS
 62
     2
100
AcDbLine
 10
801.805554
 20
150.216023
 30
0.0
 11
801.805554
 21
149.956023
 31
0.0
  0
LINE
  5
4D2
330
4C8
100
AcDbEntity
  8
GR1-1
  6
CONTINUOUS
 62
     2
100
AcDbLine
 10
801.805554
 20
149.956023
 30
0.0
 11
802.585554
 21
150.086023
 31
0.0
  0
LINE
  5
4D3
330
4C8
100
AcDbEntity
  8
GR1-1
  6
CONTINUOUS
 62
     2
100
AcDbLine
 10
802.585554
 20
150.086023
 30
0.0
 11
801.805554
 21
150.216023
 31
0.0
  0
LINE
  5
4D4
330
4C8
100
AcDbEntity
  8
GR1-1
  6
CONTINUOUS
 62
     2
100
AcDbLine
 10
803.965554
 20
150.216023
 30
0.0
 11
803.965554
 21
149.956023
 31
0.0
  0
LINE
  5
4D5
330
4C8
100
AcDbEntity
  8
GR1-1
  6
CONTINUOUS
 62
     2
100
AcDbLine
 10
803.965554
 20
149.956023
 30
0.0
 11
803.185554
 21
150.086023
 31
0.0
  0
LINE
  5
4D6
330
4C8
100
AcDbEntity
  8
GR1-1
  6
CONTINUOUS
 62
     2
100
AcDbLine
 10
803.185554
 20
150.086023
 30
0.0
 11
803.965554
 21
150.216023
 31
0.0
  0
ENDBLK
  5
4CA
330
4C8
100
AcDbEntity
  8
0
100
AcDbBlockEnd
  0
BLOCK
  5
4D8
330
4D7
100
AcDbEntity
  8
0
100
AcDbBlockBegin
  2
BLKF080
 70
     0
 71
     0
 10
0.0
 20
0.0
 30
0.0
  3
BLKF080
  1

  0
LINE
  5
4DB
330
4D7
100
AcDbEntity
  8
GR1-1
  6
CONTINUOUS
 62
     2
100
AcDbLine
 10
803.185554
 20
147.39414
 30
0.0
 11
803.185554
 21
150.686023
 31
0.0
  0
LINE
  5
4DC
330
4D7
100
AcDbEntity
  8
GR1-1
  6
CONTINUOUS
 62
     2
100
AcDbLine
 10
825.88919
 20
147.39414
 30
0.0
 11
825.88919
 21
150.686023
 31
0.0
  0
LINE
  5
4DD
330
4D7
100
AcDbEntity
  8
GR1-1
  6
CONTINUOUS
 62
     2
100
AcDbLine
 10
803.965554
 20
150.086023
 30
0.0
 11
825.10919
 21
150.086023
 31
0.0
  0
LINE
  5
4DE
330
4D7
100
AcDbEntity
  8
GR1-1
  6
CONTINUOUS
 62
     2
100
AcDbLine
 10
803.965554
 20
150.216023
 30
0.0
 11
803.965554
 21
149.956023
 31
0.0
  0
LINE
  5
4DF
330
4D7
100
AcDbEntity
  8
GR1-1
  6
CONTINUOUS
 62
     2
100
AcDbLine
 10
803.965554
 20
149.956023
 30
0.0
 11
803.185554
 21
150.086023
 31
0.0
  0
LINE
  5
4E0
330
4D7
100
AcDbEntity
  8
GR1-1
  6
CONTINUOUS
 62
     2
100
AcDbLine
 10
803.185554
 20
150.086023
 30
0.0
 11
803.965554
 21
150.216023
 31
0.0
  0
LINE
  5
4E1
330
4D7
100
AcDbEntity
  8
GR1-1
  6
CONTINUOUS
 62
     2
100
AcDbLine
 10
825.10919
 20
150.216023
 30
0.0
 11
825.10919
 21
149.956023
 31
0.0
  0
LINE
  5
4E2
330
4D7
100
AcDbEntity
  8
GR1-1
  6
CONTINUOUS
 62
     2
100
AcDbLine
 10
825.10919
 20
149.956023
 30
0.0
 11
825.88919
 21
150.086023
 31
0.0
  0
LINE
  5
4E3
330
4D7
100
AcDbEntity
  8
GR1-1
  6
CONTINUOUS
 62
     2
100
AcDbLine
 10
825.88919
 20
150.086023
 30
0.0
 11
825.10919
 21
150.216023
 31
0.0
  0
TEXT
  5
4E4
330
4D7
100
AcDbEntity
  8
GR1-1
  6
CONTINUOUS
 62
     4
100
AcDbText
 10
812.437344
 20
150.686016
 30
0.0
 40
1.5
  1
1135
 41
0.7
  7
FX_VECTOR
 72
     5
 11
816.637344
 21
150.686016
 31
0.0
100
AcDbText
  0
ENDBLK
  5
4D9
330
4D7
100
AcDbEntity
  8
0
100
AcDbBlockEnd
  0
BLOCK
  5
4E6
330
4E5
100
AcDbEntity
  8
0
100
AcDbBlockBegin
  2
BLKF081
 70
     0
 71
     0
 10
0.0
 20
0.0
 30
0.0
  3
BLKF081
  1

  0
LINE
  5
4E9
330
4E5
100
AcDbEntity
  8
GR1-1
  6
CONTINUOUS
 62
     2
100
AcDbLine
 10
825.88919
 20
147.39414
 30
0.0
 11
825.88919
 21
150.686023
 31
0.0
  0
LINE
  5
4EA
330
4E5
100
AcDbEntity
  8
GR1-1
  6
CONTINUOUS
 62
     2
100
AcDbLine
 10
826.48919
 20
147.39414
 30
0.0
 11
826.48919
 21
150.686023
 31
0.0
  0
LINE
  5
4EB
330
4E5
100
AcDbEntity
  8
GR1-1
  6
CONTINUOUS
 62
     2
100
AcDbLine
 10
825.10919
 20
150.086023
 30
0.0
 11
824.32919
 21
150.086023
 31
0.0
  0
LINE
  5
4EC
330
4E5
100
AcDbEntity
  8
GR1-1
  6
CONTINUOUS
 62
     2
100
AcDbLine
 10
827.26919
 20
150.086023
 30
0.0
 11
828.04919
 21
150.086023
 31
0.0
  0
TEXT
  5
4ED
330
4E5
100
AcDbEntity
  8
GR1-1
  6
CONTINUOUS
 62
     4
100
AcDbText
 10
825.164219
 20
150.731445
 30
0.0
 40
1.5
  1
30
 41
0.7
  7
FX_VECTOR
 72
     5
 11
827.264219
 21
150.731445
 31
0.0
100
AcDbText
  0
LINE
  5
4EE
330
4E5
100
AcDbEntity
  8
GR1-1
  6
CONTINUOUS
 62
     2
100
AcDbLine
 10
825.10919
 20
150.216023
 30
0.0
 11
825.10919
 21
149.956023
 31
0.0
  0
LINE
  5
4EF
330
4E5
100
AcDbEntity
  8
GR1-1
  6
CONTINUOUS
 62
     2
100
AcDbLine
 10
825.10919
 20
149.956023
 30
0.0
 11
825.88919
 21
150.086023
 31
0.0
  0
LINE
  5
4F0
330
4E5
100
AcDbEntity
  8
GR1-1
  6
CONTINUOUS
 62
     2
100
AcDbLine
 10
825.88919
 20
150.086023
 30
0.0
 11
825.10919
 21
150.216023
 31
0.0
  0
LINE
  5
4F1
330
4E5
100
AcDbEntity
  8
GR1-1
  6
CONTINUOUS
 62
     2
100
AcDbLine
 10
827.26919
 20
150.216023
 30
0.0
 11
827.26919
 21
149.956023
 31
0.0
  0
LINE
  5
4F2
330
4E5
100
AcDbEntity
  8
GR1-1
  6
CONTINUOUS
 62
     2
100
AcDbLine
 10
827.26919
 20
149.956023
 30
0.0
 11
826.48919
 21
150.086023
 31
0.0
  0
LINE
  5
4F3
330
4E5
100
AcDbEntity
  8
GR1-1
  6
CONTINUOUS
 62
     2
100
AcDbLine
 10
826.48919
 20
150.086023
 30
0.0
 11
827.26919
 21
150.216023
 31
0.0
  0
ENDBLK
  5
4E7
330
4E5
100
AcDbEntity
  8
0
100
AcDbBlockEnd
  0
BLOCK
  5
4F5
330
4F4
100
AcDbEntity
  8
0
100
AcDbBlockBegin
  2
BLKF082
 70
     0
 71
     0
 10
0.0
 20
0.0
 30
0.0
  3
BLKF082
  1

  0
LINE
  5
4F8
330
4F4
100
AcDbEntity
  8
GR1-1
  6
CONTINUOUS
 62
     2
100
AcDbLine
 10
826.48919
 20
147.39414
 30
0.0
 11
826.48919
 21
150.686023
 31
0.0
  0
LINE
  5
4F9
330
4F4
100
AcDbEntity
  8
GR1-1
  6
CONTINUOUS
 62
     2
100
AcDbLine
 10
834.885591
 20
147.39414
 30
0.0
 11
834.885591
 21
150.686023
 31
0.0
  0
LINE
  5
4FA
330
4F4
100
AcDbEntity
  8
GR1-1
  6
CONTINUOUS
 62
     2
100
AcDbLine
 10
827.26919
 20
150.086023
 30
0.0
 11
834.105591
 21
150.086023
 31
0.0
  0
LINE
  5
4FB
330
4F4
100
AcDbEntity
  8
GR1-1
  6
CONTINUOUS
 62
     2
100
AcDbLine
 10
827.26919
 20
150.216023
 30
0.0
 11
827.26919
 21
149.956023
 31
0.0
  0
LINE
  5
4FC
330
4F4
100
AcDbEntity
  8
GR1-1
  6
CONTINUOUS
 62
     2
100
AcDbLine
 10
827.26919
 20
149.956023
 30
0.0
 11
826.48919
 21
150.086023
 31
0.0
  0
LINE
  5
4FD
330
4F4
100
AcDbEntity
  8
GR1-1
  6
CONTINUOUS
 62
     2
100
AcDbLine
 10
826.48919
 20
150.086023
 30
0.0
 11
827.26919
 21
150.216023
 31
0.0
  0
LINE
  5
4FE
330
4F4
100
AcDbEntity
  8
GR1-1
  6
CONTINUOUS
 62
     2
100
AcDbLine
 10
834.105591
 20
150.216023
 30
0.0
 11
834.105591
 21
149.956023
 31
0.0
  0
LINE
  5
4FF
330
4F4
100
AcDbEntity
  8
GR1-1
  6
CONTINUOUS
 62
     2
100
AcDbLine
 10
834.105591
 20
149.956023
 30
0.0
 11
834.885591
 21
150.086023
 31
0.0
  0
LINE
  5
500
330
4F4
100
AcDbEntity
  8
GR1-1
  6
CONTINUOUS
 62
     2
100
AcDbLine
 10
834.885591
 20
150.086023
 30
0.0
 11
834.105591
 21
150.216023
 31
0.0
  0
TEXT
  5
501
330
4F4
100
AcDbEntity
  8
GR1-1
  6
CONTINUOUS
 62
     4
100
AcDbText
 10
829.112344
 20
150.686016
 30
0.0
 40
1.5
  1
420
 41
0.7
  7
FX_VECTOR
 72
     5
 11
832.262344
 21
150.686016
 31
0.0
100
AcDbText
  0
ENDBLK
  5
4F6
330
4F4
100
AcDbEntity
  8
0
100
AcDbBlockEnd
  0
BLOCK
  5
50B
330
50A
100
AcDbEntity
  8
0
100
AcDbBlockBegin
  2
BLKF083
 70
     0
 71
     0
 10
0.0
 20
0.0
 30
0.0
  3
BLKF083
  1

  0
LINE
  5
50E
330
50A
100
AcDbEntity
  8
GR1-1
  6
CONTINUOUS
 62
     2
100
AcDbLine
 10
741.260901
 20
205.829465
 30
0.0
 11
741.260901
 21
213.292001
 31
0.0
  0
LINE
  5
50F
330
50A
100
AcDbEntity
  8
GR1-1
  6
CONTINUOUS
 62
     2
100
AcDbLine
 10
741.210901
 20
182.537623
 30
0.0
 11
741.210901
 21
213.292001
 31
0.0
  0
LINE
  5
510
330
50A
100
AcDbEntity
  8
GR1-1
  6
CONTINUOUS
 62
     2
100
AcDbLine
 10
742.040901
 20
212.692001
 30
0.0
 11
742.820901
 21
212.692001
 31
0.0
  0
LINE
  5
511
330
50A
100
AcDbEntity
  8
GR1-1
  6
CONTINUOUS
 62
     2
100
AcDbLine
 10
740.430901
 20
212.692001
 30
0.0
 11
739.650901
 21
212.692001
 31
0.0
  0
TEXT
  5
512
330
50A
100
AcDbEntity
  8
GR1-1
  6
CONTINUOUS
 62
     4
100
AcDbText
 10
737.977578
 20
213.202461
 30
0.0
 40
1.5
  1
2.5
 41
0.7
  7
FX_VECTOR
 72
     5
 11
741.127578
 21
213.202461
 31
0.0
100
AcDbText
  0
LINE
  5
513
330
50A
100
AcDbEntity
  8
GR1-1
  6
CONTINUOUS
 62
     2
100
AcDbLine
 10
742.040901
 20
212.822001
 30
0.0
 11
742.040901
 21
212.562001
 31
0.0
  0
LINE
  5
514
330
50A
100
AcDbEntity
  8
GR1-1
  6
CONTINUOUS
 62
     2
100
AcDbLine
 10
742.040901
 20
212.562001
 30
0.0
 11
741.260901
 21
212.692001
 31
0.0
  0
LINE
  5
515
330
50A
100
AcDbEntity
  8
GR1-1
  6
CONTINUOUS
 62
     2
100
AcDbLine
 10
741.260901
 20
212.692001
 30
0.0
 11
742.040901
 21
212.822001
 31
0.0
  0
LINE
  5
516
330
50A
100
AcDbEntity
  8
GR1-1
  6
CONTINUOUS
 62
     2
100
AcDbLine
 10
740.430901
 20
212.822001
 30
0.0
 11
740.430901
 21
212.562001
 31
0.0
  0
LINE
  5
517
330
50A
100
AcDbEntity
  8
GR1-1
  6
CONTINUOUS
 62
     2
100
AcDbLine
 10
740.430901
 20
212.562001
 30
0.0
 11
741.210901
 21
212.692001
 31
0.0
  0
LINE
  5
518
330
50A
100
AcDbEntity
  8
GR1-1
  6
CONTINUOUS
 62
     2
100
AcDbLine
 10
741.210901
 20
212.692001
 30
0.0
 11
740.430901
 21
212.822001
 31
0.0
  0
ENDBLK
  5
50C
330
50A
100
AcDbEntity
  8
0
100
AcDbBlockEnd
  0
BLOCK
  5
51A
330
519
100
AcDbEntity
  8
0
100
AcDbBlockBegin
  2
BLKF084
 70
     0
 71
     0
 10
0.0
 20
0.0
 30
0.0
  3
BLKF084
  1

  0
LINE
  5
51D
330
519
100
AcDbEntity
  8
GR1-1
  6
CONTINUOUS
 62
     2
100
AcDbLine
 10
753.660901
 20
205.829465
 30
0.0
 11
753.660901
 21
213.292001
 31
0.0
  0
LINE
  5
51E
330
519
100
AcDbEntity
  8
GR1-1
  6
CONTINUOUS
 62
     2
100
AcDbLine
 10
753.710901
 20
182.537623
 30
0.0
 11
753.710901
 21
213.292001
 31
0.0
  0
LINE
  5
51F
330
519
100
AcDbEntity
  8
GR1-1
  6
CONTINUOUS
 62
     2
100
AcDbLine
 10
752.880901
 20
212.692001
 30
0.0
 11
752.100901
 21
212.692001
 31
0.0
  0
LINE
  5
520
330
519
100
AcDbEntity
  8
GR1-1
  6
CONTINUOUS
 62
     2
100
AcDbLine
 10
754.490901
 20
212.692001
 30
0.0
 11
755.270901
 21
212.692001
 31
0.0
  0
TEXT
  5
521
330
519
100
AcDbEntity
  8
GR1-1
  6
CONTINUOUS
 62
     4
100
AcDbText
 10
753.821328
 20
213.311602
 30
0.0
 40
1.5
  1
2.5
 41
0.7
  7
FX_VECTOR
 72
     5
 11
756.971328
 21
213.311602
 31
0.0
100
AcDbText
  0
LINE
  5
522
330
519
100
AcDbEntity
  8
GR1-1
  6
CONTINUOUS
 62
     2
100
AcDbLine
 10
752.880901
 20
212.822001
 30
0.0
 11
752.880901
 21
212.562001
 31
0.0
  0
LINE
  5
523
330
519
100
AcDbEntity
  8
GR1-1
  6
CONTINUOUS
 62
     2
100
AcDbLine
 10
752.880901
 20
212.562001
 30
0.0
 11
753.660901
 21
212.692001
 31
0.0
  0
LINE
  5
524
330
519
100
AcDbEntity
  8
GR1-1
  6
CONTINUOUS
 62
     2
100
AcDbLine
 10
753.660901
 20
212.692001
 30
0.0
 11
752.880901
 21
212.822001
 31
0.0
  0
LINE
  5
525
330
519
100
AcDbEntity
  8
GR1-1
  6
CONTINUOUS
 62
     2
100
AcDbLine
 10
754.490901
 20
212.822001
 30
0.0
 11
754.490901
 21
212.562001
 31
0.0
  0
LINE
  5
526
330
519
100
AcDbEntity
  8
GR1-1
  6
CONTINUOUS
 62
     2
100
AcDbLine
 10
754.490901
 20
212.562001
 30
0.0
 11
753.710901
 21
212.692001
 31
0.0
  0
LINE
  5
527
330
519
100
AcDbEntity
  8
GR1-1
  6
CONTINUOUS
 62
     2
100
AcDbLine
 10
753.710901
 20
212.692001
 30
0.0
 11
754.490901
 21
212.822001
 31
0.0
  0
ENDBLK
  5
51B
330
519
100
AcDbEntity
  8
0
100
AcDbBlockEnd
  0
BLOCK
  5
529
330
528
100
AcDbEntity
  8
0
100
AcDbBlockBegin
  2
BLKF085
 70
     0
 71
     0
 10
0.0
 20
0.0
 30
0.0
  3
BLKF085
  1

  0
LINE
  5
52C
330
528
100
AcDbEntity
  8
GR1-1
  6
CONTINUOUS
 62
     2
100
AcDbLine
 10
747.995506
 20
204.929465
 30
0.0
 11
749.638915
 21
204.929465
 31
0.0
  0
LINE
  5
52D
330
528
100
AcDbEntity
  8
GR1-1
  6
CONTINUOUS
 62
     2
100
AcDbLine
 10
748.302699
 20
202.929465
 30
0.0
 11
749.638915
 21
202.929465
 31
0.0
  0
LINE
  5
52E
330
528
100
AcDbEntity
  8
GR1-1
  6
CONTINUOUS
 62
     2
100
AcDbLine
 10
749.038915
 20
205.709465
 30
0.0
 11
749.038915
 21
206.489465
 31
0.0
  0
LINE
  5
52F
330
528
100
AcDbEntity
  8
GR1-1
  6
CONTINUOUS
 62
     2
100
AcDbLine
 10
749.038915
 20
202.149465
 30
0.0
 11
749.038915
 21
201.369465
 31
0.0
  0
TEXT
  5
530
330
528
100
AcDbEntity
  8
GR1-1
  6
CONTINUOUS
 62
     4
100
AcDbText
 10
748.834141
 20
198.502031
 30
0.0
 40
1.5
  1
100
 50
90.0
 41
0.7
  7
FX_VECTOR
 72
     5
 11
748.834141
 21
201.652031
 31
0.0
100
AcDbText
  0
LINE
  5
531
330
528
100
AcDbEntity
  8
GR1-1
  6
CONTINUOUS
 62
     2
100
AcDbLine
 10
748.908915
 20
205.709465
 30
0.0
 11
749.168915
 21
205.709465
 31
0.0
  0
LINE
  5
532
330
528
100
AcDbEntity
  8
GR1-1
  6
CONTINUOUS
 62
     2
100
AcDbLine
 10
749.168915
 20
205.709465
 30
0.0
 11
749.038915
 21
204.929465
 31
0.0
  0
LINE
  5
533
330
528
100
AcDbEntity
  8
GR1-1
  6
CONTINUOUS
 62
     2
100
AcDbLine
 10
749.038915
 20
204.929465
 30
0.0
 11
748.908915
 21
205.709465
 31
0.0
  0
LINE
  5
534
330
528
100
AcDbEntity
  8
GR1-1
  6
CONTINUOUS
 62
     2
100
AcDbLine
 10
748.908915
 20
202.149465
 30
0.0
 11
749.168915
 21
202.149465
 31
0.0
  0
LINE
  5
535
330
528
100
AcDbEntity
  8
GR1-1
  6
CONTINUOUS
 62
     2
100
AcDbLine
 10
749.168915
 20
202.149465
 30
0.0
 11
749.038915
 21
202.929465
 31
0.0
  0
LINE
  5
536
330
528
100
AcDbEntity
  8
GR1-1
  6
CONTINUOUS
 62
     2
100
AcDbLine
 10
749.038915
 20
202.929465
 30
0.0
 11
748.908915
 21
202.149465
 31
0.0
  0
ENDBLK
  5
52A
330
528
100
AcDbEntity
  8
0
100
AcDbBlockEnd
  0
BLOCK
  5
53A
330
539
100
AcDbEntity
  8
0
100
AcDbBlockBegin
  2
BLKF086
 70
     0
 71
     0
 10
0.0
 20
0.0
 30
0.0
  3
BLKF086
  1

  0
LINE
  5
53D
330
539
100
AcDbEntity
  8
GR1-1
  6
CONTINUOUS
 62
     2
100
AcDbLine
 10
744.560901
 20
173.398444
 30
0.0
 11
737.711453
 21
173.398444
 31
0.0
  0
LINE
  5
53E
330
539
100
AcDbEntity
  8
GR1-1
  6
CONTINUOUS
 62
     2
100
AcDbLine
 10
744.560901
 20
175.398444
 30
0.0
 11
737.711453
 21
175.398444
 31
0.0
  0
LINE
  5
53F
330
539
100
AcDbEntity
  8
GR1-1
  6
CONTINUOUS
 62
     2
100
AcDbLine
 10
738.311453
 20
172.618444
 30
0.0
 11
738.311453
 21
171.838444
 31
0.0
  0
LINE
  5
540
330
539
100
AcDbEntity
  8
GR1-1
  6
CONTINUOUS
 62
     2
100
AcDbLine
 10
738.311453
 20
176.178444
 30
0.0
 11
738.311453
 21
176.958444
 31
0.0
  0
TEXT
  5
541
330
539
100
AcDbEntity
  8
GR1-1
  6
CONTINUOUS
 62
     4
100
AcDbText
 10
736.811406
 20
174.217227
 30
0.0
 40
1.5
  1
100
 50
90.0
 41
0.7
  7
FX_VECTOR
 72
     5
 11
736.811406
 21
177.367227
 31
0.0
100
AcDbText
  0
LINE
  5
542
330
539
100
AcDbEntity
  8
GR1-1
  6
CONTINUOUS
 62
     2
100
AcDbLine
 10
738.181453
 20
172.618444
 30
0.0
 11
738.441453
 21
172.618444
 31
0.0
  0
LINE
  5
543
330
539
100
AcDbEntity
  8
GR1-1
  6
CONTINUOUS
 62
     2
100
AcDbLine
 10
738.441453
 20
172.618444
 30
0.0
 11
738.311453
 21
173.398444
 31
0.0
  0
LINE
  5
544
330
539
100
AcDbEntity
  8
GR1-1
  6
CONTINUOUS
 62
     2
100
AcDbLine
 10
738.311453
 20
173.398444
 30
0.0
 11
738.181453
 21
172.618444
 31
0.0
  0
LINE
  5
545
330
539
100
AcDbEntity
  8
GR1-1
  6
CONTINUOUS
 62
     2
100
AcDbLine
 10
738.181453
 20
176.178444
 30
0.0
 11
738.441453
 21
176.178444
 31
0.0
  0
LINE
  5
546
330
539
100
AcDbEntity
  8
GR1-1
  6
CONTINUOUS
 62
     2
100
AcDbLine
 10
738.441453
 20
176.178444
 30
0.0
 11
738.311453
 21
175.398444
 31
0.0
  0
LINE
  5
547
330
539
100
AcDbEntity
  8
GR1-1
  6
CONTINUOUS
 62
     2
100
AcDbLine
 10
738.311453
 20
175.398444
 30
0.0
 11
738.181453
 21
176.178444
 31
0.0
  0
ENDBLK
  5
53B
330
539
100
AcDbEntity
  8
0
100
AcDbBlockEnd
  0
BLOCK
  5
549
330
548
100
AcDbEntity
  8
0
100
AcDbBlockBegin
  2
BLKF087
 70
     0
 71
     0
 10
0.0
 20
0.0
 30
0.0
  3
BLKF087
  1

  0
LINE
  5
54C
330
548
100
AcDbEntity
  8
GR1-1
  6
CONTINUOUS
 62
     2
100
AcDbLine
 10
740.310901
 20
171.398444
 30
0.0
 11
737.711453
 21
171.398444
 31
0.0
  0
LINE
  5
54D
330
548
100
AcDbEntity
  8
GR1-1
  6
CONTINUOUS
 62
     2
100
AcDbLine
 10
744.560901
 20
173.398444
 30
0.0
 11
737.711453
 21
173.398444
 31
0.0
  0
LINE
  5
54E
330
548
100
AcDbEntity
  8
GR1-1
  6
CONTINUOUS
 62
     2
100
AcDbLine
 10
738.311453
 20
170.618444
 30
0.0
 11
738.311453
 21
169.838444
 31
0.0
  0
LINE
  5
54F
330
548
100
AcDbEntity
  8
GR1-1
  6
CONTINUOUS
 62
     2
100
AcDbLine
 10
738.311453
 20
174.178444
 30
0.0
 11
738.311453
 21
174.958444
 31
0.0
  0
TEXT
  5
550
330
548
100
AcDbEntity
  8
GR1-1
  6
CONTINUOUS
 62
     4
100
AcDbText
 10
736.811406
 20
169.932539
 30
0.0
 40
1.5
  1
100
 50
90.0
 41
0.7
  7
FX_VECTOR
 72
     5
 11
736.811406
 21
173.082539
 31
0.0
100
AcDbText
  0
LINE
  5
551
330
548
100
AcDbEntity
  8
GR1-1
  6
CONTINUOUS
 62
     2
100
AcDbLine
 10
738.181453
 20
170.618444
 30
0.0
 11
738.441453
 21
170.618444
 31
0.0
  0
LINE
  5
552
330
548
100
AcDbEntity
  8
GR1-1
  6
CONTINUOUS
 62
     2
100
AcDbLine
 10
738.441453
 20
170.618444
 30
0.0
 11
738.311453
 21
171.398444
 31
0.0
  0
LINE
  5
553
330
548
100
AcDbEntity
  8
GR1-1
  6
CONTINUOUS
 62
     2
100
AcDbLine
 10
738.311453
 20
171.398444
 30
0.0
 11
738.181453
 21
170.618444
 31
0.0
  0
LINE
  5
554
330
548
100
AcDbEntity
  8
GR1-1
  6
CONTINUOUS
 62
     2
100
AcDbLine
 10
738.181453
 20
174.178444
 30
0.0
 11
738.441453
 21
174.178444
 31
0.0
  0
LINE
  5
555
330
548
100
AcDbEntity
  8
GR1-1
  6
CONTINUOUS
 62
     2
100
AcDbLine
 10
738.441453
 20
174.178444
 30
0.0
 11
738.311453
 21
173.398444
 31
0.0
  0
LINE
  5
556
330
548
100
AcDbEntity
  8
GR1-1
  6
CONTINUOUS
 62
     2
100
AcDbLine
 10
738.311453
 20
173.398444
 30
0.0
 11
738.181453
 21
174.178444
 31
0.0
  0
ENDBLK
  5
54A
330
548
100
AcDbEntity
  8
0
100
AcDbBlockEnd
  0
BLOCK
  5
55A
330
559
100
AcDbEntity
  8
0
100
AcDbBlockBegin
  2
BLKF088
 70
     0
 71
     0
 10
0.0
 20
0.0
 30
0.0
  3
BLKF088
  1

  0
LINE
  5
55D
330
559
100
AcDbEntity
  8
GR1-1
  6
CONTINUOUS
 62
     2
100
AcDbLine
 10
741.210901
 20
163.343027
 30
0.0
 11
741.210901
 21
156.292691
 31
0.0
  0
LINE
  5
55E
330
559
100
AcDbEntity
  8
GR1-1
  6
CONTINUOUS
 62
     2
100
AcDbLine
 10
753.710901
 20
163.343027
 30
0.0
 11
753.710901
 21
156.292691
 31
0.0
  0
LINE
  5
55F
330
559
100
AcDbEntity
  8
GR1-1
  6
CONTINUOUS
 62
     2
100
AcDbLine
 10
741.990901
 20
156.892691
 30
0.0
 11
752.930901
 21
156.892691
 31
0.0
  0
LINE
  5
560
330
559
100
AcDbEntity
  8
GR1-1
  6
CONTINUOUS
 62
     2
100
AcDbLine
 10
741.990901
 20
157.022691
 30
0.0
 11
741.990901
 21
156.762691
 31
0.0
  0
LINE
  5
561
330
559
100
AcDbEntity
  8
GR1-1
  6
CONTINUOUS
 62
     2
100
AcDbLine
 10
741.990901
 20
156.762691
 30
0.0
 11
741.210901
 21
156.892691
 31
0.0
  0
LINE
  5
562
330
559
100
AcDbEntity
  8
GR1-1
  6
CONTINUOUS
 62
     2
100
AcDbLine
 10
741.210901
 20
156.892691
 30
0.0
 11
741.990901
 21
157.022691
 31
0.0
  0
LINE
  5
563
330
559
100
AcDbEntity
  8
GR1-1
  6
CONTINUOUS
 62
     2
100
AcDbLine
 10
752.930901
 20
157.022691
 30
0.0
 11
752.930901
 21
156.762691
 31
0.0
  0
LINE
  5
564
330
559
100
AcDbEntity
  8
GR1-1
  6
CONTINUOUS
 62
     2
100
AcDbLine
 10
752.930901
 20
156.762691
 30
0.0
 11
753.710901
 21
156.892691
 31
0.0
  0
LINE
  5
565
330
559
100
AcDbEntity
  8
GR1-1
  6
CONTINUOUS
 62
     2
100
AcDbLine
 10
753.710901
 20
156.892691
 30
0.0
 11
752.930901
 21
157.022691
 31
0.0
  0
TEXT
  5
566
330
559
100
AcDbEntity
  8
GR1-1
  6
CONTINUOUS
 62
     4
100
AcDbText
 10
745.885859
 20
157.492695
 30
0.0
 40
1.5
  1
625
 41
0.7
  7
FX_VECTOR
 72
     5
 11
749.035859
 21
157.492695
 31
0.0
100
AcDbText
  0
ENDBLK
  5
55B
330
559
100
AcDbEntity
  8
0
100
AcDbBlockEnd
  0
BLOCK
  5
56D
330
56C
100
AcDbEntity
  8
0
100
AcDbBlockBegin
  2
BLKF089
 70
     0
 71
     0
 10
0.0
 20
0.0
 30
0.0
  3
BLKF089
  1

  0
LINE
  5
570
330
56C
100
AcDbEntity
  8
GR1-1
  6
CONTINUOUS
 62
     2
100
AcDbLine
 10
753.710901
 20
170.498444
 30
0.0
 11
753.710901
 21
167.465789
 31
0.0
  0
LINE
  5
571
330
56C
100
AcDbEntity
  8
GR1-1
  6
CONTINUOUS
 62
     2
100
AcDbLine
 10
747.460901
 20
170.498444
 30
0.0
 11
747.460901
 21
167.465789
 31
0.0
  0
LINE
  5
572
330
56C
100
AcDbEntity
  8
GR1-1
  6
CONTINUOUS
 62
     2
100
AcDbLine
 10
752.930901
 20
168.065789
 30
0.0
 11
748.240901
 21
168.065789
 31
0.0
  0
TEXT
  5
573
330
56C
100
AcDbEntity
  8
GR1-1
  6
CONTINUOUS
 62
     4
100
AcDbText
 10
747.935859
 20
168.665781
 30
0.0
 40
1.5
  1
312.5
 41
0.7
  7
FX_VECTOR
 72
     5
 11
753.185859
 21
168.665781
 31
0.0
100
AcDbText
  0
LINE
  5
574
330
56C
100
AcDbEntity
  8
GR1-1
  6
CONTINUOUS
 62
     2
100
AcDbLine
 10
752.930901
 20
168.195789
 30
0.0
 11
752.930901
 21
167.935789
 31
0.0
  0
LINE
  5
575
330
56C
100
AcDbEntity
  8
GR1-1
  6
CONTINUOUS
 62
     2
100
AcDbLine
 10
752.930901
 20
167.935789
 30
0.0
 11
753.710901
 21
168.065789
 31
0.0
  0
LINE
  5
576
330
56C
100
AcDbEntity
  8
GR1-1
  6
CONTINUOUS
 62
     2
100
AcDbLine
 10
753.710901
 20
168.065789
 30
0.0
 11
752.930901
 21
168.195789
 31
0.0
  0
LINE
  5
577
330
56C
100
AcDbEntity
  8
GR1-1
  6
CONTINUOUS
 62
     2
100
AcDbLine
 10
748.240901
 20
168.195789
 30
0.0
 11
748.240901
 21
167.935789
 31
0.0
  0
LINE
  5
578
330
56C
100
AcDbEntity
  8
GR1-1
  6
CONTINUOUS
 62
     2
100
AcDbLine
 10
748.240901
 20
167.935789
 30
0.0
 11
747.460901
 21
168.065789
 31
0.0
  0
LINE
  5
579
330
56C
100
AcDbEntity
  8
GR1-1
  6
CONTINUOUS
 62
     2
100
AcDbLine
 10
747.460901
 20
168.065789
 30
0.0
 11
748.240901
 21
168.195789
 31
0.0
  0
ENDBLK
  5
56E
330
56C
100
AcDbEntity
  8
0
100
AcDbBlockEnd
  0
BLOCK
  5
582
330
581
100
AcDbEntity
  8
0
100
AcDbBlockBegin
  2
BLKF090
 70
     0
 71
     0
 10
0.0
 20
0.0
 30
0.0
  3
BLKF090
  1

  0
LINE
  5
585
330
581
100
AcDbEntity
  8
GR1-1
  6
CONTINUOUS
 62
     2
100
AcDbLine
 10
741.210901
 20
170.498444
 30
0.0
 11
741.210901
 21
167.465789
 31
0.0
  0
LINE
  5
586
330
581
100
AcDbEntity
  8
GR1-1
  6
CONTINUOUS
 62
     2
100
AcDbLine
 10
747.460901
 20
170.498444
 30
0.0
 11
747.460901
 21
167.465789
 31
0.0
  0
LINE
  5
587
330
581
100
AcDbEntity
  8
GR1-1
  6
CONTINUOUS
 62
     2
100
AcDbLine
 10
741.990901
 20
168.065789
 30
0.0
 11
746.680901
 21
168.065789
 31
0.0
  0
TEXT
  5
588
330
581
100
AcDbEntity
  8
GR1-1
  6
CONTINUOUS
 62
     4
100
AcDbText
 10
741.735859
 20
168.665781
 30
0.0
 40
1.5
  1
312.5
 41
0.7
  7
FX_VECTOR
 72
     5
 11
746.985859
 21
168.665781
 31
0.0
100
AcDbText
  0
LINE
  5
589
330
581
100
AcDbEntity
  8
GR1-1
  6
CONTINUOUS
 62
     2
100
AcDbLine
 10
741.990901
 20
168.195789
 30
0.0
 11
741.990901
 21
167.935789
 31
0.0
  0
LINE
  5
58A
330
581
100
AcDbEntity
  8
GR1-1
  6
CONTINUOUS
 62
     2
100
AcDbLine
 10
741.990901
 20
167.935789
 30
0.0
 11
741.210901
 21
168.065789
 31
0.0
  0
LINE
  5
58B
330
581
100
AcDbEntity
  8
GR1-1
  6
CONTINUOUS
 62
     2
100
AcDbLine
 10
741.210901
 20
168.065789
 30
0.0
 11
741.990901
 21
168.195789
 31
0.0
  0
LINE
  5
58C
330
581
100
AcDbEntity
  8
GR1-1
  6
CONTINUOUS
 62
     2
100
AcDbLine
 10
746.680901
 20
168.195789
 30
0.0
 11
746.680901
 21
167.935789
 31
0.0
  0
LINE
  5
58D
330
581
100
AcDbEntity
  8
GR1-1
  6
CONTINUOUS
 62
     2
100
AcDbLine
 10
746.680901
 20
167.935789
 30
0.0
 11
747.460901
 21
168.065789
 31
0.0
  0
LINE
  5
58E
330
581
100
AcDbEntity
  8
GR1-1
  6
CONTINUOUS
 62
     2
100
AcDbLine
 10
747.460901
 20
168.065789
 30
0.0
 11
746.680901
 21
168.195789
 31
0.0
  0
ENDBLK
  5
583
330
581
100
AcDbEntity
  8
0
100
AcDbBlockEnd
  0
BLOCK
  5
594
330
593
100
AcDbEntity
  8
0
100
AcDbBlockBegin
  2
BLKF091
 70
     0
 71
     0
 10
0.0
 20
0.0
 30
0.0
  3
BLKF091
  1

  0
LINE
  5
597
330
593
100
AcDbEntity
  8
GR1-1
  6
CONTINUOUS
 62
     2
100
AcDbLine
 10
747.698659
 20
175.7516
 30
0.0
 11
754.600598
 21
181.357985
 31
0.0
  0
INSERT
  5
598
330
593
100
AcDbEntity
  8
GR1-1
  6
CONTINUOUS
 62
     2
100
AcDbBlockReference
  2
FXTIP_BLACKTRIANGLE_S
 10
747.698659
 20
175.7516
 30
0.0
 41
2.0
 42
2.0
 50
219.086655
  0
LINE
  5
599
330
593
100
AcDbEntity
  8
GR1-1
  6
CONTINUOUS
 62
     2
100
AcDbLine
 10
754.600598
 20
181.357985
 30
0.0
 11
755.380598
 21
181.357985
 31
0.0
  0
TEXT
  5
59A
330
593
100
AcDbEntity
  8
GR1-1
  6
CONTINUOUS
 62
     4
100
AcDbText
 10
754.654609
 20
182.03793
 30
0.0
 40
1.5
  1
吊上げ用特殊インサート
 41
0.7
  7
FX_VECTOR
 72
     5
 11
766.204609
 21
182.03793
 31
0.0
100
AcDbText
  0
ENDBLK
  5
595
330
593
100
AcDbEntity
  8
0
100
AcDbBlockEnd
  0
BLOCK
  5
59E
330
59D
100
AcDbEntity
  8
0
100
AcDbBlockBegin
  2
BLKF092
 70
     0
 71
     0
 10
0.0
 20
0.0
 30
0.0
  3
BLKF092
  1

  0
LINE
  5
5A1
330
59D
100
AcDbEntity
  8
GR1-1
  6
CONTINUOUS
 62
     2
100
AcDbLine
 10
747.846066
 20
173.712777
 30
0.0
 11
751.500176
 21
175.375552
 31
0.0
  0
INSERT
  5
5A2
330
59D
100
AcDbEntity
  8
GR1-1
  6
CONTINUOUS
 62
     2
100
AcDbBlockReference
  2
FXTIP_BLACKTRIANGLE_S
 10
747.846066
 20
173.712777
 30
0.0
 41
2.0
 42
2.0
 50
204.467548
  0
LINE
  5
5A3
330
59D
100
AcDbEntity
  8
GR1-1
  6
CONTINUOUS
 62
     2
100
AcDbLine
 10
751.500176
 20
175.375552
 30
0.0
 11
752.280176
 21
175.375552
 31
0.0
  0
TEXT
  5
5A4
330
59D
100
AcDbEntity
  8
GR1-1
  6
CONTINUOUS
 62
     4
100
AcDbText
 10
751.562813
 20
175.727031
 30
0.0
 40
1.5
  1
ガイドピン４号
 41
0.7
  7
FX_VECTOR
 72
     5
 11
758.912813
 21
175.727031
 31
0.0
100
AcDbText
  0
ENDBLK
  5
59F
330
59D
100
AcDbEntity
  8
0
100
AcDbBlockEnd
  0
BLOCK
  5
5AA
330
5A9
100
AcDbEntity
  8
0
100
AcDbBlockBegin
  2
BLKF093
 70
     0
 71
     0
 10
0.0
 20
0.0
 30
0.0
  3
BLKF093
  1

  0
LINE
  5
5AD
330
5A9
100
AcDbEntity
  8
GR1-1
  6
CONTINUOUS
 62
     2
100
AcDbLine
 10
745.060901
 20
205.829465
 30
0.0
 11
745.060901
 21
207.816345
 31
0.0
  0
LINE
  5
5AE
330
5A9
100
AcDbEntity
  8
GR1-1
  6
CONTINUOUS
 62
     2
100
AcDbLine
 10
741.260901
 20
205.829465
 30
0.0
 11
741.260901
 21
207.816345
 31
0.0
  0
LINE
  5
5AF
330
5A9
100
AcDbEntity
  8
GR1-1
  6
CONTINUOUS
 62
     2
100
AcDbLine
 10
744.280901
 20
207.216345
 30
0.0
 11
742.040901
 21
207.216345
 31
0.0
  0
TEXT
  5
5B0
330
5A9
100
AcDbEntity
  8
GR1-1
  6
CONTINUOUS
 62
     4
100
AcDbText
 10
741.405078
 20
207.892852
 30
0.0
 40
1.5
  1
190
 41
0.7
  7
FX_VECTOR
 72
     5
 11
744.555078
 21
207.892852
 31
0.0
100
AcDbText
  0
LINE
  5
5B1
330
5A9
100
AcDbEntity
  8
GR1-1
  6
CONTINUOUS
 62
     2
100
AcDbLine
 10
744.280901
 20
207.346345
 30
0.0
 11
744.280901
 21
207.086345
 31
0.0
  0
LINE
  5
5B2
330
5A9
100
AcDbEntity
  8
GR1-1
  6
CONTINUOUS
 62
     2
100
AcDbLine
 10
744.280901
 20
207.086345
 30
0.0
 11
745.060901
 21
207.216345
 31
0.0
  0
LINE
  5
5B3
330
5A9
100
AcDbEntity
  8
GR1-1
  6
CONTINUOUS
 62
     2
100
AcDbLine
 10
745.060901
 20
207.216345
 30
0.0
 11
744.280901
 21
207.346345
 31
0.0
  0
LINE
  5
5B4
330
5A9
100
AcDbEntity
  8
GR1-1
  6
CONTINUOUS
 62
     2
100
AcDbLine
 10
742.040901
 20
207.346345
 30
0.0
 11
742.040901
 21
207.086345
 31
0.0
  0
LINE
  5
5B5
330
5A9
100
AcDbEntity
  8
GR1-1
  6
CONTINUOUS
 62
     2
100
AcDbLine
 10
742.040901
 20
207.086345
 30
0.0
 11
741.260901
 21
207.216345
 31
0.0
  0
LINE
  5
5B6
330
5A9
100
AcDbEntity
  8
GR1-1
  6
CONTINUOUS
 62
     2
100
AcDbLine
 10
741.260901
 20
207.216345
 30
0.0
 11
742.040901
 21
207.346345
 31
0.0
  0
ENDBLK
  5
5AB
330
5A9
100
AcDbEntity
  8
0
100
AcDbBlockEnd
  0
BLOCK
  5
5B8
330
5B7
100
AcDbEntity
  8
0
100
AcDbBlockBegin
  2
BLKF094
 70
     0
 71
     0
 10
0.0
 20
0.0
 30
0.0
  3
BLKF094
  1

  0
LINE
  5
5BB
330
5B7
100
AcDbEntity
  8
GR1-1
  6
CONTINUOUS
 62
     2
100
AcDbLine
 10
741.260901
 20
205.829465
 30
0.0
 11
741.260901
 21
213.292001
 31
0.0
  0
LINE
  5
5BC
330
5B7
100
AcDbEntity
  8
GR1-1
  6
CONTINUOUS
 62
     2
100
AcDbLine
 10
753.660901
 20
205.829465
 30
0.0
 11
753.660901
 21
213.292001
 31
0.0
  0
LINE
  5
5BD
330
5B7
100
AcDbEntity
  8
GR1-1
  6
CONTINUOUS
 62
     2
100
AcDbLine
 10
742.040901
 20
212.692001
 30
0.0
 11
752.880901
 21
212.692001
 31
0.0
  0
LINE
  5
5BE
330
5B7
100
AcDbEntity
  8
GR1-1
  6
CONTINUOUS
 62
     2
100
AcDbLine
 10
742.040901
 20
212.822001
 30
0.0
 11
742.040901
 21
212.562001
 31
0.0
  0
LINE
  5
5BF
330
5B7
100
AcDbEntity
  8
GR1-1
  6
CONTINUOUS
 62
     2
100
AcDbLine
 10
742.040901
 20
212.562001
 30
0.0
 11
741.260901
 21
212.692001
 31
0.0
  0
LINE
  5
5C0
330
5B7
100
AcDbEntity
  8
GR1-1
  6
CONTINUOUS
 62
     2
100
AcDbLine
 10
741.260901
 20
212.692001
 30
0.0
 11
742.040901
 21
212.822001
 31
0.0
  0
LINE
  5
5C1
330
5B7
100
AcDbEntity
  8
GR1-1
  6
CONTINUOUS
 62
     2
100
AcDbLine
 10
752.880901
 20
212.822001
 30
0.0
 11
752.880901
 21
212.562001
 31
0.0
  0
LINE
  5
5C2
330
5B7
100
AcDbEntity
  8
GR1-1
  6
CONTINUOUS
 62
     2
100
AcDbLine
 10
752.880901
 20
212.562001
 30
0.0
 11
753.660901
 21
212.692001
 31
0.0
  0
LINE
  5
5C3
330
5B7
100
AcDbEntity
  8
GR1-1
  6
CONTINUOUS
 62
     2
100
AcDbLine
 10
753.660901
 20
212.692001
 30
0.0
 11
752.880901
 21
212.822001
 31
0.0
  0
TEXT
  5
5C4
330
5B7
100
AcDbEntity
  8
GR1-1
  6
CONTINUOUS
 62
     4
100
AcDbText
 10
745.885859
 20
213.291992
 30
0.0
 40
1.5
  1
620
 41
0.7
  7
FX_VECTOR
 72
     5
 11
749.035859
 21
213.291992
 31
0.0
100
AcDbText
  0
ENDBLK
  5
5B9
330
5B7
100
AcDbEntity
  8
0
100
AcDbBlockEnd
  0
BLOCK
  5
5C7
330
5C6
100
AcDbEntity
  8
0
100
AcDbBlockBegin
  2
BLKF095
 70
     0
 71
     0
 10
0.0
 20
0.0
 30
0.0
  3
BLKF095
  1

  0
LINE
  5
5CA
330
5C6
100
AcDbEntity
  8
GR1-1
  6
CONTINUOUS
 62
     2
100
AcDbLine
 10
745.460901
 20
205.829465
 30
0.0
 11
745.460901
 21
207.816345
 31
0.0
  0
LINE
  5
5CB
330
5C6
100
AcDbEntity
  8
GR1-1
  6
CONTINUOUS
 62
     2
100
AcDbLine
 10
749.460901
 20
205.829465
 30
0.0
 11
749.460901
 21
207.816345
 31
0.0
  0
LINE
  5
5CC
330
5C6
100
AcDbEntity
  8
GR1-1
  6
CONTINUOUS
 62
     2
100
AcDbLine
 10
746.240901
 20
207.216345
 30
0.0
 11
748.680901
 21
207.216345
 31
0.0
  0
TEXT
  5
5CD
330
5C6
100
AcDbEntity
  8
GR1-1
  6
CONTINUOUS
 62
     4
100
AcDbText
 10
745.949766
 20
207.897891
 30
0.0
 40
1.5
  1
200
 41
0.7
  7
FX_VECTOR
 72
     5
 11
749.099766
 21
207.897891
 31
0.0
100
AcDbText
  0
LINE
  5
5CE
330
5C6
100
AcDbEntity
  8
GR1-1
  6
CONTINUOUS
 62
     2
100
AcDbLine
 10
746.240901
 20
207.346345
 30
0.0
 11
746.240901
 21
207.086345
 31
0.0
  0
LINE
  5
5CF
330
5C6
100
AcDbEntity
  8
GR1-1
  6
CONTINUOUS
 62
     2
100
AcDbLine
 10
746.240901
 20
207.086345
 30
0.0
 11
745.460901
 21
207.216345
 31
0.0
  0
LINE
  5
5D0
330
5C6
100
AcDbEntity
  8
GR1-1
  6
CONTINUOUS
 62
     2
100
AcDbLine
 10
745.460901
 20
207.216345
 30
0.0
 11
746.240901
 21
207.346345
 31
0.0
  0
LINE
  5
5D1
330
5C6
100
AcDbEntity
  8
GR1-1
  6
CONTINUOUS
 62
     2
100
AcDbLine
 10
748.680901
 20
207.346345
 30
0.0
 11
748.680901
 21
207.086345
 31
0.0
  0
LINE
  5
5D2
330
5C6
100
AcDbEntity
  8
GR1-1
  6
CONTINUOUS
 62
     2
100
AcDbLine
 10
748.680901
 20
207.086345
 30
0.0
 11
749.460901
 21
207.216345
 31
0.0
  0
LINE
  5
5D3
330
5C6
100
AcDbEntity
  8
GR1-1
  6
CONTINUOUS
 62
     2
100
AcDbLine
 10
749.460901
 20
207.216345
 30
0.0
 11
748.680901
 21
207.346345
 31
0.0
  0
ENDBLK
  5
5C8
330
5C6
100
AcDbEntity
  8
0
100
AcDbBlockEnd
  0
BLOCK
  5
5D5
330
5D4
100
AcDbEntity
  8
0
100
AcDbBlockBegin
  2
BLKF096
 70
     0
 71
     0
 10
0.0
 20
0.0
 30
0.0
  3
BLKF096
  1

  0
LINE
  5
5D8
330
5D4
100
AcDbEntity
  8
GR1-1
  6
CONTINUOUS
 62
     2
100
AcDbLine
 10
745.060901
 20
205.829465
 30
0.0
 11
745.060901
 21
210.782325
 31
0.0
  0
LINE
  5
5D9
330
5D4
100
AcDbEntity
  8
GR1-1
  6
CONTINUOUS
 62
     2
100
AcDbLine
 10
745.460901
 20
205.829465
 30
0.0
 11
745.460901
 21
210.782325
 31
0.0
  0
LINE
  5
5DA
330
5D4
100
AcDbEntity
  8
GR1-1
  6
CONTINUOUS
 62
     2
100
AcDbLine
 10
744.280901
 20
210.182325
 30
0.0
 11
743.500901
 21
210.182325
 31
0.0
  0
LINE
  5
5DB
330
5D4
100
AcDbEntity
  8
GR1-1
  6
CONTINUOUS
 62
     2
100
AcDbLine
 10
746.240901
 20
210.182325
 30
0.0
 11
747.020901
 21
210.182325
 31
0.0
  0
TEXT
  5
5DC
330
5D4
100
AcDbEntity
  8
GR1-1
  6
CONTINUOUS
 62
     4
100
AcDbText
 10
744.201719
 20
210.709961
 30
0.0
 40
1.5
  1
20
 41
0.7
  7
FX_VECTOR
 72
     5
 11
746.301719
 21
210.709961
 31
0.0
100
AcDbText
  0
LINE
  5
5DD
330
5D4
100
AcDbEntity
  8
GR1-1
  6
CONTINUOUS
 62
     2
100
AcDbLine
 10
744.280901
 20
210.312325
 30
0.0
 11
744.280901
 21
210.052325
 31
0.0
  0
LINE
  5
5DE
330
5D4
100
AcDbEntity
  8
GR1-1
  6
CONTINUOUS
 62
     2
100
AcDbLine
 10
744.280901
 20
210.052325
 30
0.0
 11
745.060901
 21
210.182325
 31
0.0
  0
LINE
  5
5DF
330
5D4
100
AcDbEntity
  8
GR1-1
  6
CONTINUOUS
 62
     2
100
AcDbLine
 10
745.060901
 20
210.182325
 30
0.0
 11
744.280901
 21
210.312325
 31
0.0
  0
LINE
  5
5E0
330
5D4
100
AcDbEntity
  8
GR1-1
  6
CONTINUOUS
 62
     2
100
AcDbLine
 10
746.240901
 20
210.312325
 30
0.0
 11
746.240901
 21
210.052325
 31
0.0
  0
LINE
  5
5E1
330
5D4
100
AcDbEntity
  8
GR1-1
  6
CONTINUOUS
 62
     2
100
AcDbLine
 10
746.240901
 20
210.052325
 30
0.0
 11
745.460901
 21
210.182325
 31
0.0
  0
LINE
  5
5E2
330
5D4
100
AcDbEntity
  8
GR1-1
  6
CONTINUOUS
 62
     2
100
AcDbLine
 10
745.460901
 20
210.182325
 30
0.0
 11
746.240901
 21
210.312325
 31
0.0
  0
ENDBLK
  5
5D6
330
5D4
100
AcDbEntity
  8
0
100
AcDbBlockEnd
  0
BLOCK
  5
5F0
330
5EF
100
AcDbEntity
  8
0
100
AcDbBlockBegin
  2
BLKF097
 70
     0
 71
     0
 10
0.0
 20
0.0
 30
0.0
  3
BLKF097
  1

  0
LINE
  5
5F3
330
5EF
100
AcDbEntity
  8
GR1-1
  6
CONTINUOUS
 62
     2
100
AcDbLine
 10
749.860901
 20
205.829465
 30
0.0
 11
749.860901
 21
207.816345
 31
0.0
  0
LINE
  5
5F4
330
5EF
100
AcDbEntity
  8
GR1-1
  6
CONTINUOUS
 62
     2
100
AcDbLine
 10
753.660901
 20
205.829465
 30
0.0
 11
753.660901
 21
207.816345
 31
0.0
  0
LINE
  5
5F5
330
5EF
100
AcDbEntity
  8
GR1-1
  6
CONTINUOUS
 62
     2
100
AcDbLine
 10
750.640901
 20
207.216345
 30
0.0
 11
752.880901
 21
207.216345
 31
0.0
  0
TEXT
  5
5F6
330
5EF
100
AcDbEntity
  8
GR1-1
  6
CONTINUOUS
 62
     4
100
AcDbText
 10
749.998516
 20
207.817578
 30
0.0
 40
1.5
  1
190
 41
0.7
  7
FX_VECTOR
 72
     5
 11
753.148516
 21
207.817578
 31
0.0
100
AcDbText
  0
LINE
  5
5F7
330
5EF
100
AcDbEntity
  8
GR1-1
  6
CONTINUOUS
 62
     2
100
AcDbLine
 10
750.640901
 20
207.346345
 30
0.0
 11
750.640901
 21
207.086345
 31
0.0
  0
LINE
  5
5F8
330
5EF
100
AcDbEntity
  8
GR1-1
  6
CONTINUOUS
 62
     2
100
AcDbLine
 10
750.640901
 20
207.086345
 30
0.0
 11
749.860901
 21
207.216345
 31
0.0
  0
LINE
  5
5F9
330
5EF
100
AcDbEntity
  8
GR1-1
  6
CONTINUOUS
 62
     2
100
AcDbLine
 10
749.860901
 20
207.216345
 30
0.0
 11
750.640901
 21
207.346345
 31
0.0
  0
LINE
  5
5FA
330
5EF
100
AcDbEntity
  8
GR1-1
  6
CONTINUOUS
 62
     2
100
AcDbLine
 10
752.880901
 20
207.346345
 30
0.0
 11
752.880901
 21
207.086345
 31
0.0
  0
LINE
  5
5FB
330
5EF
100
AcDbEntity
  8
GR1-1
  6
CONTINUOUS
 62
     2
100
AcDbLine
 10
752.880901
 20
207.086345
 30
0.0
 11
753.660901
 21
207.216345
 31
0.0
  0
LINE
  5
5FC
330
5EF
100
AcDbEntity
  8
GR1-1
  6
CONTINUOUS
 62
     2
100
AcDbLine
 10
753.660901
 20
207.216345
 30
0.0
 11
752.880901
 21
207.346345
 31
0.0
  0
ENDBLK
  5
5F1
330
5EF
100
AcDbEntity
  8
0
100
AcDbBlockEnd
  0
BLOCK
  5
5FE
330
5FD
100
AcDbEntity
  8
0
100
AcDbBlockBegin
  2
BLKF098
 70
     0
 71
     0
 10
0.0
 20
0.0
 30
0.0
  3
BLKF098
  1

  0
LINE
  5
601
330
5FD
100
AcDbEntity
  8
GR1-1
  6
CONTINUOUS
 62
     2
100
AcDbLine
 10
749.460901
 20
205.829465
 30
0.0
 11
749.460901
 21
210.782325
 31
0.0
  0
LINE
  5
602
330
5FD
100
AcDbEntity
  8
GR1-1
  6
CONTINUOUS
 62
     2
100
AcDbLine
 10
749.860901
 20
205.829465
 30
0.0
 11
749.860901
 21
210.782325
 31
0.0
  0
LINE
  5
603
330
5FD
100
AcDbEntity
  8
GR1-1
  6
CONTINUOUS
 62
     2
100
AcDbLine
 10
748.680901
 20
210.182325
 30
0.0
 11
747.900901
 21
210.182325
 31
0.0
  0
LINE
  5
604
330
5FD
100
AcDbEntity
  8
GR1-1
  6
CONTINUOUS
 62
     2
100
AcDbLine
 10
750.640901
 20
210.182325
 30
0.0
 11
751.420901
 21
210.182325
 31
0.0
  0
TEXT
  5
605
330
5FD
100
AcDbEntity
  8
GR1-1
  6
CONTINUOUS
 62
     4
100
AcDbText
 10
748.583438
 20
210.709961
 30
0.0
 40
1.5
  1
20
 41
0.7
  7
FX_VECTOR
 72
     5
 11
750.683438
 21
210.709961
 31
0.0
100
AcDbText
  0
LINE
  5
606
330
5FD
100
AcDbEntity
  8
GR1-1
  6
CONTINUOUS
 62
     2
100
AcDbLine
 10
748.680901
 20
210.312325
 30
0.0
 11
748.680901
 21
210.052325
 31
0.0
  0
LINE
  5
607
330
5FD
100
AcDbEntity
  8
GR1-1
  6
CONTINUOUS
 62
     2
100
AcDbLine
 10
748.680901
 20
210.052325
 30
0.0
 11
749.460901
 21
210.182325
 31
0.0
  0
LINE
  5
608
330
5FD
100
AcDbEntity
  8
GR1-1
  6
CONTINUOUS
 62
     2
100
AcDbLine
 10
749.460901
 20
210.182325
 30
0.0
 11
748.680901
 21
210.312325
 31
0.0
  0
LINE
  5
609
330
5FD
100
AcDbEntity
  8
GR1-1
  6
CONTINUOUS
 62
     2
100
AcDbLine
 10
750.640901
 20
210.312325
 30
0.0
 11
750.640901
 21
210.052325
 31
0.0
  0
LINE
  5
60A
330
5FD
100
AcDbEntity
  8
GR1-1
  6
CONTINUOUS
 62
     2
100
AcDbLine
 10
750.640901
 20
210.052325
 30
0.0
 11
749.860901
 21
210.182325
 31
0.0
  0
LINE
  5
60B
330
5FD
100
AcDbEntity
  8
GR1-1
  6
CONTINUOUS
 62
     2
100
AcDbLine
 10
749.860901
 20
210.182325
 30
0.0
 11
750.640901
 21
210.312325
 31
0.0
  0
ENDBLK
  5
5FF
330
5FD
100
AcDbEntity
  8
0
100
AcDbBlockEnd
  0
BLOCK
  5
60F
330
60E
100
AcDbEntity
  8
0
100
AcDbBlockBegin
  2
BLKF099
 70
     0
 71
     0
 10
0.0
 20
0.0
 30
0.0
  3
BLKF099
  1

  0
LINE
  5
612
330
60E
100
AcDbEntity
  8
GR1-1
  6
CONTINUOUS
 62
     2
100
AcDbLine
 10
754.610901
 20
132.183305
 30
0.0
 11
760.440628
 21
132.183305
 31
0.0
  0
LINE
  5
613
330
60E
100
AcDbEntity
  8
GR1-1
  6
CONTINUOUS
 62
     2
100
AcDbLine
 10
754.610901
 20
146.49414
 30
0.0
 11
760.440628
 21
146.49414
 31
0.0
  0
LINE
  5
614
330
60E
100
AcDbEntity
  8
GR1-1
  6
CONTINUOUS
 62
     2
100
AcDbLine
 10
759.840628
 20
132.963305
 30
0.0
 11
759.840628
 21
145.71414
 31
0.0
  0
LINE
  5
615
330
60E
100
AcDbEntity
  8
GR1-1
  6
CONTINUOUS
 62
     2
100
AcDbLine
 10
759.710628
 20
132.963305
 30
0.0
 11
759.970628
 21
132.963305
 31
0.0
  0
LINE
  5
616
330
60E
100
AcDbEntity
  8
GR1-1
  6
CONTINUOUS
 62
     2
100
AcDbLine
 10
759.970628
 20
132.963305
 30
0.0
 11
759.840628
 21
132.183305
 31
0.0
  0
LINE
  5
617
330
60E
100
AcDbEntity
  8
GR1-1
  6
CONTINUOUS
 62
     2
100
AcDbLine
 10
759.840628
 20
132.183305
 30
0.0
 11
759.710628
 21
132.963305
 31
0.0
  0
LINE
  5
618
330
60E
100
AcDbEntity
  8
GR1-1
  6
CONTINUOUS
 62
     2
100
AcDbLine
 10
759.710628
 20
145.71414
 30
0.0
 11
759.970628
 21
145.71414
 31
0.0
  0
LINE
  5
619
330
60E
100
AcDbEntity
  8
GR1-1
  6
CONTINUOUS
 62
     2
100
AcDbLine
 10
759.970628
 20
145.71414
 30
0.0
 11
759.840628
 21
146.49414
 31
0.0
  0
LINE
  5
61A
330
60E
100
AcDbEntity
  8
GR1-1
  6
CONTINUOUS
 62
     2
100
AcDbLine
 10
759.840628
 20
146.49414
 30
0.0
 11
759.710628
 21
145.71414
 31
0.0
  0
TEXT
  5
61B
330
60E
100
AcDbEntity
  8
GR1-1
  6
CONTINUOUS
 62
     4
100
AcDbText
 10
759.240625
 20
136.713711
 30
0.0
 40
1.5
  1
715.5
 50
90.0
 41
0.7
  7
FX_VECTOR
 72
     5
 11
759.240625
 21
141.963711
 31
0.0
100
AcDbText
  0
ENDBLK
  5
610
330
60E
100
AcDbEntity
  8
0
100
AcDbBlockEnd
  0
BLOCK
  5
61D
330
61C
100
AcDbEntity
  8
0
100
AcDbBlockBegin
  2
BLKF100
 70
     0
 71
     0
 10
0.0
 20
0.0
 30
0.0
  3
BLKF100
  1

  0
LINE
  5
620
330
61C
100
AcDbEntity
  8
GR1-1
  6
CONTINUOUS
 62
     2
100
AcDbLine
 10
741.210901
 20
131.283305
 30
0.0
 11
741.210901
 21
123.290856
 31
0.0
  0
LINE
  5
621
330
61C
100
AcDbEntity
  8
GR1-1
  6
CONTINUOUS
 62
     2
100
AcDbLine
 10
753.710901
 20
131.283305
 30
0.0
 11
753.710901
 21
123.290856
 31
0.0
  0
LINE
  5
622
330
61C
100
AcDbEntity
  8
GR1-1
  6
CONTINUOUS
 62
     2
100
AcDbLine
 10
741.990901
 20
123.890856
 30
0.0
 11
752.930901
 21
123.890856
 31
0.0
  0
LINE
  5
623
330
61C
100
AcDbEntity
  8
GR1-1
  6
CONTINUOUS
 62
     2
100
AcDbLine
 10
741.990901
 20
124.020856
 30
0.0
 11
741.990901
 21
123.760856
 31
0.0
  0
LINE
  5
624
330
61C
100
AcDbEntity
  8
GR1-1
  6
CONTINUOUS
 62
     2
100
AcDbLine
 10
741.990901
 20
123.760856
 30
0.0
 11
741.210901
 21
123.890856
 31
0.0
  0
LINE
  5
625
330
61C
100
AcDbEntity
  8
GR1-1
  6
CONTINUOUS
 62
     2
100
AcDbLine
 10
741.210901
 20
123.890856
 30
0.0
 11
741.990901
 21
124.020856
 31
0.0
  0
LINE
  5
626
330
61C
100
AcDbEntity
  8
GR1-1
  6
CONTINUOUS
 62
     2
100
AcDbLine
 10
752.930901
 20
124.020856
 30
0.0
 11
752.930901
 21
123.760856
 31
0.0
  0
LINE
  5
627
330
61C
100
AcDbEntity
  8
GR1-1
  6
CONTINUOUS
 62
     2
100
AcDbLine
 10
752.930901
 20
123.760856
 30
0.0
 11
753.710901
 21
123.890856
 31
0.0
  0
LINE
  5
628
330
61C
100
AcDbEntity
  8
GR1-1
  6
CONTINUOUS
 62
     2
100
AcDbLine
 10
753.710901
 20
123.890856
 30
0.0
 11
752.930901
 21
124.020856
 31
0.0
  0
TEXT
  5
629
330
61C
100
AcDbEntity
  8
GR1-1
  6
CONTINUOUS
 62
     4
100
AcDbText
 10
745.885859
 20
124.490859
 30
0.0
 40
1.5
  1
625
 41
0.7
  7
FX_VECTOR
 72
     5
 11
749.035859
 21
124.490859
 31
0.0
100
AcDbText
  0
ENDBLK
  5
61E
330
61C
100
AcDbEntity
  8
0
100
AcDbBlockEnd
  0
BLOCK
  5
634
330
633
100
AcDbEntity
  8
0
100
AcDbBlockBegin
  2
BLKF101
 70
     0
 71
     0
 10
0.0
 20
0.0
 30
0.0
  3
BLKF101
  1

  0
LINE
  5
637
330
633
100
AcDbEntity
  8
GR1-1
  6
CONTINUOUS
 62
     2
100
AcDbLine
 10
798.967962
 20
82.825105
 30
0.0
 11
798.967962
 21
76.21319
 31
0.0
  0
LINE
  5
638
330
633
100
AcDbEntity
  8
GR1-1
  6
CONTINUOUS
 62
     2
100
AcDbLine
 10
803.217962
 20
82.825105
 30
0.0
 11
803.217962
 21
76.21319
 31
0.0
  0
LINE
  5
639
330
633
100
AcDbEntity
  8
GR1-1
  6
CONTINUOUS
 62
     2
100
AcDbLine
 10
799.747962
 20
76.81319
 30
0.0
 11
802.437962
 21
76.81319
 31
0.0
  0
TEXT
  5
63A
330
633
100
AcDbEntity
  8
GR1-1
  6
CONTINUOUS
 62
     4
100
AcDbText
 10
798.427266
 20
77.4252
 30
0.0
 40
1.5
  1
212.5
 41
0.7
  7
FX_VECTOR
 72
     5
 11
803.677266
 21
77.4252
 31
0.0
100
AcDbText
  0
LINE
  5
63B
330
633
100
AcDbEntity
  8
GR1-1
  6
CONTINUOUS
 62
     2
100
AcDbLine
 10
799.747962
 20
76.94319
 30
0.0
 11
799.747962
 21
76.68319
 31
0.0
  0
LINE
  5
63C
330
633
100
AcDbEntity
  8
GR1-1
  6
CONTINUOUS
 62
     2
100
AcDbLine
 10
799.747962
 20
76.68319
 30
0.0
 11
798.967962
 21
76.81319
 31
0.0
  0
LINE
  5
63D
330
633
100
AcDbEntity
  8
GR1-1
  6
CONTINUOUS
 62
     2
100
AcDbLine
 10
798.967962
 20
76.81319
 30
0.0
 11
799.747962
 21
76.94319
 31
0.0
  0
LINE
  5
63E
330
633
100
AcDbEntity
  8
GR1-1
  6
CONTINUOUS
 62
     2
100
AcDbLine
 10
802.437962
 20
76.94319
 30
0.0
 11
802.437962
 21
76.68319
 31
0.0
  0
LINE
  5
63F
330
633
100
AcDbEntity
  8
GR1-1
  6
CONTINUOUS
 62
     2
100
AcDbLine
 10
802.437962
 20
76.68319
 30
0.0
 11
803.217962
 21
76.81319
 31
0.0
  0
LINE
  5
640
330
633
100
AcDbEntity
  8
GR1-1
  6
CONTINUOUS
 62
     2
100
AcDbLine
 10
803.217962
 20
76.81319
 30
0.0
 11
802.437962
 21
76.94319
 31
0.0
  0
ENDBLK
  5
635
330
633
100
AcDbEntity
  8
0
100
AcDbBlockEnd
  0
BLOCK
  5
642
330
641
100
AcDbEntity
  8
0
100
AcDbBlockBegin
  2
BLKF102
 70
     0
 71
     0
 10
0.0
 20
0.0
 30
0.0
  3
BLKF102
  1

  0
LINE
  5
645
330
641
100
AcDbEntity
  8
GR1-1
  6
CONTINUOUS
 62
     2
100
AcDbLine
 10
790.717962
 20
82.825105
 30
0.0
 11
790.717962
 21
72.998267
 31
0.0
  0
LINE
  5
646
330
641
100
AcDbEntity
  8
GR1-1
  6
CONTINUOUS
 62
     2
100
AcDbLine
 10
803.217962
 20
82.825105
 30
0.0
 11
803.217962
 21
72.998267
 31
0.0
  0
LINE
  5
647
330
641
100
AcDbEntity
  8
GR1-1
  6
CONTINUOUS
 62
     2
100
AcDbLine
 10
791.497962
 20
73.598267
 30
0.0
 11
802.437962
 21
73.598267
 31
0.0
  0
LINE
  5
648
330
641
100
AcDbEntity
  8
GR1-1
  6
CONTINUOUS
 62
     2
100
AcDbLine
 10
791.497962
 20
73.728267
 30
0.0
 11
791.497962
 21
73.468267
 31
0.0
  0
LINE
  5
649
330
641
100
AcDbEntity
  8
GR1-1
  6
CONTINUOUS
 62
     2
100
AcDbLine
 10
791.497962
 20
73.468267
 30
0.0
 11
790.717962
 21
73.598267
 31
0.0
  0
LINE
  5
64A
330
641
100
AcDbEntity
  8
GR1-1
  6
CONTINUOUS
 62
     2
100
AcDbLine
 10
790.717962
 20
73.598267
 30
0.0
 11
791.497962
 21
73.728267
 31
0.0
  0
LINE
  5
64B
330
641
100
AcDbEntity
  8
GR1-1
  6
CONTINUOUS
 62
     2
100
AcDbLine
 10
802.437962
 20
73.728267
 30
0.0
 11
802.437962
 21
73.468267
 31
0.0
  0
LINE
  5
64C
330
641
100
AcDbEntity
  8
GR1-1
  6
CONTINUOUS
 62
     2
100
AcDbLine
 10
802.437962
 20
73.468267
 30
0.0
 11
803.217962
 21
73.598267
 31
0.0
  0
LINE
  5
64D
330
641
100
AcDbEntity
  8
GR1-1
  6
CONTINUOUS
 62
     2
100
AcDbLine
 10
803.217962
 20
73.598267
 30
0.0
 11
802.437962
 21
73.728267
 31
0.0
  0
TEXT
  5
64E
330
641
100
AcDbEntity
  8
GR1-1
  6
CONTINUOUS
 62
     4
100
AcDbText
 10
795.392969
 20
74.198267
 30
0.0
 40
1.5
  1
625
 41
0.7
  7
FX_VECTOR
 72
     5
 11
798.542969
 21
74.198267
 31
0.0
100
AcDbText
  0
ENDBLK
  5
643
330
641
100
AcDbEntity
  8
0
100
AcDbBlockEnd
  0
BLOCK
  5
650
330
64F
100
AcDbEntity
  8
0
100
AcDbBlockBegin
  2
BLKF103
 70
     0
 71
     0
 10
0.0
 20
0.0
 30
0.0
  3
BLKF103
  1

  0
LINE
  5
653
330
64F
100
AcDbEntity
  8
GR1-1
  6
CONTINUOUS
 62
     2
100
AcDbLine
 10
794.967962
 20
82.825105
 30
0.0
 11
794.967962
 21
76.21319
 31
0.0
  0
LINE
  5
654
330
64F
100
AcDbEntity
  8
GR1-1
  6
CONTINUOUS
 62
     2
100
AcDbLine
 10
790.717962
 20
82.825105
 30
0.0
 11
790.717962
 21
76.21319
 31
0.0
  0
LINE
  5
655
330
64F
100
AcDbEntity
  8
GR1-1
  6
CONTINUOUS
 62
     2
100
AcDbLine
 10
794.187962
 20
76.81319
 30
0.0
 11
791.497962
 21
76.81319
 31
0.0
  0
TEXT
  5
656
330
64F
100
AcDbEntity
  8
GR1-1
  6
CONTINUOUS
 62
     4
100
AcDbText
 10
790.186406
 20
77.4252
 30
0.0
 40
1.5
  1
212.5
 41
0.7
  7
FX_VECTOR
 72
     5
 11
795.436406
 21
77.4252
 31
0.0
100
AcDbText
  0
LINE
  5
657
330
64F
100
AcDbEntity
  8
GR1-1
  6
CONTINUOUS
 62
     2
100
AcDbLine
 10
794.187962
 20
76.94319
 30
0.0
 11
794.187962
 21
76.68319
 31
0.0
  0
LINE
  5
658
330
64F
100
AcDbEntity
  8
GR1-1
  6
CONTINUOUS
 62
     2
100
AcDbLine
 10
794.187962
 20
76.68319
 30
0.0
 11
794.967962
 21
76.81319
 31
0.0
  0
LINE
  5
659
330
64F
100
AcDbEntity
  8
GR1-1
  6
CONTINUOUS
 62
     2
100
AcDbLine
 10
794.967962
 20
76.81319
 30
0.0
 11
794.187962
 21
76.94319
 31
0.0
  0
LINE
  5
65A
330
64F
100
AcDbEntity
  8
GR1-1
  6
CONTINUOUS
 62
     2
100
AcDbLine
 10
791.497962
 20
76.94319
 30
0.0
 11
791.497962
 21
76.68319
 31
0.0
  0
LINE
  5
65B
330
64F
100
AcDbEntity
  8
GR1-1
  6
CONTINUOUS
 62
     2
100
AcDbLine
 10
791.497962
 20
76.68319
 30
0.0
 11
790.717962
 21
76.81319
 31
0.0
  0
LINE
  5
65C
330
64F
100
AcDbEntity
  8
GR1-1
  6
CONTINUOUS
 62
     2
100
AcDbLine
 10
790.717962
 20
76.81319
 30
0.0
 11
791.497962
 21
76.94319
 31
0.0
  0
ENDBLK
  5
651
330
64F
100
AcDbEntity
  8
0
100
AcDbBlockEnd
  0
BLOCK
  5
65E
330
65D
100
AcDbEntity
  8
0
100
AcDbBlockBegin
  2
BLKF104
 70
     0
 71
     0
 10
0.0
 20
0.0
 30
0.0
  3
BLKF104
  1

  0
LINE
  5
661
330
65D
100
AcDbEntity
  8
GR1-1
  6
CONTINUOUS
 62
     2
100
AcDbLine
 10
798.967962
 20
82.825105
 30
0.0
 11
798.967962
 21
76.21319
 31
0.0
  0
LINE
  5
662
330
65D
100
AcDbEntity
  8
GR1-1
  6
CONTINUOUS
 62
     2
100
AcDbLine
 10
794.967962
 20
82.825105
 30
0.0
 11
794.967962
 21
76.21319
 31
0.0
  0
LINE
  5
663
330
65D
100
AcDbEntity
  8
GR1-1
  6
CONTINUOUS
 62
     2
100
AcDbLine
 10
798.187962
 20
76.81319
 30
0.0
 11
795.747962
 21
76.81319
 31
0.0
  0
TEXT
  5
664
330
65D
100
AcDbEntity
  8
GR1-1
  6
CONTINUOUS
 62
     4
100
AcDbText
 10
795.407344
 20
77.453286
 30
0.0
 40
1.5
  1
200
 41
0.7
  7
FX_VECTOR
 72
     5
 11
798.557344
 21
77.453286
 31
0.0
100
AcDbText
  0
LINE
  5
665
330
65D
100
AcDbEntity
  8
GR1-1
  6
CONTINUOUS
 62
     2
100
AcDbLine
 10
798.187962
 20
76.94319
 30
0.0
 11
798.187962
 21
76.68319
 31
0.0
  0
LINE
  5
666
330
65D
100
AcDbEntity
  8
GR1-1
  6
CONTINUOUS
 62
     2
100
AcDbLine
 10
798.187962
 20
76.68319
 30
0.0
 11
798.967962
 21
76.81319
 31
0.0
  0
LINE
  5
667
330
65D
100
AcDbEntity
  8
GR1-1
  6
CONTINUOUS
 62
     2
100
AcDbLine
 10
798.967962
 20
76.81319
 30
0.0
 11
798.187962
 21
76.94319
 31
0.0
  0
LINE
  5
668
330
65D
100
AcDbEntity
  8
GR1-1
  6
CONTINUOUS
 62
     2
100
AcDbLine
 10
795.747962
 20
76.94319
 30
0.0
 11
795.747962
 21
76.68319
 31
0.0
  0
LINE
  5
669
330
65D
100
AcDbEntity
  8
GR1-1
  6
CONTINUOUS
 62
     2
100
AcDbLine
 10
795.747962
 20
76.68319
 30
0.0
 11
794.967962
 21
76.81319
 31
0.0
  0
LINE
  5
66A
330
65D
100
AcDbEntity
  8
GR1-1
  6
CONTINUOUS
 62
     2
100
AcDbLine
 10
794.967962
 20
76.81319
 30
0.0
 11
795.747962
 21
76.94319
 31
0.0
  0
ENDBLK
  5
65F
330
65D
100
AcDbEntity
  8
0
100
AcDbBlockEnd
  0
BLOCK
  5
66C
330
66B
100
AcDbEntity
  8
0
100
AcDbBlockBegin
  2
BLKF105
 70
     0
 71
     0
 10
0.0
 20
0.0
 30
0.0
  3
BLKF105
  1

  0
LINE
  5
66F
330
66B
100
AcDbEntity
  8
GR1-1
  6
CONTINUOUS
 62
     2
100
AcDbLine
 10
796.967962
 20
82.825105
 30
0.0
 11
796.967962
 21
79.878686
 31
0.0
  0
LINE
  5
670
330
66B
100
AcDbEntity
  8
GR1-1
  6
CONTINUOUS
 62
     2
100
AcDbLine
 10
794.967962
 20
82.825105
 30
0.0
 11
794.967962
 21
79.878686
 31
0.0
  0
LINE
  5
671
330
66B
100
AcDbEntity
  8
GR1-1
  6
CONTINUOUS
 62
     2
100
AcDbLine
 10
797.747962
 20
80.478686
 30
0.0
 11
798.527962
 21
80.478686
 31
0.0
  0
LINE
  5
672
330
66B
100
AcDbEntity
  8
GR1-1
  6
CONTINUOUS
 62
     2
100
AcDbLine
 10
794.187962
 20
80.478686
 30
0.0
 11
793.407962
 21
80.478686
 31
0.0
  0
TEXT
  5
673
330
66B
100
AcDbEntity
  8
GR1-1
  6
CONTINUOUS
 62
     4
100
AcDbText
 10
791.511719
 20
80.856431
 30
0.0
 40
1.5
  1
100
 41
0.7
  7
FX_VECTOR
 72
     5
 11
794.661719
 21
80.856431
 31
0.0
100
AcDbText
  0
LINE
  5
674
330
66B
100
AcDbEntity
  8
GR1-1
  6
CONTINUOUS
 62
     2
100
AcDbLine
 10
797.747962
 20
80.608686
 30
0.0
 11
797.747962
 21
80.348686
 31
0.0
  0
LINE
  5
675
330
66B
100
AcDbEntity
  8
GR1-1
  6
CONTINUOUS
 62
     2
100
AcDbLine
 10
797.747962
 20
80.348686
 30
0.0
 11
796.967962
 21
80.478686
 31
0.0
  0
LINE
  5
676
330
66B
100
AcDbEntity
  8
GR1-1
  6
CONTINUOUS
 62
     2
100
AcDbLine
 10
796.967962
 20
80.478686
 30
0.0
 11
797.747962
 21
80.608686
 31
0.0
  0
LINE
  5
677
330
66B
100
AcDbEntity
  8
GR1-1
  6
CONTINUOUS
 62
     2
100
AcDbLine
 10
794.187962
 20
80.608686
 30
0.0
 11
794.187962
 21
80.348686
 31
0.0
  0
LINE
  5
678
330
66B
100
AcDbEntity
  8
GR1-1
  6
CONTINUOUS
 62
     2
100
AcDbLine
 10
794.187962
 20
80.348686
 30
0.0
 11
794.967962
 21
80.478686
 31
0.0
  0
LINE
  5
679
330
66B
100
AcDbEntity
  8
GR1-1
  6
CONTINUOUS
 62
     2
100
AcDbLine
 10
794.967962
 20
80.478686
 30
0.0
 11
794.187962
 21
80.608686
 31
0.0
  0
ENDBLK
  5
66D
330
66B
100
AcDbEntity
  8
0
100
AcDbBlockEnd
  0
BLOCK
  5
682
330
681
100
AcDbEntity
  8
0
100
AcDbBlockBegin
  2
BLKF106
 70
     0
 71
     0
 10
0.0
 20
0.0
 30
0.0
  3
BLKF106
  1

  0
LINE
  5
685
330
681
100
AcDbEntity
  8
GR1-1
  6
CONTINUOUS
 62
     2
100
AcDbLine
 10
803.217962
 20
89.105105
 30
0.0
 11
803.217962
 21
92.372095
 31
0.0
  0
LINE
  5
686
330
681
100
AcDbEntity
  8
GR1-1
  6
CONTINUOUS
 62
     2
100
AcDbLine
 10
802.217962
 20
89.105105
 30
0.0
 11
802.217962
 21
92.372095
 31
0.0
  0
LINE
  5
687
330
681
100
AcDbEntity
  8
GR1-1
  6
CONTINUOUS
 62
     2
100
AcDbLine
 10
803.997962
 20
91.772095
 30
0.0
 11
804.777962
 21
91.772095
 31
0.0
  0
LINE
  5
688
330
681
100
AcDbEntity
  8
GR1-1
  6
CONTINUOUS
 62
     2
100
AcDbLine
 10
801.437962
 20
91.772095
 30
0.0
 11
800.657962
 21
91.772095
 31
0.0
  0
TEXT
  5
689
330
681
100
AcDbEntity
  8
GR1-1
  6
CONTINUOUS
 62
     4
100
AcDbText
 10
799.877031
 20
92.237168
 30
0.0
 40
1.5
  1
50
 41
0.7
  7
FX_VECTOR
 72
     5
 11
801.977031
 21
92.237168
 31
0.0
100
AcDbText
  0
LINE
  5
68A
330
681
100
AcDbEntity
  8
GR1-1
  6
CONTINUOUS
 62
     2
100
AcDbLine
 10
803.997962
 20
91.902095
 30
0.0
 11
803.997962
 21
91.642095
 31
0.0
  0
LINE
  5
68B
330
681
100
AcDbEntity
  8
GR1-1
  6
CONTINUOUS
 62
     2
100
AcDbLine
 10
803.997962
 20
91.642095
 30
0.0
 11
803.217962
 21
91.772095
 31
0.0
  0
LINE
  5
68C
330
681
100
AcDbEntity
  8
GR1-1
  6
CONTINUOUS
 62
     2
100
AcDbLine
 10
803.217962
 20
91.772095
 30
0.0
 11
803.997962
 21
91.902095
 31
0.0
  0
LINE
  5
68D
330
681
100
AcDbEntity
  8
GR1-1
  6
CONTINUOUS
 62
     2
100
AcDbLine
 10
801.437962
 20
91.902095
 30
0.0
 11
801.437962
 21
91.642095
 31
0.0
  0
LINE
  5
68E
330
681
100
AcDbEntity
  8
GR1-1
  6
CONTINUOUS
 62
     2
100
AcDbLine
 10
801.437962
 20
91.642095
 30
0.0
 11
802.217962
 21
91.772095
 31
0.0
  0
LINE
  5
68F
330
681
100
AcDbEntity
  8
GR1-1
  6
CONTINUOUS
 62
     2
100
AcDbLine
 10
802.217962
 20
91.772095
 30
0.0
 11
801.437962
 21
91.902095
 31
0.0
  0
ENDBLK
  5
683
330
681
100
AcDbEntity
  8
0
100
AcDbBlockEnd
  0
BLOCK
  5
694
330
693
100
AcDbEntity
  8
0
100
AcDbBlockBegin
  2
BLKF107
 70
     0
 71
     0
 10
0.0
 20
0.0
 30
0.0
  3
BLKF107
  1

  0
LINE
  5
697
330
693
100
AcDbEntity
  8
GR1-1
  6
CONTINUOUS
 62
     2
100
AcDbLine
 10
741.390901
 20
146.321732
 30
0.0
 11
753.530901
 21
146.321732
 31
0.0
  0
LINE
  5
698
330
693
100
AcDbEntity
  8
GR1-1
  6
CONTINUOUS
 62
     2
100
AcDbLine
 10
753.530901
 20
146.321732
 30
0.0
 11
753.530901
 21
132.385411
 31
0.0
  0
LINE
  5
699
330
693
100
AcDbEntity
  8
GR1-1
  6
CONTINUOUS
 62
     2
100
AcDbLine
 10
753.530901
 20
132.385411
 30
0.0
 11
741.390901
 21
132.385411
 31
0.0
  0
LINE
  5
69A
330
693
100
AcDbEntity
  8
GR1-1
  6
CONTINUOUS
 62
     2
100
AcDbLine
 10
741.390901
 20
132.385411
 30
0.0
 11
741.390901
 21
146.321732
 31
0.0
  0
ENDBLK
  5
695
330
693
100
AcDbEntity
  8
0
100
AcDbBlockEnd
  0
BLOCK
  5
6D9
330
6D8
100
AcDbEntity
  8
0
100
AcDbBlockBegin
  2
BLKF108
 70
     0
 71
     0
 10
0.0
 20
0.0
 30
0.0
  3
BLKF108
  1

  0
LINE
  5
6DC
330
6D8
100
AcDbEntity
  8
GR1-1
  6
CONTINUOUS
 62
     2
100
AcDbLine
 10
827.730173
 20
132.183305
 30
0.0
 11
828.852404
 21
126.998456
 31
0.0
  0
INSERT
  5
6DD
330
6D8
100
AcDbEntity
  8
GR1-1
  6
CONTINUOUS
 62
     2
100
AcDbBlockReference
  2
FXTIP_ARROW_S
 10
827.730173
 20
132.183305
 30
0.0
 41
2.0
 42
2.0
 50
102.212955
  0
LINE
  5
6DE
330
6D8
100
AcDbEntity
  8
GR1-1
  6
CONTINUOUS
 62
     2
100
AcDbLine
 10
828.852404
 20
126.998456
 30
0.0
 11
831.402404
 21
126.998456
 31
0.0
  0
TEXT
  5
6DF
330
6D8
100
AcDbEntity
  8
GR1-1
  6
CONTINUOUS
 62
     4
100
AcDbText
 10
830.232422
 20
127.598457
 30
0.0
 40
1.5
  1
9C
 41
0.7
  7
FX_VECTOR
 72
     5
 11
832.332422
 21
127.598457
 31
0.0
100
AcDbText
  0
ENDBLK
  5
6DA
330
6D8
100
AcDbEntity
  8
0
100
AcDbBlockEnd
  0
BLOCK
  5
6E6
330
6E5
100
AcDbEntity
  8
0
100
AcDbBlockBegin
  2
BLKF109
 70
     0
 71
     0
 10
0.0
 20
0.0
 30
0.0
  3
BLKF109
  1

  0
LINE
  5
6E9
330
6E5
100
AcDbEntity
  8
GR1-1
  6
CONTINUOUS
 62
     2
100
AcDbLine
 10
825.686427
 20
142.152783
 30
0.0
 11
824.192357
 21
139.091883
 31
0.0
  0
INSERT
  5
6EA
330
6E5
100
AcDbEntity
  8
GR1-1
  6
CONTINUOUS
 62
     2
100
AcDbBlockReference
  2
FXTIP_ARROW_S
 10
825.686427
 20
142.152783
 30
0.0
 41
2.0
 42
2.0
 50
63.982318
  0
LINE
  5
6EB
330
6E5
100
AcDbEntity
  8
GR1-1
  6
CONTINUOUS
 62
     2
100
AcDbLine
 10
824.192357
 20
139.091883
 30
0.0
 11
820.642357
 21
139.091883
 31
0.0
  0
TEXT
  5
6EC
330
6E5
100
AcDbEntity
  8
GR1-1
  6
CONTINUOUS
 62
     4
100
AcDbText
 10
819.662344
 20
139.691875
 30
0.0
 40
1.5
  1
R30
 41
0.7
  7
FX_VECTOR
 72
     5
 11
822.812344
 21
139.691875
 31
0.0
100
AcDbText
  0
ENDBLK
  5
6E7
330
6E5
100
AcDbEntity
  8
0
100
AcDbBlockEnd
  0
BLOCK
  5
6F3
330
6F2
100
AcDbEntity
  8
0
100
AcDbBlockBegin
  2
BLKF110
 70
     0
 71
     0
 10
0.0
 20
0.0
 30
0.0
  3
BLKF110
  1

  0
LINE
  5
6F6
330
6F2
100
AcDbEntity
  8
GR1-1
  6
CONTINUOUS
 62
     2
100
AcDbLine
 10
834.885591
 20
146.49414
 30
0.0
 11
836.771281
 21
149.229671
 31
0.0
  0
INSERT
  5
6F7
330
6F2
100
AcDbEntity
  8
GR1-1
  6
CONTINUOUS
 62
     2
100
AcDbBlockReference
  2
FXTIP_ARROW_S
 10
834.885591
 20
146.49414
 30
0.0
 41
2.0
 42
2.0
 50
235.420243
  0
LINE
  5
6F8
330
6F2
100
AcDbEntity
  8
GR1-1
  6
CONTINUOUS
 62
     2
100
AcDbLine
 10
836.771281
 20
149.229671
 30
0.0
 11
839.321281
 21
149.229671
 31
0.0
  0
TEXT
  5
6F9
330
6F2
100
AcDbEntity
  8
GR1-1
  6
CONTINUOUS
 62
     4
100
AcDbText
 10
838.15125
 20
149.829668
 30
0.0
 40
1.5
  1
9C
 41
0.7
  7
FX_VECTOR
 72
     5
 11
840.25125
 21
149.829668
 31
0.0
100
AcDbText
  0
ENDBLK
  5
6F4
330
6F2
100
AcDbEntity
  8
0
100
AcDbBlockEnd
  0
ENDSEC
  0
SECTION
  2
ENTITIES
  0
LINE
  5
A7
330
1F
100
AcDbEntity
  8
GR1-1
  6
極太の実線
 62
     3
100
AcDbLine
 10
915.845963
 20
234.360363
 30
0.0
 11
638.845974
 21
234.360363
 31
0.0
  0
LINE
  5
A8
330
1F
100
AcDbEntity
  8
GR1-1
  6
極太の実線
 62
     3
100
AcDbLine
 10
638.845974
 20
234.360363
 30
0.0
 11
638.845958
 21
44.360363
 31
0.0
  0
LINE
  5
A9
330
1F
100
AcDbEntity
  8
GR1-1
  6
極太の実線
 62
     3
100
AcDbLine
 10
638.845958
 20
44.360363
 30
0.0
 11
915.845958
 21
44.360363
 31
0.0
  0
LINE
  5
AA
330
1F
100
AcDbEntity
  8
GR1-1
  6
極太の実線
 62
     3
100
AcDbLine
 10
915.845958
 20
44.360363
 30
0.0
 11
915.845963
 21
234.360363
 31
0.0
  0
LINE
  5
AB
330
1F
100
AcDbEntity
  8
GR1-1
  6
極太の実線
 62
     3
100
AcDbLine
 10
914.845963
 20
233.360363
 30
0.0
 11
639.845974
 21
233.360363
 31
0.0
  0
LINE
  5
AC
330
1F
100
AcDbEntity
  8
GR1-1
  6
極太の実線
 62
     3
100
AcDbLine
 10
639.845974
 20
233.360363
 30
0.0
 11
639.845958
 21
45.360363
 31
0.0
  0
LINE
  5
AD
330
1F
100
AcDbEntity
  8
GR1-1
  6
極太の実線
 62
     3
100
AcDbLine
 10
639.845958
 20
45.360363
 30
0.0
 11
914.845958
 21
45.360363
 31
0.0
  0
LINE
  5
AE
330
1F
100
AcDbEntity
  8
GR1-1
  6
極太の実線
 62
     3
100
AcDbLine
 10
914.845958
 20
45.360363
 30
0.0
 11
914.845963
 21
233.360363
 31
0.0
  0
LINE
  5
B0
330
1F
100
AcDbEntity
  8
GR1-1
  6
太い実線
 62
     4
100
AcDbLine
 10
836.793212
 20
66.861168
 30
0.0
 11
911.793237
 21
66.861168
 31
0.0
  0
LINE
  5
B1
330
1F
100
AcDbEntity
  8
GR1-1
  6
太い実線
 62
     4
100
AcDbLine
 10
911.793237
 20
60.861168
 30
0.0
 11
836.793212
 21
60.861168
 31
0.0
  0
LINE
  5
B2
330
1F
100
AcDbEntity
  8
GR1-1
  6
太い実線
 62
     4
100
AcDbLine
 10
836.793212
 20
54.861172
 30
0.0
 11
911.793237
 21
54.861172
 31
0.0
  0
LINE
  5
B3
330
1F
100
AcDbEntity
  8
GR1-1
  6
太い実線
 62
     4
100
AcDbLine
 10
836.793212
 20
48.86117
 30
0.0
 11
836.793212
 21
66.861168
 31
0.0
  0
LINE
  5
B4
330
1F
100
AcDbEntity
  8
GR1-1
  6
太い実線
 62
     4
100
AcDbLine
 10
851.793212
 20
66.861168
 30
0.0
 11
851.793212
 21
54.861172
 31
0.0
  0
LINE
  5
B5
330
1F
100
AcDbEntity
  8
GR1-1
  6
太い実線
 62
     4
100
AcDbLine
 10
874.293224
 20
54.861172
 30
0.0
 11
874.293224
 21
60.861168
 31
0.0
  0
TEXT
  5
B7
330
1F
100
AcDbEntity
  8
GR1-1
  6
細い実線
 62
     7
100
AcDbText
 10
841.743281
 20
61.932607
 30
0.0
 40
3.5
  1
図名
 41
0.728571
  7
STYLE1
 72
     5
 11
846.843281
 21
61.932607
 31
0.0
100
AcDbText
  0
TEXT
  5
B8
330
1F
100
AcDbEntity
  8
GR1-1
  6
細い実線
 62
     7
100
AcDbText
 10
841.743281
 20
55.90106
 30
0.0
 40
3.5
  1
尺度
 41
0.728571
  7
STYLE1
 72
     5
 11
846.843281
 21
55.90106
 31
0.0
100
AcDbText
  0
TEXT
  5
B9
330
1F
100
AcDbEntity
  8
GR1-1
  6
細い実線
 62
     7
100
AcDbText
 10
876.443281
 20
55.90106
 30
0.0
 40
3.5
  1
参考重量
 41
0.764286
  7
STYLE1
 72
     5
 11
887.143281
 21
55.90106
 31
0.0
100
AcDbText
  0
TEXT
  5
BA
330
1F
100
AcDbEntity
  8
GR1-1
  6
細い実線
 62
     7
100
AcDbText
 10
854.943281
 20
49.869507
 30
0.0
 40
3.5
  1
小倉セメント製品工業株式会社
 41
0.789796
  7
STYLE1
 72
     5
 11
893.643281
 21
49.869507
 31
0.0
100
AcDbText
  0
LINE
  5
BB
330
1F
100
AcDbEntity
  8
GR1-1
  6
太い実線
 62
     4
100
AcDbLine
 10
889.293273
 20
60.861168
 30
0.0
 11
889.293273
 21
54.861172
 31
0.0
  0
TEXT
  5
BC
330
1F
100
AcDbEntity
  8
GR1-1
  6
細い実線
 62
     7
100
AcDbText
 10
858.443281
 20
56.064072
 30
0.0
 40
3.5
  1
1/50
 41
0.657143
  7
STYLE1
 72
     5
 11
867.643281
 21
56.064072
 31
0.0
100
AcDbText
  0
TEXT
  5
BD
330
1F
100
AcDbEntity
  8
GR1-1
  6
細い実線
 62
     7
100
AcDbText
 10
892.451875
 20
55.90106
 30
0.0
 40
3.5
  1
504　ｋｇ
 41
0.657143
  7
STYLE1
 72
     5
 11
906.251875
 21
55.90106
 31
0.0
100
AcDbText
  0
TEXT
  5
BE
330
1F
100
AcDbEntity
  8
GR1-1
  6
細い実線
 62
     7
100
AcDbText
 10
860.225312
 20
61.858872
 30
0.0
 40
3.5
  1
KP大型ブロック　1500B　（高擁壁用）
 41
0.657143
  7
STYLE1
 72
     5
 11
908.525312
 21
61.858872
 31
0.0
100
AcDbText
  0
LINE
  5
BF
330
1F
100
AcDbEntity
  8
GR1-1
  6
太い実線
 62
     4
100
AcDbLine
 10
911.793237
 20
66.861168
 30
0.0
 11
911.793237
 21
48.86117
 31
0.0
  0
LINE
  5
C0
330
1F
100
AcDbEntity
  8
GR1-1
  6
太い実線
 62
     4
100
AcDbLine
 10
836.793212
 20
48.86117
 30
0.0
 11
911.793237
 21
48.86117
 31
0.0
  0
LINE
  5
C1
330
1F
100
AcDbEntity
  8
GR1-1
  6
細い実線
 62
     4
100
AcDbLine
 10
687.809131
 20
212.320298
 30
0.0
 11
686.05119
 21
212.320298
 31
0.0
  0
LINE
  5
C2
330
1F
100
AcDbEntity
  8
GR1-1
  6
細い実線
 62
     4
100
AcDbLine
 10
683.05119
 20
212.320298
 30
0.0
 11
680.899414
 21
212.320298
 31
0.0
  0
LINE
  5
C3
330
1F
100
AcDbEntity
  8
GR1-1
  6
細い実線
 62
     4
100
AcDbLine
 10
685.75119
 20
213.040298
 30
0.0
 11
686.05119
 21
212.320298
 31
0.0
  0
LINE
  5
C4
330
1F
100
AcDbEntity
  8
GR1-1
  6
細い実線
 62
     4
100
AcDbLine
 10
683.05119
 20
212.320298
 30
0.0
 11
683.35119
 21
213.040298
 31
0.0
  0
LINE
  5
C5
330
1F
100
AcDbEntity
  8
GR1-1
  6
細い実線
 62
     4
100
AcDbLine
 10
683.35119
 20
213.040298
 30
0.0
 11
685.75119
 21
213.040298
 31
0.0
  0
TEXT
  5
C6
330
1F
100
AcDbEntity
  8
GR1-1
  6
細い実線
 62
     4
100
AcDbText
 10
681.133281
 20
218.365313
 30
0.0
 40
2.0
  1
 バール挿入孔詳細 
 41
0.812
  7
FX_VECTOR
 72
     5
 11
697.373281
 21
218.365313
 31
0.0
100
AcDbText
  0
LINE
  5
C7
330
1F
100
AcDbEntity
  8
GR1-1
  6
細い実線
 62
     4
100
AcDbLine
 10
681.133298
 20
218.16532
 30
0.0
 11
697.373298
 21
218.16532
 31
0.0
  0
LINE
  5
C8
330
1F
100
AcDbEntity
  8
GR1-1
  6
細い実線
 62
     4
100
AcDbLine
 10
693.501493
 20
213.040298
 30
0.0
 11
695.901493
 21
213.040298
 31
0.0
  0
LINE
  5
C9
330
1F
100
AcDbEntity
  8
GR1-1
  6
細い実線
 62
     4
100
AcDbLine
 10
693.201493
 20
212.320298
 30
0.0
 11
693.501493
 21
213.040298
 31
0.0
  0
LINE
  5
CA
330
1F
100
AcDbEntity
  8
GR1-1
  6
細い実線
 62
     4
100
AcDbLine
 10
695.901493
 20
213.040298
 30
0.0
 11
695.901493
 21
215.563275
 31
0.0
  0
LINE
  5
CB
330
1F
100
AcDbEntity
  8
GR1-1
  6
細い実線
 62
     4
100
AcDbLine
 10
693.201493
 20
212.320298
 30
0.0
 11
691.443552
 21
212.320298
 31
0.0
  0
LINE
  5
CD
330
1F
100
AcDbEntity
  8
GR1-1
  6
020-1-CENTER2
 62
     2
100
AcDbLine
 10
697.967263
 20
186.775751
 30
0.0
 11
697.967263
 21
175.813266
 31
0.0
  0
LINE
  5
CE
330
1F
100
AcDbEntity
  8
GR1-1
  6
細い実線
 62
     4
100
AcDbLine
 10
698.342263
 20
185.818822
 30
0.0
 11
698.867263
 21
182.818822
 31
0.0
  0
LINE
  5
CF
330
1F
100
AcDbEntity
  8
GR1-1
  6
細い実線
 62
     4
100
AcDbLine
 10
697.067263
 20
182.818822
 30
0.0
 11
697.592263
 21
185.818822
 31
0.0
  0
LINE
  5
D0
330
1F
100
AcDbEntity
  8
GR1-1
  6
細い実線
 62
     4
100
AcDbLine
 10
697.592263
 20
185.818822
 30
0.0
 11
698.342263
 21
185.818822
 31
0.0
  0
LINE
  5
D1
330
1F
100
AcDbEntity
  8
GR1-1
  6
細い実線
 62
     4
100
AcDbLine
 10
698.867263
 20
182.818822
 30
0.0
 11
699.756589
 21
182.818822
 31
0.0
  0
LINE
  5
D2
330
1F
100
AcDbEntity
  8
GR1-1
  6
細い実線
 62
     4
100
AcDbLine
 10
697.067263
 20
182.818822
 30
0.0
 11
696.177937
 21
182.818822
 31
0.0
  0
LINE
  5
D3
330
1F
100
AcDbEntity
  8
GR1-1
  6
020-1-CENTER2
 62
     2
100
AcDbLine
 10
680.763387
 20
177.94933
 30
0.0
 11
680.763387
 21
186.574601
 31
0.0
  0
LINE
  5
D4
330
1F
100
AcDbEntity
  8
GR1-1
  6
細い実線
 62
     4
100
AcDbLine
 10
681.663387
 20
182.603677
 30
0.0
 11
681.138387
 21
179.603677
 31
0.0
  0
LINE
  5
D5
330
1F
100
AcDbEntity
  8
GR1-1
  6
細い実線
 62
     4
100
AcDbLine
 10
680.388387
 20
179.603677
 30
0.0
 11
679.863387
 21
182.603677
 31
0.0
  0
LINE
  5
D6
330
1F
100
AcDbEntity
  8
GR1-1
  6
細い実線
 62
     4
100
AcDbLine
 10
681.138387
 20
179.603677
 30
0.0
 11
680.388387
 21
179.603677
 31
0.0
  0
LINE
  5
D7
330
1F
100
AcDbEntity
  8
GR1-1
  6
細い実線
 62
     4
100
AcDbLine
 10
679.863387
 20
182.603677
 30
0.0
 11
678.974061
 21
182.603677
 31
0.0
  0
LINE
  5
D8
330
1F
100
AcDbEntity
  8
GR1-1
  6
細い実線
 62
     4
100
AcDbLine
 10
681.663387
 20
182.603677
 30
0.0
 11
682.552713
 21
182.603677
 31
0.0
  0
LINE
  5
D9
330
1F
100
AcDbEntity
  8
GR1-1
  6
020-1-CENTER2
 62
     2
100
AcDbLine
 10
679.613078
 20
185.424292
 30
0.0
 11
681.913696
 21
185.424292
 31
0.0
  0
CIRCLE
  5
DA
330
1F
100
AcDbEntity
  8
GR1-1
  6
細い実線
 62
     4
100
AcDbCircle
 10
680.763387
 20
185.424292
 30
0.0
 40
0.9
  0
CIRCLE
  5
DB
330
1F
100
AcDbEntity
  8
GR1-1
  6
細い実線
 62
     4
100
AcDbCircle
 10
680.763387
 20
185.424292
 30
0.0
 40
0.375
  0
INSERT
  5
DF
330
1F
100
AcDbEntity
  8
0
100
AcDbBlockReference
  2
BLKF021
 10
0.0
 20
0.0
 30
0.0
  0
INSERT
  5
EE
330
1F
100
AcDbEntity
  8
0
100
AcDbBlockReference
  2
BLKF022
 10
0.0
 20
0.0
 30
0.0
  0
TEXT
  5
FA
330
1F
100
AcDbEntity
  8
GR1-1
  6
細い実線
 62
     4
100
AcDbText
 10
681.300547
 20
197.866719
 30
0.0
 40
2.0
  1
 ガイドピン孔詳細 
 41
0.812
  7
FX_VECTOR
 72
     5
 11
697.540546
 21
197.866719
 31
0.0
100
AcDbText
  0
LINE
  5
FB
330
1F
100
AcDbEntity
  8
GR1-1
  6
細い実線
 62
     4
100
AcDbLine
 10
681.300599
 20
197.666711
 30
0.0
 11
697.540599
 21
197.666711
 31
0.0
  0
TEXT
  5
FC
330
1F
100
AcDbEntity
  8
GR1-1
  6
細い実線
 62
     4
100
AcDbText
 10
679.612188
 20
193.656523
 30
0.0
 40
1.4
  1
上部
 41
0.84
  7
FX_VECTOR
 72
     5
 11
681.964187
 21
193.656523
 31
0.0
100
AcDbText
  0
LINE
  5
FD
330
1F
100
AcDbEntity
  8
GR1-1
  6
細い実線
 62
     4
100
AcDbLine
 10
679.612239
 20
193.516531
 30
0.0
 11
681.964239
 21
193.516531
 31
0.0
  0
INSERT
  5
101
330
1F
100
AcDbEntity
  8
0
100
AcDbBlockReference
  2
BLKF023
 10
0.0
 20
0.0
 30
0.0
  0
INSERT
  5
110
330
1F
100
AcDbEntity
  8
0
100
AcDbBlockReference
  2
BLKF024
 10
0.0
 20
0.0
 30
0.0
  0
INSERT
  5
118
330
1F
100
AcDbEntity
  8
0
100
AcDbBlockReference
  2
BLKF025
 10
0.0
 20
0.0
 30
0.0
  0
LINE
  5
11D
330
1F
100
AcDbEntity
  8
GR1-1
  6
細い実線
 62
     4
100
AcDbLine
 10
697.067263
 20
181.261561
 30
0.0
 11
697.592263
 21
180.661561
 31
0.0
  0
LINE
  5
11E
330
1F
100
AcDbEntity
  8
GR1-1
  6
細い実線
 62
     4
100
AcDbLine
 10
698.342263
 20
180.661561
 30
0.0
 11
698.867263
 21
181.261561
 31
0.0
  0
LINE
  5
11F
330
1F
100
AcDbEntity
  8
GR1-1
  6
細い実線
 62
     4
100
AcDbLine
 10
698.342263
 20
178.561561
 30
0.0
 11
698.867263
 21
177.961561
 31
0.0
  0
LINE
  5
120
330
1F
100
AcDbEntity
  8
GR1-1
  6
細い実線
 62
     4
100
AcDbLine
 10
697.592263
 20
178.561561
 30
0.0
 11
697.067263
 21
177.961561
 31
0.0
  0
INSERT
  5
124
330
1F
100
AcDbEntity
  8
0
100
AcDbBlockReference
  2
BLKF026
 10
0.0
 20
0.0
 30
0.0
  0
INSERT
  5
133
330
1F
100
AcDbEntity
  8
0
100
AcDbBlockReference
  2
BLKF027
 10
0.0
 20
0.0
 30
0.0
  0
INSERT
  5
142
330
1F
100
AcDbEntity
  8
0
100
AcDbBlockReference
  2
BLKF028
 10
0.0
 20
0.0
 30
0.0
  0
INSERT
  5
151
330
1F
100
AcDbEntity
  8
0
100
AcDbBlockReference
  2
BLKF029
 10
0.0
 20
0.0
 30
0.0
  0
INSERT
  5
160
330
1F
100
AcDbEntity
  8
0
100
AcDbBlockReference
  2
BLKF030
 10
0.0
 20
0.0
 30
0.0
  0
INSERT
  5
16F
330
1F
100
AcDbEntity
  8
0
100
AcDbBlockReference
  2
BLKF031
 10
0.0
 20
0.0
 30
0.0
  0
INSERT
  5
17E
330
1F
100
AcDbEntity
  8
0
100
AcDbBlockReference
  2
BLKF032
 10
0.0
 20
0.0
 30
0.0
  0
INSERT
  5
18D
330
1F
100
AcDbEntity
  8
0
100
AcDbBlockReference
  2
BLKF033
 10
0.0
 20
0.0
 30
0.0
  0
INSERT
  5
19B
330
1F
100
AcDbEntity
  8
0
100
AcDbBlockReference
  2
BLKF034
 10
0.0
 20
0.0
 30
0.0
  0
TEXT
  5
1A6
330
1F
100
AcDbEntity
  8
GR1-1
  6
細い実線
 62
     4
100
AcDbText
 10
696.797734
 20
193.597578
 30
0.0
 40
1.4
  1
下部
 41
0.84
  7
FX_VECTOR
 72
     5
 11
699.149734
 21
193.597578
 31
0.0
100
AcDbText
  0
LINE
  5
1A7
330
1F
100
AcDbEntity
  8
GR1-1
  6
細い実線
 62
     4
100
AcDbLine
 10
696.797727
 20
193.457578
 30
0.0
 11
699.149727
 21
193.457578
 31
0.0
  0
INSERT
  5
1AB
330
1F
100
AcDbEntity
  8
0
100
AcDbBlockReference
  2
BLKF035
 10
0.0
 20
0.0
 30
0.0
  0
INSERT
  5
1B9
330
1F
100
AcDbEntity
  8
0
100
AcDbBlockReference
  2
BLKF036
 10
0.0
 20
0.0
 30
0.0
  0
INSERT
  5
1C8
330
1F
100
AcDbEntity
  8
0
100
AcDbBlockReference
  2
BLKF037
 10
0.0
 20
0.0
 30
0.0
  0
INSERT
  5
1D7
330
1F
100
AcDbEntity
  8
0
100
AcDbBlockReference
  2
BLKF038
 10
0.0
 20
0.0
 30
0.0
  0
INSERT
  5
1E6
330
1F
100
AcDbEntity
  8
0
100
AcDbBlockReference
  2
BLKF039
 10
0.0
 20
0.0
 30
0.0
  0
INSERT
  5
1F5
330
1F
100
AcDbEntity
  8
0
100
AcDbBlockReference
  2
BLKF040
 10
0.0
 20
0.0
 30
0.0
  0
INSERT
  5
204
330
1F
100
AcDbEntity
  8
0
100
AcDbBlockReference
  2
BLKF041
 10
0.0
 20
0.0
 30
0.0
  0
INSERT
  5
213
330
1F
100
AcDbEntity
  8
0
100
AcDbBlockReference
  2
BLKF042
 10
0.0
 20
0.0
 30
0.0
  0
INSERT
  5
221
330
1F
100
AcDbEntity
  8
0
100
AcDbBlockReference
  2
BLKF043
 10
0.0
 20
0.0
 30
0.0
  0
TEXT
  5
22D
330
1F
100
AcDbEntity
  8
GR1-1
  6
細い実線
 62
     4
100
AcDbText
 10
697.57875
 20
218.732715
 30
0.0
 40
1.4
  1
(S=1/10)
 41
0.566125
  7
FX_VECTOR
 72
     5
 11
703.91935
 21
218.732715
 31
0.0
100
AcDbText
  0
TEXT
  5
22E
330
1F
100
AcDbEntity
  8
GR1-1
  6
細い実線
 62
     4
100
AcDbText
 10
697.769297
 20
198.234102
 30
0.0
 40
1.4
  1
(S=1/10)
 41
0.566125
  7
FX_VECTOR
 72
     5
 11
704.109897
 21
198.234102
 31
0.0
100
AcDbText
  0
LINE
  5
22F
330
1F
100
AcDbEntity
  8
GR1-1
  6
CONTINUOUS
 62
     4
100
AcDbLine
 10
794.189154
 20
132.183305
 30
0.0
 11
795.418991
 21
134.64298
 31
0.0
  0
LINE
  5
230
330
1F
100
AcDbEntity
  8
GR1-1
  6
CONTINUOUS
 62
     4
100
AcDbLine
 10
827.730173
 20
132.183305
 30
0.0
 11
834.885591
 21
146.49414
 31
0.0
  0
LINE
  5
231
330
1F
100
AcDbEntity
  8
GR1-1
  6
CONTINUOUS
 62
     4
100
AcDbLine
 10
826.276729
 20
132.183305
 30
0.0
 11
828.043223
 21
135.716293
 31
0.0
  0
LINE
  5
232
330
1F
100
AcDbEntity
  8
GR1-1
  6
CONTINUOUS
 62
     4
100
AcDbLine
 10
795.642598
 20
132.183305
 30
0.0
 11
796.581746
 21
134.061602
 31
0.0
  0
LINE
  5
233
330
1F
100
AcDbEntity
  8
GR1-1
  6
CONTINUOUS
 62
     4
100
AcDbLine
 10
796.760632
 20
132.183305
 30
0.0
 11
803.916049
 21
146.49414
 31
0.0
  0
LINE
  5
234
330
1F
100
AcDbEntity
  8
GR1-1
  6
CONTINUOUS
 62
     4
100
AcDbLine
 10
797.207845
 20
132.183305
 30
0.0
 11
804.363263
 21
146.49414
 31
0.0
  0
LINE
  5
235
330
1F
100
AcDbEntity
  8
GR1-1
  6
CONTINUOUS
 62
     4
100
AcDbLine
 10
825.158695
 20
132.183305
 30
0.0
 11
832.314113
 21
146.49414
 31
0.0
  0
LINE
  5
236
330
1F
100
AcDbEntity
  8
GR1-1
  6
CONTINUOUS
 62
     4
100
AcDbLine
 10
824.711481
 20
132.183305
 30
0.0
 11
831.866899
 21
146.49414
 31
0.0
  0
LINE
  5
237
330
1F
100
AcDbEntity
  8
GR1-1
  6
CONTINUOUS
 62
     4
100
AcDbLine
 10
801.344571
 20
146.49414
 30
0.0
 11
834.885591
 21
146.49414
 31
0.0
  0
LINE
  5
238
330
1F
100
AcDbEntity
  8
GR1-1
  6
CONTINUOUS
 62
     4
100
AcDbLine
 10
794.189154
 20
132.183305
 30
0.0
 11
827.730173
 21
132.183305
 31
0.0
  0
LINE
  5
239
330
1F
100
AcDbEntity
  8
GR1-1
  6
CONTINUOUS
 62
     4
100
AcDbLine
 10
796.939517
 20
137.684032
 30
0.0
 11
801.344571
 21
146.49414
 31
0.0
  0
LINE
  5
23A
330
1F
100
AcDbEntity
  8
GR1-1
  6
CONTINUOUS
 62
     8
100
AcDbLine
 10
799.268759
 20
142.335757
 30
0.0
 11
798.821184
 21
142.615347
 31
0.0
  0
LINE
  5
23B
330
1F
100
AcDbEntity
  8
GR1-1
  6
CONTINUOUS
 62
     8
100
AcDbLine
 10
798.705742
 20
142.568174
 30
0.0
 11
798.99354
 21
142.383621
 31
0.0
  0
LINE
  5
23C
330
1F
100
AcDbEntity
  8
GR1-1
  6
CONTINUOUS
 62
     8
100
AcDbLine
 10
794.670403
 20
134.64645
 30
0.0
 11
795.445909
 21
136.336222
 31
0.0
  0
LINE
  5
23D
330
1F
100
AcDbEntity
  8
GR1-1
  6
CONTINUOUS
 62
     2
100
AcDbLine
 10
795.240105
 20
134.732423
 30
0.0
 11
796.581746
 21
134.061602
 31
0.0
  0
LINE
  5
23E
330
1F
100
AcDbEntity
  8
GR1-1
  6
CONTINUOUS
 62
     8
100
AcDbLine
 10
794.410359
 20
134.243536
 30
0.0
 11
794.670403
 21
134.64645
 31
0.0
  0
LINE
  5
23F
330
1F
100
AcDbEntity
  8
GR1-1
  6
CONTINUOUS
 62
     8
100
AcDbLine
 10
793.967256
 20
133.334204
 30
0.0
 11
794.294829
 21
133.859329
 31
0.0
  0
LINE
  5
240
330
1F
100
AcDbEntity
  8
GR1-1
  6
CONTINUOUS
 62
     8
100
AcDbLine
 10
793.951735
 20
132.978879
 30
0.0
 11
793.967256
 21
133.334204
 31
0.0
  0
LINE
  5
241
330
1F
100
AcDbEntity
  8
GR1-1
  6
CONTINUOUS
 62
     8
100
AcDbLine
 10
794.339026
 20
132.46095
 30
0.0
 11
793.951735
 21
132.978879
 31
0.0
  0
LINE
  5
242
330
1F
100
AcDbEntity
  8
GR1-1
  6
CONTINUOUS
 62
     8
100
AcDbLine
 10
794.294829
 20
133.859329
 30
0.0
 11
794.410359
 21
134.243536
 31
0.0
  0
LINE
  5
243
330
1F
100
AcDbEntity
  8
GR1-1
  6
CONTINUOUS
 62
     8
100
AcDbLine
 10
796.698233
 20
138.646092
 30
0.0
 11
797.431393
 21
140.130913
 31
0.0
  0
LINE
  5
244
330
1F
100
AcDbEntity
  8
GR1-1
  6
CONTINUOUS
 62
     8
100
AcDbLine
 10
796.139909
 20
137.620409
 30
0.0
 11
796.584348
 21
137.991254
 31
0.0
  0
LINE
  5
245
330
1F
100
AcDbEntity
  8
GR1-1
  6
CONTINUOUS
 62
     8
100
AcDbLine
 10
795.989021
 20
137.274436
 30
0.0
 11
795.832276
 21
136.957862
 31
0.0
  0
LINE
  5
246
330
1F
100
AcDbEntity
  8
GR1-1
  6
CONTINUOUS
 62
     8
100
AcDbLine
 10
795.445909
 20
136.336222
 30
0.0
 11
795.989021
 21
137.274436
 31
0.0
  0
LINE
  5
247
330
1F
100
AcDbEntity
  8
GR1-1
  6
CONTINUOUS
 62
     8
100
AcDbLine
 10
795.832276
 20
136.957862
 30
0.0
 11
796.139909
 21
137.620409
 31
0.0
  0
LINE
  5
248
330
1F
100
AcDbEntity
  8
GR1-1
  6
CONTINUOUS
 62
     8
100
AcDbLine
 10
796.529975
 20
138.22478
 30
0.0
 11
796.698233
 21
138.646092
 31
0.0
  0
LINE
  5
249
330
1F
100
AcDbEntity
  8
GR1-1
  6
CONTINUOUS
 62
     8
100
AcDbLine
 10
796.515174
 20
138.139675
 30
0.0
 11
796.529975
 21
138.22478
 31
0.0
  0
LINE
  5
24A
330
1F
100
AcDbEntity
  8
GR1-1
  6
CONTINUOUS
 62
     8
100
AcDbLine
 10
796.945737
 20
137.884564
 30
0.0
 11
796.515174
 21
138.139675
 31
0.0
  0
LINE
  5
24B
330
1F
100
AcDbEntity
  8
GR1-1
  6
CONTINUOUS
 62
     8
100
AcDbLine
 10
796.584348
 20
137.991254
 30
0.0
 11
796.945737
 21
137.884564
 31
0.0
  0
LINE
  5
24C
330
1F
100
AcDbEntity
  8
GR1-1
  6
CONTINUOUS
 62
     8
100
AcDbLine
 10
798.220274
 20
141.814697
 30
0.0
 11
798.534076
 21
142.396277
 31
0.0
  0
LINE
  5
24D
330
1F
100
AcDbEntity
  8
GR1-1
  6
CONTINUOUS
 62
     8
100
AcDbLine
 10
797.431393
 20
140.130913
 30
0.0
 11
797.740406
 21
140.894847
 31
0.0
  0
LINE
  5
24E
330
1F
100
AcDbEntity
  8
GR1-1
  6
CONTINUOUS
 62
     8
100
AcDbLine
 10
797.951345
 20
141.292564
 30
0.0
 11
798.220274
 21
141.814697
 31
0.0
  0
LINE
  5
24F
330
1F
100
AcDbEntity
  8
GR1-1
  6
CONTINUOUS
 62
     8
100
AcDbLine
 10
797.740406
 20
140.894847
 30
0.0
 11
797.951345
 21
141.292564
 31
0.0
  0
LINE
  5
250
330
1F
100
AcDbEntity
  8
GR1-1
  6
CONTINUOUS
 62
     8
100
AcDbLine
 10
798.534076
 20
142.396277
 30
0.0
 11
798.705742
 21
142.568174
 31
0.0
  0
LINE
  5
251
330
1F
100
AcDbEntity
  8
GR1-1
  6
CONTINUOUS
 62
     8
100
AcDbLine
 10
798.99354
 20
142.383621
 30
0.0
 11
799.235239
 21
142.341586
 31
0.0
  0
LINE
  5
252
330
1F
100
AcDbEntity
  8
GR1-1
  6
CONTINUOUS
 62
     8
100
AcDbLine
 10
798.750845
 20
142.827514
 30
0.0
 11
799.070169
 21
143.44085
 31
0.0
  0
LINE
  5
253
330
1F
100
AcDbEntity
  8
GR1-1
  6
CONTINUOUS
 62
     8
100
AcDbLine
 10
798.821184
 20
142.615347
 30
0.0
 11
798.750845
 21
142.827514
 31
0.0
  0
LINE
  5
254
330
1F
100
AcDbEntity
  8
GR1-1
  6
CONTINUOUS
 62
     8
100
AcDbLine
 10
800.131541
 20
145.666378
 30
0.0
 11
800.452936
 21
146.281171
 31
0.0
  0
LINE
  5
255
330
1F
100
AcDbEntity
  8
GR1-1
  6
CONTINUOUS
 62
     8
100
AcDbLine
 10
799.933181
 20
145.131972
 30
0.0
 11
800.131541
 21
145.666378
 31
0.0
  0
LINE
  5
256
330
1F
100
AcDbEntity
  8
GR1-1
  6
CONTINUOUS
 62
     8
100
AcDbLine
 10
799.361803
 20
144.093535
 30
0.0
 11
799.647607
 21
144.712701
 31
0.0
  0
LINE
  5
257
330
1F
100
AcDbEntity
  8
GR1-1
  6
CONTINUOUS
 62
     8
100
AcDbLine
 10
799.070169
 20
143.44085
 30
0.0
 11
799.361803
 21
144.093535
 31
0.0
  0
LINE
  5
258
330
1F
100
AcDbEntity
  8
GR1-1
  6
CONTINUOUS
 62
     8
100
AcDbLine
 10
799.647607
 20
144.712701
 30
0.0
 11
799.933181
 21
145.131972
 31
0.0
  0
LINE
  5
259
330
1F
100
AcDbEntity
  8
GR1-1
  6
CONTINUOUS
 62
     8
100
AcDbLine
 10
800.830709
 20
146.415405
 30
0.0
 11
801.232185
 21
146.278333
 31
0.0
  0
LINE
  5
25A
330
1F
100
AcDbEntity
  8
GR1-1
  6
CONTINUOUS
 62
     8
100
AcDbLine
 10
800.577659
 20
146.392163
 30
0.0
 11
800.830709
 21
146.415405
 31
0.0
  0
LINE
  5
25B
330
1F
100
AcDbEntity
  8
GR1-1
  6
CONTINUOUS
 62
     8
100
AcDbLine
 10
800.452936
 20
146.281171
 30
0.0
 11
800.577659
 21
146.392163
 31
0.0
  0
LINE
  5
25C
330
1F
100
AcDbEntity
  8
GR1-1
  6
CONTINUOUS
 62
     4
100
AcDbLine
 10
798.102273
 20
137.102655
 30
0.0
 11
802.798015
 21
146.49414
 31
0.0
  0
TEXT
  5
25D
330
1F
100
AcDbEntity
  8
GR1-1
  6
CONTINUOUS
 62
     4
100
AcDbText
 10
796.584297
 20
140.668477
 30
0.0
 40
1.5
  1
1:0.5
 50
63.0
 41
0.7
  7
FX_VECTOR
 72
     5
 11
798.967747
 21
145.346261
 31
0.0
100
AcDbText
  0
INSERT
  5
261
330
1F
100
AcDbEntity
  8
0
100
AcDbBlockReference
  2
BLKF044
 10
0.0
 20
0.0
 30
0.0
  0
INSERT
  5
270
330
1F
100
AcDbEntity
  8
0
100
AcDbBlockReference
  2
BLKF045
 10
0.0
 20
0.0
 30
0.0
  0
INSERT
  5
27F
330
1F
100
AcDbEntity
  8
0
100
AcDbBlockReference
  2
BLKF046
 10
0.0
 20
0.0
 30
0.0
  0
INSERT
  5
28E
330
1F
100
AcDbEntity
  8
0
100
AcDbBlockReference
  2
BLKF047
 10
0.0
 20
0.0
 30
0.0
  0
INSERT
  5
29D
330
1F
100
AcDbEntity
  8
0
100
AcDbBlockReference
  2
BLKF048
 10
0.0
 20
0.0
 30
0.0
  0
INSERT
  5
2AC
330
1F
100
AcDbEntity
  8
0
100
AcDbBlockReference
  2
BLKF049
 10
0.0
 20
0.0
 30
0.0
  0
INSERT
  5
2BB
330
1F
100
AcDbEntity
  8
0
100
AcDbBlockReference
  2
BLKF050
 10
0.0
 20
0.0
 30
0.0
  0
INSERT
  5
2C9
330
1F
100
AcDbEntity
  8
0
100
AcDbBlockReference
  2
BLKF051
 10
0.0
 20
0.0
 30
0.0
  0
INSERT
  5
2D7
330
1F
100
AcDbEntity
  8
0
100
AcDbBlockReference
  2
BLKF052
 10
0.0
 20
0.0
 30
0.0
  0
INSERT
  5
2E6
330
1F
100
AcDbEntity
  8
0
100
AcDbBlockReference
  2
BLKF053
 10
0.0
 20
0.0
 30
0.0
  0
INSERT
  5
2F4
330
1F
100
AcDbEntity
  8
0
100
AcDbBlockReference
  2
BLKF054
 10
0.0
 20
0.0
 30
0.0
  0
TEXT
  5
300
330
1F
100
AcDbEntity
  8
GR1-1
  6
CONTINUOUS
 62
     4
100
AcDbText
 10
800.846875
 20
128.914648
 30
0.0
 40
1.2
  1
　水抜ハ゜イフ゜用　
 41
0.666667
  7
FX_VECTOR
 72
     5
 11
808.846875
 21
128.914648
 31
0.0
100
AcDbText
  0
TEXT
  5
301
330
1F
100
AcDbEntity
  8
GR1-1
  6
CONTINUOUS
 62
     4
100
AcDbText
 10
803.833359
 20
127.131758
 30
0.0
 40
1.2
  1
ノックアウト孔
 41
0.857143
  7
FX_VECTOR
 72
     5
 11
811.033359
 21
127.131758
 31
0.0
100
AcDbText
  0
INSERT
  5
305
330
1F
100
AcDbEntity
  8
0
100
AcDbBlockReference
  2
BLKF055
 10
0.0
 20
0.0
 30
0.0
  0
ARC
  5
310
330
1F
100
AcDbEntity
  8
GR1-1
  6
CONTINUOUS
 62
     2
100
AcDbCircle
 10
791.488315
 20
138.508976
 30
0.0
 40
6.761817216229993
100
AcDbArc
 50
318.873879
 51
347.99601
  0
LINE
  5
311
330
1F
100
AcDbEntity
  8
GR1-1
  6
CONTINUOUS
 62
     2
100
AcDbLine
 10
796.760632
 20
137.773475
 30
0.0
 11
798.102273
 21
137.102655
 31
0.0
  0
LINE
  5
312
330
1F
100
AcDbEntity
  8
GR1-1
  6
CONTINUOUS
 62
     2
100
AcDbLine
 10
796.760632
 20
137.773475
 30
0.0
 11
795.240105
 21
134.732423
 31
0.0
  0
INSERT
  5
316
330
1F
100
AcDbEntity
  8
0
100
AcDbBlockReference
  2
BLKF056
 10
0.0
 20
0.0
 30
0.0
  0
INSERT
  5
325
330
1F
100
AcDbEntity
  8
0
100
AcDbBlockReference
  2
BLKF057
 10
0.0
 20
0.0
 30
0.0
  0
INSERT
  5
333
330
1F
100
AcDbEntity
  8
0
100
AcDbBlockReference
  2
BLKF058
 10
0.0
 20
0.0
 30
0.0
  0
LINE
  5
33E
330
1F
100
AcDbEntity
  8
GR1-1
  6
CONTINUOUS
 62
     2
100
AcDbLine
 10
830.458176
 20
138.310131
 30
0.0
 11
829.563749
 21
138.757345
 31
0.0
  0
LINE
  5
33F
330
1F
100
AcDbEntity
  8
GR1-1
  6
CONTINUOUS
 62
     2
100
AcDbLine
 10
830.458176
 20
138.310132
 30
0.0
 11
828.93765
 21
135.269079
 31
0.0
  0
ARC
  5
340
330
1F
100
AcDbEntity
  8
GR1-1
  6
CONTINUOUS
 62
     2
100
AcDbCircle
 10
834.657181
 20
134.309972
 30
0.0
 40
6.761817216230011
100
AcDbArc
 50
138.873888
 51
167.996018
  0
LINE
  5
341
330
1F
100
AcDbEntity
  8
GR1-1
  6
CONTINUOUS
 62
     2
100
AcDbLine
 10
828.93765
 20
135.269079
 30
0.0
 11
828.043223
 21
135.716293
 31
0.0
  0
LINE
  5
342
330
1F
100
AcDbEntity
  8
GR1-1
  6
CONTINUOUS
 62
     4
100
AcDbLine
 10
829.563749
 20
138.757345
 30
0.0
 11
833.432147
 21
146.49414
 31
0.0
  0
INSERT
  5
346
330
1F
100
AcDbEntity
  8
0
100
AcDbBlockReference
  2
BLKF059
 10
0.0
 20
0.0
 30
0.0
  0
INSERT
  5
354
330
1F
100
AcDbEntity
  8
0
100
AcDbBlockReference
  2
BLKF060
 10
0.0
 20
0.0
 30
0.0
  0
INSERT
  5
362
330
1F
100
AcDbEntity
  8
0
100
AcDbBlockReference
  2
BLKF061
 10
0.0
 20
0.0
 30
0.0
  0
LINE
  5
36D
330
1F
100
AcDbEntity
  8
GR1-1
  6
CONTINUOUS
 62
     2
100
AcDbLine
 10
796.895435
 20
136.21661
 30
0.0
 11
797.593088
 21
135.867783
 31
0.0
  0
LINE
  5
36E
330
1F
100
AcDbEntity
  8
GR1-1
  6
CONTINUOUS
 62
     2
100
AcDbLine
 10
795.04036
 20
137.13343
 30
0.0
 11
794.342707
 21
137.482257
 31
0.0
  0
TEXT
  5
36F
330
1F
100
AcDbEntity
  8
GR1-1
  6
CONTINUOUS
 62
     4
100
AcDbText
 10
793.482031
 20
138.617129
 30
0.0
 40
1.5
  1
15
 50
333.434937
 41
0.7
  7
FX_VECTOR
 72
     5
 11
795.360328
 21
137.67798
 31
0.0
100
AcDbText
  0
LINE
  5
370
330
1F
100
AcDbEntity
  8
GR1-1
  6
CONTINUOUS
 62
     2
100
AcDbLine
 10
796.953573
 20
136.332885
 30
0.0
 11
796.837298
 21
136.100334
 31
0.0
  0
LINE
  5
371
330
1F
100
AcDbEntity
  8
GR1-1
  6
CONTINUOUS
 62
     2
100
AcDbLine
 10
796.837298
 20
136.100334
 30
0.0
 11
796.197782
 21
136.565437
 31
0.0
  0
LINE
  5
372
330
1F
100
AcDbEntity
  8
GR1-1
  6
CONTINUOUS
 62
     2
100
AcDbLine
 10
796.197782
 20
136.565437
 30
0.0
 11
796.953573
 21
136.332885
 31
0.0
  0
LINE
  5
373
330
1F
100
AcDbEntity
  8
GR1-1
  6
CONTINUOUS
 62
     2
100
AcDbLine
 10
795.098498
 20
137.249706
 30
0.0
 11
794.982222
 21
137.017155
 31
0.0
  0
LINE
  5
374
330
1F
100
AcDbEntity
  8
GR1-1
  6
CONTINUOUS
 62
     2
100
AcDbLine
 10
794.982222
 20
137.017155
 30
0.0
 11
795.738013
 21
136.784604
 31
0.0
  0
LINE
  5
375
330
1F
100
AcDbEntity
  8
GR1-1
  6
CONTINUOUS
 62
     2
100
AcDbLine
 10
795.738013
 20
136.784604
 30
0.0
 11
795.098498
 21
137.249706
 31
0.0
  0
LINE
  5
376
330
1F
100
AcDbEntity
  8
GR1-1
  6
CONTINUOUS
 62
     2
100
AcDbLine
 10
796.773085
 20
135.275046
 30
0.0
 11
802.162538
 21
126.564199
 31
0.0
  0
INSERT
  5
377
330
1F
100
AcDbEntity
  8
GR1-1
  6
CONTINUOUS
 62
     2
100
AcDbBlockReference
  2
FXTIP_BLACKTRIANGLE_S
 10
796.773085
 20
135.275046
 30
0.0
 41
2.0
 42
2.0
 50
121.745325
  0
LINE
  5
378
330
1F
100
AcDbEntity
  8
GR1-1
  6
CONTINUOUS
 62
     2
100
AcDbLine
 10
802.162538
 20
126.564199
 30
0.0
 11
811.739974
 21
126.564199
 31
0.0
  0
TEXT
  5
379
330
1F
100
AcDbEntity
  8
GR1-1
  6
CONTINUOUS
 62
     4
100
AcDbText
 10
734.671094
 20
152.740879
 30
0.0
 40
2.0
  1
 正面図 
 41
0.784
  7
FX_VECTOR
 72
     5
 11
742.511094
 21
152.740879
 31
0.0
100
AcDbText
  0
LINE
  5
37A
330
1F
100
AcDbEntity
  8
GR1-1
  6
CONTINUOUS
 62
     4
100
AcDbLine
 10
734.671088
 20
152.540885
 30
0.0
 11
742.511088
 21
152.540885
 31
0.0
  0
TEXT
  5
37B
330
1F
100
AcDbEntity
  8
GR1-1
  6
CONTINUOUS
 62
     4
100
AcDbText
 10
790.977109
 20
152.884277
 30
0.0
 40
2.0
  1
 側面図 
 41
0.784
  7
FX_VECTOR
 72
     5
 11
798.81711
 21
152.884277
 31
0.0
100
AcDbText
  0
LINE
  5
37C
330
1F
100
AcDbEntity
  8
GR1-1
  6
CONTINUOUS
 62
     4
100
AcDbLine
 10
790.977141
 20
152.684281
 30
0.0
 11
798.817141
 21
152.684281
 31
0.0
  0
LINE
  5
37D
330
1F
100
AcDbEntity
  8
GR1-1
  6
CONTINUOUS
 62
     2
100
AcDbLine
 10
829.006898
 20
136.41679
 30
0.0
 11
811.739974
 21
126.564199
 31
0.0
  0
INSERT
  5
37E
330
1F
100
AcDbEntity
  8
GR1-1
  6
CONTINUOUS
 62
     2
100
AcDbBlockReference
  2
FXTIP_ARROW_S
 10
829.006898
 20
136.41679
 30
0.0
 41
2.0
 42
2.0
 50
29.709292
  0
LINE
  5
37F
330
1F
100
AcDbEntity
  8
GR1-1
  6
CONTINUOUS
 62
     2
100
AcDbLine
 10
802.067478
 20
121.502139
 30
0.0
 11
803.551549
 21
124.470281
 31
0.0
  0
LINE
  5
380
330
1F
100
AcDbEntity
  8
GR1-1
  6
CONTINUOUS
 62
     2
100
AcDbLine
 10
799.64657
 20
121.511809
 30
0.0
 11
802.652643
 21
121.511809
 31
0.0
  0
INSERT
  5
381
330
1F
100
AcDbEntity
  8
GR1-1
  6
CONTINUOUS
 62
     2
100
AcDbBlockReference
  2
FXTIP_ARROW_S
 10
799.64657
 20
121.511809
 30
0.0
 41
2.0
 42
2.0
 50
180.0
  0
TEXT
  5
382
330
1F
100
AcDbEntity
  8
GR1-1
  6
CONTINUOUS
 62
     4
100
AcDbText
 10
800.971172
 20
122.409258
 30
0.0
 40
2.0
  1
C
 41
0.7
  7
FX_VECTOR
 72
     5
 11
802.371172
 21
122.409258
 31
0.0
100
AcDbText
  0
TEXT
  5
383
330
1F
100
AcDbEntity
  8
GR1-1
  6
CONTINUOUS
 62
     4
100
AcDbText
 10
804.150781
 20
122.353926
 30
0.0
 40
2.0
  1
D
 41
0.7
  7
FX_VECTOR
 72
     5
 11
805.550781
 21
122.353926
 31
0.0
100
AcDbText
  0
LINE
  5
384
330
1F
100
AcDbEntity
  8
GR1-1
  6
CONTINUOUS
 62
     2
100
AcDbLine
 10
805.658715
 20
121.511809
 30
0.0
 11
802.652643
 21
121.511809
 31
0.0
  0
INSERT
  5
385
330
1F
100
AcDbEntity
  8
GR1-1
  6
CONTINUOUS
 62
     2
100
AcDbBlockReference
  2
FXTIP_ARROW_S
 10
805.658715
 20
121.511809
 30
0.0
 41
2.0
 42
2.0
  0
TEXT
  5
386
330
1F
100
AcDbEntity
  8
GR1-1
  6
CONTINUOUS
 62
     4
100
AcDbText
 10
680.503516
 20
152.884277
 30
0.0
 40
2.0
  1
 A-A 断面図 
 41
0.746667
  7
FX_VECTOR
 72
     5
 11
693.943515
 21
152.884277
 31
0.0
100
AcDbText
  0
LINE
  5
387
330
1F
100
AcDbEntity
  8
GR1-1
  6
CONTINUOUS
 62
     4
100
AcDbLine
 10
680.503506
 20
152.684281
 30
0.0
 11
693.943506
 21
152.684281
 31
0.0
  0
LINE
  5
388
330
1F
100
AcDbEntity
  8
GR1-1
  6
CONTINUOUS
 62
     4
100
AcDbLine
 10
741.210901
 20
83.725105
 30
0.0
 11
753.710901
 21
83.725105
 31
0.0
  0
LINE
  5
389
330
1F
100
AcDbEntity
  8
GR1-1
  6
CONTINUOUS
 62
     4
100
AcDbLine
 10
753.710901
 20
98.03594
 30
0.0
 11
753.710901
 21
83.725105
 31
0.0
  0
LINE
  5
38A
330
1F
100
AcDbEntity
  8
GR1-1
  6
CONTINUOUS
 62
     4
100
AcDbLine
 10
741.210901
 20
98.03594
 30
0.0
 11
753.710901
 21
98.03594
 31
0.0
  0
LINE
  5
38B
330
1F
100
AcDbEntity
  8
GR1-1
  6
CONTINUOUS
 62
     4
100
AcDbLine
 10
741.210901
 20
98.03594
 30
0.0
 11
741.210901
 21
83.725105
 31
0.0
  0
LINE
  5
38C
330
1F
100
AcDbEntity
  8
GR1-1
  6
CONTINUOUS
 62
     4
100
AcDbLine
 10
717.914336
 20
132.183305
 30
0.0
 11
710.758918
 21
146.49414
 31
0.0
  0
LINE
  5
38D
330
1F
100
AcDbEntity
  8
GR1-1
  6
CONTINUOUS
 62
     4
100
AcDbLine
 10
684.253316
 20
132.423305
 30
0.0
 11
677.217899
 21
146.49414
 31
0.0
  0
LINE
  5
38E
330
1F
100
AcDbEntity
  8
GR1-1
  6
CONTINUOUS
 62
     8
100
AcDbLine
 10
716.65758
 20
136.336222
 30
0.0
 11
716.114468
 21
137.274436
 31
0.0
  0
LINE
  5
38F
330
1F
100
AcDbEntity
  8
GR1-1
  6
CONTINUOUS
 62
     4
100
AcDbLine
 10
717.914336
 20
132.183305
 30
0.0
 11
713.014336
 21
132.183305
 31
0.0
  0
LINE
  5
390
330
1F
100
AcDbEntity
  8
GR1-1
  6
CONTINUOUS
 62
     8
100
AcDbLine
 10
717.764463
 20
132.46095
 30
0.0
 11
718.151754
 21
132.978879
 31
0.0
  0
LINE
  5
391
330
1F
100
AcDbEntity
  8
GR1-1
  6
CONTINUOUS
 62
     8
100
AcDbLine
 10
717.693131
 20
134.243536
 30
0.0
 11
717.433087
 21
134.64645
 31
0.0
  0
LINE
  5
392
330
1F
100
AcDbEntity
  8
GR1-1
  6
CONTINUOUS
 62
     8
100
AcDbLine
 10
717.433087
 20
134.64645
 30
0.0
 11
716.65758
 21
136.336222
 31
0.0
  0
LINE
  5
393
330
1F
100
AcDbEntity
  8
GR1-1
  6
CONTINUOUS
 62
     8
100
AcDbLine
 10
718.136234
 20
133.334204
 30
0.0
 11
717.80866
 21
133.859329
 31
0.0
  0
LINE
  5
394
330
1F
100
AcDbEntity
  8
GR1-1
  6
CONTINUOUS
 62
     8
100
AcDbLine
 10
718.151754
 20
132.978879
 30
0.0
 11
718.136234
 21
133.334204
 31
0.0
  0
LINE
  5
395
330
1F
100
AcDbEntity
  8
GR1-1
  6
CONTINUOUS
 62
     8
100
AcDbLine
 10
717.80866
 20
133.859329
 30
0.0
 11
717.693131
 21
134.243536
 31
0.0
  0
LINE
  5
396
330
1F
100
AcDbEntity
  8
GR1-1
  6
CONTINUOUS
 62
     4
100
AcDbLine
 10
710.758918
 20
146.49414
 30
0.0
 11
677.217899
 21
146.49414
 31
0.0
  0
LINE
  5
397
330
1F
100
AcDbEntity
  8
GR1-1
  6
CONTINUOUS
 62
     8
100
AcDbLine
 10
713.03332
 20
143.44085
 30
0.0
 11
712.741687
 21
144.093535
 31
0.0
  0
LINE
  5
398
330
1F
100
AcDbEntity
  8
GR1-1
  6
CONTINUOUS
 62
     8
100
AcDbLine
 10
715.405257
 20
138.646092
 30
0.0
 11
714.672097
 21
140.130913
 31
0.0
  0
TEXT
  5
399
330
1F
100
AcDbEntity
  8
GR1-1
  6
CONTINUOUS
 62
     4
100
AcDbText
 10
715.127656
 20
141.437168
 30
0.0
 40
1.5
  1
1:0.5
 50
297.0
 41
0.7
  7
FX_VECTOR
 72
     5
 11
717.511106
 21
136.759384
 31
0.0
100
AcDbText
  0
LINE
  5
39A
330
1F
100
AcDbEntity
  8
GR1-1
  6
CONTINUOUS
 62
     8
100
AcDbLine
 10
712.83473
 20
142.335757
 30
0.0
 11
713.282306
 21
142.615347
 31
0.0
  0
LINE
  5
39B
330
1F
100
AcDbEntity
  8
GR1-1
  6
CONTINUOUS
 62
     8
100
AcDbLine
 10
713.397747
 20
142.568174
 30
0.0
 11
713.109949
 21
142.383621
 31
0.0
  0
LINE
  5
39C
330
1F
100
AcDbEntity
  8
GR1-1
  6
CONTINUOUS
 62
     8
100
AcDbLine
 10
713.883215
 20
141.814697
 30
0.0
 11
713.569414
 21
142.396277
 31
0.0
  0
LINE
  5
39D
330
1F
100
AcDbEntity
  8
GR1-1
  6
CONTINUOUS
 62
     8
100
AcDbLine
 10
713.569414
 20
142.396277
 30
0.0
 11
713.397747
 21
142.568174
 31
0.0
  0
LINE
  5
39E
330
1F
100
AcDbEntity
  8
GR1-1
  6
CONTINUOUS
 62
     8
100
AcDbLine
 10
713.109949
 20
142.383621
 30
0.0
 11
712.868251
 21
142.341586
 31
0.0
  0
LINE
  5
39F
330
1F
100
AcDbEntity
  8
GR1-1
  6
CONTINUOUS
 62
     8
100
AcDbLine
 10
713.352645
 20
142.827514
 30
0.0
 11
713.03332
 21
143.44085
 31
0.0
  0
LINE
  5
3A0
330
1F
100
AcDbEntity
  8
GR1-1
  6
CONTINUOUS
 62
     8
100
AcDbLine
 10
713.282306
 20
142.615347
 30
0.0
 11
713.352645
 21
142.827514
 31
0.0
  0
LINE
  5
3A1
330
1F
100
AcDbEntity
  8
GR1-1
  6
CONTINUOUS
 62
     8
100
AcDbLine
 10
714.672097
 20
140.130913
 30
0.0
 11
714.363084
 21
140.894847
 31
0.0
  0
LINE
  5
3A2
330
1F
100
AcDbEntity
  8
GR1-1
  6
CONTINUOUS
 62
     8
100
AcDbLine
 10
714.363084
 20
140.894847
 30
0.0
 11
714.152144
 21
141.292564
 31
0.0
  0
LINE
  5
3A3
330
1F
100
AcDbEntity
  8
GR1-1
  6
CONTINUOUS
 62
     8
100
AcDbLine
 10
714.152144
 20
141.292564
 30
0.0
 11
713.883215
 21
141.814697
 31
0.0
  0
LINE
  5
3A4
330
1F
100
AcDbEntity
  8
GR1-1
  6
CONTINUOUS
 62
     8
100
AcDbLine
 10
715.963581
 20
137.620409
 30
0.0
 11
715.519142
 21
137.991254
 31
0.0
  0
LINE
  5
3A5
330
1F
100
AcDbEntity
  8
GR1-1
  6
CONTINUOUS
 62
     8
100
AcDbLine
 10
716.114468
 20
137.274436
 30
0.0
 11
716.271214
 21
136.957862
 31
0.0
  0
LINE
  5
3A6
330
1F
100
AcDbEntity
  8
GR1-1
  6
CONTINUOUS
 62
     8
100
AcDbLine
 10
716.271214
 20
136.957862
 30
0.0
 11
715.963581
 21
137.620409
 31
0.0
  0
LINE
  5
3A7
330
1F
100
AcDbEntity
  8
GR1-1
  6
CONTINUOUS
 62
     8
100
AcDbLine
 10
715.573514
 20
138.22478
 30
0.0
 11
715.405257
 21
138.646092
 31
0.0
  0
LINE
  5
3A8
330
1F
100
AcDbEntity
  8
GR1-1
  6
CONTINUOUS
 62
     8
100
AcDbLine
 10
715.588315
 20
138.139675
 30
0.0
 11
715.573514
 21
138.22478
 31
0.0
  0
LINE
  5
3A9
330
1F
100
AcDbEntity
  8
GR1-1
  6
CONTINUOUS
 62
     8
100
AcDbLine
 10
715.157752
 20
137.884564
 30
0.0
 11
715.588315
 21
138.139675
 31
0.0
  0
LINE
  5
3AA
330
1F
100
AcDbEntity
  8
GR1-1
  6
CONTINUOUS
 62
     8
100
AcDbLine
 10
715.519142
 20
137.991254
 30
0.0
 11
715.157752
 21
137.884564
 31
0.0
  0
LINE
  5
3AB
330
1F
100
AcDbEntity
  8
GR1-1
  6
CONTINUOUS
 62
     8
100
AcDbLine
 10
712.741687
 20
144.093535
 30
0.0
 11
712.455883
 21
144.712701
 31
0.0
  0
LINE
  5
3AC
330
1F
100
AcDbEntity
  8
GR1-1
  6
CONTINUOUS
 62
     8
100
AcDbLine
 10
711.971949
 20
145.666378
 30
0.0
 11
711.650554
 21
146.281171
 31
0.0
  0
LINE
  5
3AD
330
1F
100
AcDbEntity
  8
GR1-1
  6
CONTINUOUS
 62
     8
100
AcDbLine
 10
712.170309
 20
145.131972
 30
0.0
 11
711.971949
 21
145.666378
 31
0.0
  0
LINE
  5
3AE
330
1F
100
AcDbEntity
  8
GR1-1
  6
CONTINUOUS
 62
     8
100
AcDbLine
 10
712.455883
 20
144.712701
 30
0.0
 11
712.170309
 21
145.131972
 31
0.0
  0
LINE
  5
3AF
330
1F
100
AcDbEntity
  8
GR1-1
  6
CONTINUOUS
 62
     8
100
AcDbLine
 10
711.27278
 20
146.415405
 30
0.0
 11
710.871304
 21
146.278333
 31
0.0
  0
LINE
  5
3B0
330
1F
100
AcDbEntity
  8
GR1-1
  6
CONTINUOUS
 62
     8
100
AcDbLine
 10
711.525831
 20
146.392163
 30
0.0
 11
711.27278
 21
146.415405
 31
0.0
  0
LINE
  5
3B1
330
1F
100
AcDbEntity
  8
GR1-1
  6
CONTINUOUS
 62
     8
100
AcDbLine
 10
711.650554
 20
146.281171
 30
0.0
 11
711.525831
 21
146.392163
 31
0.0
  0
TEXT
  5
3B2
330
1F
100
AcDbEntity
  8
GR1-1
  6
CONTINUOUS
 62
     4
100
AcDbText
 10
740.98625
 20
104.36582
 30
0.0
 40
2.0
  1
 C-C 断面図 
 41
0.746667
  7
FX_VECTOR
 72
     5
 11
754.42625
 21
104.36582
 31
0.0
100
AcDbText
  0
LINE
  5
3B3
330
1F
100
AcDbEntity
  8
GR1-1
  6
CONTINUOUS
 62
     4
100
AcDbLine
 10
740.986243
 20
104.16583
 30
0.0
 11
754.426243
 21
104.16583
 31
0.0
  0
LINE
  5
3B4
330
1F
100
AcDbEntity
  8
GR1-1
  6
CONTINUOUS
 62
     4
100
AcDbLine
 10
712.014336
 20
132.183305
 30
0.0
 11
712.114336
 21
132.423305
 31
0.0
  0
LINE
  5
3B5
330
1F
100
AcDbEntity
  8
GR1-1
  6
CONTINUOUS
 62
     4
100
AcDbLine
 10
712.114336
 20
132.423305
 30
0.0
 11
712.914336
 21
132.423305
 31
0.0
  0
LINE
  5
3B6
330
1F
100
AcDbEntity
  8
GR1-1
  6
CONTINUOUS
 62
     4
100
AcDbLine
 10
712.914336
 20
132.423305
 30
0.0
 11
713.014336
 21
132.183305
 31
0.0
  0
LINE
  5
3B7
330
1F
100
AcDbEntity
  8
GR1-1
  6
CONTINUOUS
 62
     4
100
AcDbLine
 10
709.058918
 20
146.49414
 30
0.0
 11
708.883918
 21
145.49414
 31
0.0
  0
LINE
  5
3B8
330
1F
100
AcDbEntity
  8
GR1-1
  6
CONTINUOUS
 62
     4
100
AcDbLine
 10
708.883918
 20
145.49414
 30
0.0
 11
708.633918
 21
145.49414
 31
0.0
  0
LINE
  5
3B9
330
1F
100
AcDbEntity
  8
GR1-1
  6
CONTINUOUS
 62
     4
100
AcDbLine
 10
708.633918
 20
145.49414
 30
0.0
 11
708.458918
 21
146.49414
 31
0.0
  0
LINE
  5
3BA
330
1F
100
AcDbEntity
  8
GR1-1
  6
CONTINUOUS
 62
     4
100
AcDbLine
 10
688.173316
 20
132.423305
 30
0.0
 11
688.973316
 21
132.423305
 31
0.0
  0
LINE
  5
3BB
330
1F
100
AcDbEntity
  8
GR1-1
  6
CONTINUOUS
 62
     4
100
AcDbLine
 10
688.073316
 20
132.183305
 30
0.0
 11
688.173316
 21
132.423305
 31
0.0
  0
LINE
  5
3BC
330
1F
100
AcDbEntity
  8
GR1-1
  6
CONTINUOUS
 62
     4
100
AcDbLine
 10
688.973316
 20
132.423305
 30
0.0
 11
689.073316
 21
132.183305
 31
0.0
  0
LINE
  5
3BD
330
1F
100
AcDbEntity
  8
GR1-1
  6
CONTINUOUS
 62
     4
100
AcDbLine
 10
684.253316
 20
132.423305
 30
0.0
 11
685.173316
 21
132.423305
 31
0.0
  0
LINE
  5
3BE
330
1F
100
AcDbEntity
  8
GR1-1
  6
CONTINUOUS
 62
     4
100
AcDbLine
 10
685.173316
 20
132.423305
 30
0.0
 11
685.273316
 21
132.183305
 31
0.0
  0
LINE
  5
3BF
330
1F
100
AcDbEntity
  8
GR1-1
  6
CONTINUOUS
 62
     4
100
AcDbLine
 10
716.039336
 20
133.183305
 30
0.0
 11
716.214336
 21
132.183305
 31
0.0
  0
LINE
  5
3C0
330
1F
100
AcDbEntity
  8
GR1-1
  6
CONTINUOUS
 62
     4
100
AcDbLine
 10
715.789336
 20
133.183305
 30
0.0
 11
716.039336
 21
133.183305
 31
0.0
  0
LINE
  5
3C1
330
1F
100
AcDbEntity
  8
GR1-1
  6
CONTINUOUS
 62
     4
100
AcDbLine
 10
715.614336
 20
132.183305
 30
0.0
 11
715.789336
 21
133.183305
 31
0.0
  0
INSERT
  5
3C5
330
1F
100
AcDbEntity
  8
0
100
AcDbBlockReference
  2
BLKF062
 10
0.0
 20
0.0
 30
0.0
  0
INSERT
  5
3D4
330
1F
100
AcDbEntity
  8
0
100
AcDbBlockReference
  2
BLKF063
 10
0.0
 20
0.0
 30
0.0
  0
INSERT
  5
3E3
330
1F
100
AcDbEntity
  8
0
100
AcDbBlockReference
  2
BLKF064
 10
0.0
 20
0.0
 30
0.0
  0
INSERT
  5
3F1
330
1F
100
AcDbEntity
  8
0
100
AcDbBlockReference
  2
BLKF065
 10
0.0
 20
0.0
 30
0.0
  0
INSERT
  5
3FF
330
1F
100
AcDbEntity
  8
0
100
AcDbBlockReference
  2
BLKF066
 10
0.0
 20
0.0
 30
0.0
  0
LINE
  5
405
330
1F
100
AcDbEntity
  8
GR1-1
  6
CONTINUOUS
 62
     2
100
AcDbLine
 10
688.608557
 20
132.559164
 30
0.0
 11
691.424766
 21
138.339946
 31
0.0
  0
INSERT
  5
406
330
1F
100
AcDbEntity
  8
GR1-1
  6
CONTINUOUS
 62
     2
100
AcDbBlockReference
  2
FXTIP_ARROW_S
 10
688.608557
 20
132.559164
 30
0.0
 41
2.0
 42
2.0
 50
244.026169
  0
LINE
  5
407
330
1F
100
AcDbEntity
  8
GR1-1
  6
CONTINUOUS
 62
     2
100
AcDbLine
 10
712.367115
 20
132.610321
 30
0.0
 11
691.424766
 21
138.339946
 31
0.0
  0
INSERT
  5
408
330
1F
100
AcDbEntity
  8
GR1-1
  6
CONTINUOUS
 62
     2
100
AcDbBlockReference
  2
FXTIP_ARROW_S
 10
712.367115
 20
132.610321
 30
0.0
 41
2.0
 42
2.0
 50
344.698863
  0
LINE
  5
409
330
1F
100
AcDbEntity
  8
GR1-1
  6
CONTINUOUS
 62
     4
100
AcDbLine
 10
745.460901
 20
98.03594
 30
0.0
 11
745.460901
 21
83.725105
 31
0.0
  0
ELLIPSE
  5
40A
330
1F
100
AcDbEntity
  8
GR1-1
  6
CONTINUOUS
 62
     4
100
AcDbEllipse
 10
753.710901
 20
87.705105
 30
0.0
 11
9.307008289050067E-17
 21
-1.52
 31
0.0
210
0.0
220
0.0
230
1.0
 40
0.657895
 41
3.141592653589793
 42
6.283185307179586
  0
ELLIPSE
  5
40C
330
1F
100
AcDbEntity
  8
GR1-1
  6
HIDDEN2
 62
     2
100
AcDbEllipse
 10
753.710901
 20
87.305105
 30
0.0
 11
9.307008289050067E-17
 21
-1.52
 31
0.0
210
0.0
220
0.0
230
1.0
 40
0.657895
 41
3.141592653589793
 42
6.283185307179586
  0
ELLIPSE
  5
40D
330
1F
100
AcDbEntity
  8
GR1-1
  6
CONTINUOUS
 62
     4
100
AcDbEllipse
 10
741.210901
 20
87.705105
 30
0.0
 11
9.307008289050067E-17
 21
-1.52
 31
0.0
210
0.0
220
0.0
230
1.0
 40
0.657895
 41
0.0
 42
3.141592653589793
  0
ELLIPSE
  5
40E
330
1F
100
AcDbEntity
  8
GR1-1
  6
HIDDEN2
 62
     2
100
AcDbEllipse
 10
741.210901
 20
87.305105
 30
0.0
 11
9.307008289050067E-17
 21
-1.52
 31
0.0
210
0.0
220
0.0
230
1.0
 40
0.657895
 41
0.0
 42
3.141592653589793
  0
LINE
  5
40F
330
1F
100
AcDbEntity
  8
GR1-1
  6
CONTINUOUS
 62
     4
100
AcDbLine
 10
749.460901
 20
98.03594
 30
0.0
 11
749.460901
 21
83.725105
 31
0.0
  0
LINE
  5
410
330
1F
100
AcDbEntity
  8
GR1-1
  6
CONTINUOUS
 62
     4
100
AcDbLine
 10
749.860901
 20
98.03594
 30
0.0
 11
749.860901
 21
83.725105
 31
0.0
  0
LINE
  5
411
330
1F
100
AcDbEntity
  8
GR1-1
  6
CONTINUOUS
 62
     4
100
AcDbLine
 10
745.060901
 20
98.03594
 30
0.0
 11
745.060901
 21
83.725105
 31
0.0
  0
LINE
  5
412
330
1F
100
AcDbEntity
  8
GR1-1
  6
CONTINUOUS
 62
     4
100
AcDbLine
 10
746.260901
 20
83.965105
 30
0.0
 11
746.360901
 21
83.725105
 31
0.0
  0
LINE
  5
413
330
1F
100
AcDbEntity
  8
GR1-1
  6
CONTINUOUS
 62
     4
100
AcDbLine
 10
745.460901
 20
83.965105
 30
0.0
 11
746.260901
 21
83.965105
 31
0.0
  0
LINE
  5
414
330
1F
100
AcDbEntity
  8
GR1-1
  6
CONTINUOUS
 62
     4
100
AcDbLine
 10
748.660901
 20
83.965105
 30
0.0
 11
748.560901
 21
83.725105
 31
0.0
  0
LINE
  5
415
330
1F
100
AcDbEntity
  8
GR1-1
  6
CONTINUOUS
 62
     4
100
AcDbLine
 10
749.460901
 20
83.965105
 30
0.0
 11
748.660901
 21
83.965105
 31
0.0
  0
LINE
  5
416
330
1F
100
AcDbEntity
  8
GR1-1
  6
CONTINUOUS
 62
     4
100
AcDbLine
 10
749.460901
 20
94.481105
 30
0.0
 11
745.460901
 21
93.880523
 31
0.0
  0
LINE
  5
417
330
1F
100
AcDbEntity
  8
GR1-1
  6
CONTINUOUS
 62
     4
100
AcDbLine
 10
749.460901
 20
87.281105
 30
0.0
 11
745.460901
 21
87.880523
 31
0.0
  0
INSERT
  5
41B
330
1F
100
AcDbEntity
  8
0
100
AcDbBlockReference
  2
BLKF067
 10
0.0
 20
0.0
 30
0.0
  0
INSERT
  5
42A
330
1F
100
AcDbEntity
  8
0
100
AcDbBlockReference
  2
BLKF068
 10
0.0
 20
0.0
 30
0.0
  0
INSERT
  5
438
330
1F
100
AcDbEntity
  8
0
100
AcDbBlockReference
  2
BLKF069
 10
0.0
 20
0.0
 30
0.0
  0
INSERT
  5
446
330
1F
100
AcDbEntity
  8
0
100
AcDbBlockReference
  2
BLKF070
 10
0.0
 20
0.0
 30
0.0
  0
INSERT
  5
454
330
1F
100
AcDbEntity
  8
0
100
AcDbBlockReference
  2
BLKF071
 10
0.0
 20
0.0
 30
0.0
  0
TEXT
  5
45F
330
1F
100
AcDbEntity
  8
GR1-1
  6
CONTINUOUS
 62
     4
100
AcDbText
 10
790.493281
 20
104.36582
 30
0.0
 40
2.0
  1
 D-D 断面図 
 41
0.746667
  7
FX_VECTOR
 72
     5
 11
803.933281
 21
104.36582
 31
0.0
100
AcDbText
  0
LINE
  5
460
330
1F
100
AcDbEntity
  8
GR1-1
  6
CONTINUOUS
 62
     4
100
AcDbLine
 10
790.493303
 20
104.16583
 30
0.0
 11
803.933303
 21
104.16583
 31
0.0
  0
LINE
  5
461
330
1F
100
AcDbEntity
  8
GR1-1
  6
CONTINUOUS
 62
     4
100
AcDbLine
 10
712.014336
 20
132.183305
 30
0.0
 11
689.073316
 21
132.183305
 31
0.0
  0
LINE
  5
462
330
1F
100
AcDbEntity
  8
GR1-1
  6
CONTINUOUS
 62
     4
100
AcDbLine
 10
688.073316
 20
132.183305
 30
0.0
 11
685.273316
 21
132.183305
 31
0.0
  0
INSERT
  5
466
330
1F
100
AcDbEntity
  8
0
100
AcDbBlockReference
  2
BLKF072
 10
0.0
 20
0.0
 30
0.0
  0
INSERT
  5
474
330
1F
100
AcDbEntity
  8
0
100
AcDbBlockReference
  2
BLKF073
 10
0.0
 20
0.0
 30
0.0
  0
INSERT
  5
483
330
1F
100
AcDbEntity
  8
0
100
AcDbBlockReference
  2
BLKF074
 10
0.0
 20
0.0
 30
0.0
  0
INSERT
  5
491
330
1F
100
AcDbEntity
  8
0
100
AcDbBlockReference
  2
BLKF075
 10
0.0
 20
0.0
 30
0.0
  0
INSERT
  5
49F
330
1F
100
AcDbEntity
  8
0
100
AcDbBlockReference
  2
BLKF076
 10
0.0
 20
0.0
 30
0.0
  0
INSERT
  5
4AD
330
1F
100
AcDbEntity
  8
0
100
AcDbBlockReference
  2
BLKF077
 10
0.0
 20
0.0
 30
0.0
  0
INSERT
  5
4BC
330
1F
100
AcDbEntity
  8
0
100
AcDbBlockReference
  2
BLKF078
 10
0.0
 20
0.0
 30
0.0
  0
INSERT
  5
4CB
330
1F
100
AcDbEntity
  8
0
100
AcDbBlockReference
  2
BLKF079
 10
0.0
 20
0.0
 30
0.0
  0
INSERT
  5
4DA
330
1F
100
AcDbEntity
  8
0
100
AcDbBlockReference
  2
BLKF080
 10
0.0
 20
0.0
 30
0.0
  0
INSERT
  5
4E8
330
1F
100
AcDbEntity
  8
0
100
AcDbBlockReference
  2
BLKF081
 10
0.0
 20
0.0
 30
0.0
  0
INSERT
  5
4F7
330
1F
100
AcDbEntity
  8
0
100
AcDbBlockReference
  2
BLKF082
 10
0.0
 20
0.0
 30
0.0
  0
LINE
  5
502
330
1F
100
AcDbEntity
  8
GR1-1
  6
CONTINUOUS
 62
     4
100
AcDbLine
 10
708.317935
 20
136.338723
 30
0.0
 11
686.814299
 21
136.338723
 31
0.0
  0
LINE
  5
503
330
1F
100
AcDbEntity
  8
GR1-1
  6
CONTINUOUS
 62
     4
100
AcDbLine
 10
708.317935
 20
142.338723
 30
0.0
 11
686.814299
 21
142.338723
 31
0.0
  0
LINE
  5
504
330
1F
100
AcDbEntity
  8
GR1-1
  6
CONTINUOUS
 62
     4
100
AcDbLine
 10
686.214299
 20
136.938723
 30
0.0
 11
686.214299
 21
141.738723
 31
0.0
  0
LINE
  5
505
330
1F
100
AcDbEntity
  8
GR1-1
  6
CONTINUOUS
 62
     4
100
AcDbLine
 10
708.917935
 20
136.938723
 30
0.0
 11
708.917935
 21
141.738723
 31
0.0
  0
LINE
  5
506
330
1F
100
AcDbEntity
  8
GR1-1
  6
CONTINUOUS
 62
     4
100
AcDbLine
 10
749.460901
 20
201.957986
 30
0.0
 11
749.460901
 21
174.417136
 31
0.0
  0
LINE
  5
507
330
1F
100
AcDbEntity
  8
GR1-1
  6
CONTINUOUS
 62
     4
100
AcDbLine
 10
749.860901
 20
202.357986
 30
0.0
 11
749.860901
 21
195.202568
 31
0.0
  0
LINE
  5
508
330
1F
100
AcDbEntity
  8
GR1-1
  6
CONTINUOUS
 62
     4
100
AcDbLine
 10
745.460901
 20
201.957986
 30
0.0
 11
745.460901
 21
174.417136
 31
0.0
  0
LINE
  5
509
330
1F
100
AcDbEntity
  8
GR1-1
  6
CONTINUOUS
 62
     4
100
AcDbLine
 10
745.060901
 20
202.357986
 30
0.0
 11
745.060901
 21
195.202568
 31
0.0
  0
INSERT
  5
50D
330
1F
100
AcDbEntity
  8
0
100
AcDbBlockReference
  2
BLKF083
 10
0.0
 20
0.0
 30
0.0
  0
INSERT
  5
51C
330
1F
100
AcDbEntity
  8
0
100
AcDbBlockReference
  2
BLKF084
 10
0.0
 20
0.0
 30
0.0
  0
INSERT
  5
52B
330
1F
100
AcDbEntity
  8
0
100
AcDbBlockReference
  2
BLKF085
 10
0.0
 20
0.0
 30
0.0
  0
LINE
  5
537
330
1F
100
AcDbEntity
  8
GR1-1
  6
CONTINUOUS
 62
     4
100
AcDbLine
 10
741.260901
 20
204.929465
 30
0.0
 11
741.260901
 21
196.320602
 31
0.0
  0
LINE
  5
538
330
1F
100
AcDbEntity
  8
GR1-1
  6
CONTINUOUS
 62
     4
100
AcDbLine
 10
753.660901
 20
204.929465
 30
0.0
 11
753.660901
 21
196.320602
 31
0.0
  0
INSERT
  5
53C
330
1F
100
AcDbEntity
  8
0
100
AcDbBlockReference
  2
BLKF086
 10
0.0
 20
0.0
 30
0.0
  0
INSERT
  5
54B
330
1F
100
AcDbEntity
  8
0
100
AcDbBlockReference
  2
BLKF087
 10
0.0
 20
0.0
 30
0.0
  0
LINE
  5
557
330
1F
100
AcDbEntity
  8
GR1-1
  6
CONTINUOUS
 62
     4
100
AcDbLine
 10
753.710901
 20
172.851888
 30
0.0
 11
753.710901
 21
164.243027
 31
0.0
  0
LINE
  5
558
330
1F
100
AcDbEntity
  8
GR1-1
  6
CONTINUOUS
 62
     4
100
AcDbLine
 10
741.210901
 20
172.851888
 30
0.0
 11
741.210901
 21
164.243027
 31
0.0
  0
INSERT
  5
55C
330
1F
100
AcDbEntity
  8
0
100
AcDbBlockReference
  2
BLKF088
 10
0.0
 20
0.0
 30
0.0
  0
LINE
  5
567
330
1F
100
AcDbEntity
  8
GR1-1
  6
CONTINUOUS
 62
     4
100
AcDbLine
 10
741.210901
 20
164.243027
 30
0.0
 11
753.710901
 21
164.243027
 31
0.0
  0
TEXT
  5
568
330
1F
100
AcDbEntity
  8
GR1-1
  6
CONTINUOUS
 62
     4
100
AcDbText
 10
745.444375
 20
160.813477
 30
0.0
 40
2.0
  1
A
 41
0.7
  7
FX_VECTOR
 72
     5
 11
746.844375
 21
160.813477
 31
0.0
100
AcDbText
  0
LINE
  5
569
330
1F
100
AcDbEntity
  8
GR1-1
  6
CONTINUOUS
 62
     2
100
AcDbLine
 10
747.395746
 20
160.151732
 30
0.0
 11
747.395746
 21
163.21669
 31
0.0
  0
LINE
  5
56A
330
1F
100
AcDbEntity
  8
GR1-1
  6
CONTINUOUS
 62
     2
100
AcDbLine
 10
744.389674
 20
160.161403
 30
0.0
 11
747.395746
 21
160.161403
 31
0.0
  0
INSERT
  5
56B
330
1F
100
AcDbEntity
  8
GR1-1
  6
CONTINUOUS
 62
     2
100
AcDbBlockReference
  2
FXTIP_ARROW_S
 10
744.389674
 20
160.161403
 30
0.0
 41
2.0
 42
2.0
 50
180.0
  0
INSERT
  5
56F
330
1F
100
AcDbEntity
  8
0
100
AcDbBlockReference
  2
BLKF089
 10
0.0
 20
0.0
 30
0.0
  0
CIRCLE
  5
57A
330
1F
100
AcDbEntity
  8
GR1-1
  6
CONTINUOUS
 62
     2
100
AcDbCircle
 10
747.460901
 20
175.398444
 30
0.0
 40
0.1
  0
LINE
  5
57B
330
1F
100
AcDbEntity
  8
GR1-1
  6
CONTINUOUS
 62
     2
100
AcDbLine
 10
747.153707
 20
175.398444
 30
0.0
 11
747.768094
 21
175.398444
 31
0.0
  0
CIRCLE
  5
57C
330
1F
100
AcDbEntity
  8
GR1-1
  6
CONTINUOUS
 62
     2
100
AcDbCircle
 10
747.460901
 20
173.398444
 30
0.0
 40
0.3
  0
CIRCLE
  5
57D
330
1F
100
AcDbEntity
  8
GR1-1
  6
CONTINUOUS
 62
     4
100
AcDbCircle
 10
747.460901
 20
175.398444
 30
0.0
 40
0.6
  0
LINE
  5
57E
330
1F
100
AcDbEntity
  8
GR1-1
  6
CONTINUOUS
 62
     4
100
AcDbLine
 10
753.710901
 20
171.398444
 30
0.0
 11
741.210901
 21
171.398444
 31
0.0
  0
LINE
  5
57F
330
1F
100
AcDbEntity
  8
GR1-1
  6
CONTINUOUS
 62
     4
100
AcDbLine
 10
741.210901
 20
171.398444
 30
0.0
 11
753.710901
 21
171.398444
 31
0.0
  0
LINE
  5
580
330
1F
100
AcDbEntity
  8
GR1-1
  6
CONTINUOUS
 62
     4
100
AcDbLine
 10
741.210901
 20
172.851888
 30
0.0
 11
745.060901
 21
173.969922
 31
0.0
  0
INSERT
  5
584
330
1F
100
AcDbEntity
  8
0
100
AcDbBlockReference
  2
BLKF090
 10
0.0
 20
0.0
 30
0.0
  0
LINE
  5
58F
330
1F
100
AcDbEntity
  8
GR1-1
  6
CONTINUOUS
 62
     4
100
AcDbLine
 10
745.060901
 20
173.969922
 30
0.0
 11
745.460901
 21
174.417136
 31
0.0
  0
LINE
  5
590
330
1F
100
AcDbEntity
  8
GR1-1
  6
CONTINUOUS
 62
     2
100
AcDbLine
 10
747.460901
 20
175.705638
 30
0.0
 11
747.460901
 21
175.091251
 31
0.0
  0
LINE
  5
591
330
1F
100
AcDbEntity
  8
GR1-1
  6
CONTINUOUS
 62
     4
100
AcDbLine
 10
741.260901
 20
196.320602
 30
0.0
 11
745.060901
 21
195.202568
 31
0.0
  0
LINE
  5
592
330
1F
100
AcDbEntity
  8
GR1-1
  6
CONTINUOUS
 62
     4
100
AcDbLine
 10
745.060901
 20
195.202568
 30
0.0
 11
745.460901
 21
194.802568
 31
0.0
  0
INSERT
  5
596
330
1F
100
AcDbEntity
  8
0
100
AcDbBlockReference
  2
BLKF091
 10
0.0
 20
0.0
 30
0.0
  0
LINE
  5
59B
330
1F
100
AcDbEntity
  8
GR1-1
  6
CONTINUOUS
 62
     2
100
AcDbLine
 10
752.280176
 20
175.375552
 30
0.0
 11
758.377627
 21
175.375552
 31
0.0
  0
LINE
  5
59C
330
1F
100
AcDbEntity
  8
GR1-1
  6
CONTINUOUS
 62
     4
100
AcDbLine
 10
753.710901
 20
172.851888
 30
0.0
 11
749.860901
 21
173.969922
 31
0.0
  0
INSERT
  5
5A0
330
1F
100
AcDbEntity
  8
0
100
AcDbBlockReference
  2
BLKF092
 10
0.0
 20
0.0
 30
0.0
  0
LINE
  5
5A5
330
1F
100
AcDbEntity
  8
GR1-1
  6
CONTINUOUS
 62
     4
100
AcDbLine
 10
749.860901
 20
173.969922
 30
0.0
 11
749.460901
 21
174.417136
 31
0.0
  0
LINE
  5
5A6
330
1F
100
AcDbEntity
  8
GR1-1
  6
CONTINUOUS
 62
     2
100
AcDbLine
 10
755.380598
 20
181.357985
 30
0.0
 11
765.81202
 21
181.357985
 31
0.0
  0
LINE
  5
5A7
330
1F
100
AcDbEntity
  8
GR1-1
  6
CONTINUOUS
 62
     4
100
AcDbLine
 10
749.860901
 20
195.202568
 30
0.0
 11
753.660901
 21
196.320602
 31
0.0
  0
LINE
  5
5A8
330
1F
100
AcDbEntity
  8
GR1-1
  6
CONTINUOUS
 62
     4
100
AcDbLine
 10
749.460901
 20
194.802568
 30
0.0
 11
749.860901
 21
195.202568
 31
0.0
  0
INSERT
  5
5AC
330
1F
100
AcDbEntity
  8
0
100
AcDbBlockReference
  2
BLKF093
 10
0.0
 20
0.0
 30
0.0
  0
INSERT
  5
5BA
330
1F
100
AcDbEntity
  8
0
100
AcDbBlockReference
  2
BLKF094
 10
0.0
 20
0.0
 30
0.0
  0
LINE
  5
5C5
330
1F
100
AcDbEntity
  8
GR1-1
  6
CONTINUOUS
 62
     4
100
AcDbLine
 10
741.260901
 20
204.929465
 30
0.0
 11
753.660901
 21
204.929465
 31
0.0
  0
INSERT
  5
5C9
330
1F
100
AcDbEntity
  8
0
100
AcDbBlockReference
  2
BLKF095
 10
0.0
 20
0.0
 30
0.0
  0
INSERT
  5
5D7
330
1F
100
AcDbEntity
  8
0
100
AcDbBlockReference
  2
BLKF096
 10
0.0
 20
0.0
 30
0.0
  0
LINE
  5
5E3
330
1F
100
AcDbEntity
  8
GR1-1
  6
CONTINUOUS
 62
     4
100
AcDbLine
 10
741.260901
 20
203.47602
 30
0.0
 11
745.060901
 21
202.357986
 31
0.0
  0
LINE
  5
5E4
330
1F
100
AcDbEntity
  8
GR1-1
  6
CONTINUOUS
 62
     2
100
AcDbLine
 10
747.153707
 20
202.929465
 30
0.0
 11
747.768094
 21
202.929465
 31
0.0
  0
CIRCLE
  5
5E5
330
1F
100
AcDbEntity
  8
GR1-1
  6
CONTINUOUS
 62
     4
100
AcDbCircle
 10
747.460901
 20
202.929465
 30
0.0
 40
0.6
  0
CIRCLE
  5
5E6
330
1F
100
AcDbEntity
  8
GR1-1
  6
CONTINUOUS
 62
     2
100
AcDbCircle
 10
747.460901
 20
202.929465
 30
0.0
 40
0.1
  0
LINE
  5
5E7
330
1F
100
AcDbEntity
  8
GR1-1
  6
CONTINUOUS
 62
     4
100
AcDbLine
 10
745.060901
 20
202.357986
 30
0.0
 11
745.460901
 21
201.957986
 31
0.0
  0
LINE
  5
5E8
330
1F
100
AcDbEntity
  8
GR1-1
  6
CONTINUOUS
 62
     2
100
AcDbLine
 10
747.460901
 20
203.236658
 30
0.0
 11
747.460901
 21
202.622271
 31
0.0
  0
TEXT
  5
5E9
330
1F
100
AcDbEntity
  8
GR1-1
  6
CONTINUOUS
 62
     4
100
AcDbText
 10
734.74625
 20
215.886602
 30
0.0
 40
2.0
  1
 平面図 
 41
0.784
  7
FX_VECTOR
 72
     5
 11
742.58625
 21
215.886602
 31
0.0
100
AcDbText
  0
LINE
  5
5EA
330
1F
100
AcDbEntity
  8
GR1-1
  6
CONTINUOUS
 62
     4
100
AcDbLine
 10
734.746259
 20
215.686589
 30
0.0
 11
742.586259
 21
215.686589
 31
0.0
  0
LINE
  5
5EB
330
1F
100
AcDbEntity
  8
GR1-1
  6
CONTINUOUS
 62
     2
100
AcDbLine
 10
747.395746
 20
218.462389
 30
0.0
 11
747.395746
 21
215.397432
 31
0.0
  0
TEXT
  5
5EC
330
1F
100
AcDbEntity
  8
GR1-1
  6
CONTINUOUS
 62
     4
100
AcDbText
 10
745.444375
 20
215.800625
 30
0.0
 40
2.0
  1
A
 41
0.7
  7
FX_VECTOR
 72
     5
 11
746.844375
 21
215.800625
 31
0.0
100
AcDbText
  0
LINE
  5
5ED
330
1F
100
AcDbEntity
  8
GR1-1
  6
CONTINUOUS
 62
     2
100
AcDbLine
 10
744.389674
 20
218.452719
 30
0.0
 11
747.395746
 21
218.452719
 31
0.0
  0
INSERT
  5
5EE
330
1F
100
AcDbEntity
  8
GR1-1
  6
CONTINUOUS
 62
     2
100
AcDbBlockReference
  2
FXTIP_ARROW_S
 10
744.389674
 20
218.452719
 30
0.0
 41
2.0
 42
2.0
 50
180.0
  0
INSERT
  5
5F2
330
1F
100
AcDbEntity
  8
0
100
AcDbBlockReference
  2
BLKF097
 10
0.0
 20
0.0
 30
0.0
  0
INSERT
  5
600
330
1F
100
AcDbEntity
  8
0
100
AcDbBlockReference
  2
BLKF098
 10
0.0
 20
0.0
 30
0.0
  0
LINE
  5
60C
330
1F
100
AcDbEntity
  8
GR1-1
  6
CONTINUOUS
 62
     4
100
AcDbLine
 10
749.860901
 20
202.357986
 30
0.0
 11
753.660901
 21
203.47602
 31
0.0
  0
LINE
  5
60D
330
1F
100
AcDbEntity
  8
GR1-1
  6
CONTINUOUS
 62
     4
100
AcDbLine
 10
749.460901
 20
201.957986
 30
0.0
 11
749.860901
 21
202.357986
 31
0.0
  0
INSERT
  5
611
330
1F
100
AcDbEntity
  8
0
100
AcDbBlockReference
  2
BLKF099
 10
0.0
 20
0.0
 30
0.0
  0
INSERT
  5
61F
330
1F
100
AcDbEntity
  8
0
100
AcDbBlockReference
  2
BLKF100
 10
0.0
 20
0.0
 30
0.0
  0
ELLIPSE
  5
62A
330
1F
100
AcDbEntity
  8
GR1-1
  6
HIDDEN2
 62
     2
100
AcDbEllipse
 10
803.217962
 20
87.805105
 30
0.0
 11
9.307008289050067E-17
 21
-1.52
 31
0.0
210
0.0
220
0.0
230
1.0
 40
0.657895
 41
3.141592653589793
 42
6.283185307179586
  0
ELLIPSE
  5
62B
330
1F
100
AcDbEntity
  8
GR1-1
  6
HIDDEN2
 62
     2
100
AcDbEllipse
 10
790.717962
 20
87.805105
 30
0.0
 11
9.307008289050067E-17
 21
-1.52
 31
0.0
210
0.0
220
0.0
230
1.0
 40
0.657895
 41
0.0
 42
3.141592653589793
  0
LINE
  5
62C
330
1F
100
AcDbEntity
  8
GR1-1
  6
CONTINUOUS
 62
     4
100
AcDbLine
 10
794.967962
 20
98.03594
 30
0.0
 11
794.967962
 21
83.725105
 31
0.0
  0
LINE
  5
62D
330
1F
100
AcDbEntity
  8
GR1-1
  6
CONTINUOUS
 62
     4
100
AcDbLine
 10
794.567962
 20
98.03594
 30
0.0
 11
794.567962
 21
83.725105
 31
0.0
  0
LINE
  5
62E
330
1F
100
AcDbEntity
  8
GR1-1
  6
CONTINUOUS
 62
     4
100
AcDbLine
 10
798.967962
 20
98.03594
 30
0.0
 11
798.967962
 21
83.725105
 31
0.0
  0
LINE
  5
62F
330
1F
100
AcDbEntity
  8
GR1-1
  6
CONTINUOUS
 62
     4
100
AcDbLine
 10
799.367962
 20
98.03594
 30
0.0
 11
799.367962
 21
83.725105
 31
0.0
  0
LINE
  5
630
330
1F
100
AcDbEntity
  8
GR1-1
  6
CONTINUOUS
 62
     4
100
AcDbLine
 10
803.217962
 20
98.03594
 30
0.0
 11
803.217962
 21
83.725105
 31
0.0
  0
LINE
  5
631
330
1F
100
AcDbEntity
  8
GR1-1
  6
CONTINUOUS
 62
     4
100
AcDbLine
 10
790.717962
 20
98.03594
 30
0.0
 11
790.717962
 21
83.725105
 31
0.0
  0
LINE
  5
632
330
1F
100
AcDbEntity
  8
GR1-1
  6
CONTINUOUS
 62
     4
100
AcDbLine
 10
790.717962
 20
83.725105
 30
0.0
 11
803.217962
 21
83.725105
 31
0.0
  0
INSERT
  5
636
330
1F
100
AcDbEntity
  8
0
100
AcDbBlockReference
  2
BLKF101
 10
0.0
 20
0.0
 30
0.0
  0
INSERT
  5
644
330
1F
100
AcDbEntity
  8
0
100
AcDbBlockReference
  2
BLKF102
 10
0.0
 20
0.0
 30
0.0
  0
INSERT
  5
652
330
1F
100
AcDbEntity
  8
0
100
AcDbBlockReference
  2
BLKF103
 10
0.0
 20
0.0
 30
0.0
  0
INSERT
  5
660
330
1F
100
AcDbEntity
  8
0
100
AcDbBlockReference
  2
BLKF104
 10
0.0
 20
0.0
 30
0.0
  0
INSERT
  5
66E
330
1F
100
AcDbEntity
  8
0
100
AcDbBlockReference
  2
BLKF105
 10
0.0
 20
0.0
 30
0.0
  0
LINE
  5
67A
330
1F
100
AcDbEntity
  8
GR1-1
  6
CONTINUOUS
 62
     4
100
AcDbLine
 10
797.342962
 20
83.965105
 30
0.0
 11
797.442962
 21
83.725105
 31
0.0
  0
LINE
  5
67B
330
1F
100
AcDbEntity
  8
GR1-1
  6
CONTINUOUS
 62
     4
100
AcDbLine
 10
796.442962
 20
83.725105
 30
0.0
 11
796.542962
 21
83.965105
 31
0.0
  0
LINE
  5
67C
330
1F
100
AcDbEntity
  8
GR1-1
  6
CONTINUOUS
 62
     4
100
AcDbLine
 10
796.542962
 20
83.965105
 30
0.0
 11
797.342962
 21
83.965105
 31
0.0
  0
LINE
  5
67D
330
1F
100
AcDbEntity
  8
GR1-1
  6
CONTINUOUS
 62
     4
100
AcDbLine
 10
790.717962
 20
98.03594
 30
0.0
 11
803.217962
 21
98.03594
 31
0.0
  0
LINE
  5
67E
330
1F
100
AcDbEntity
  8
GR1-1
  6
CONTINUOUS
 62
     4
100
AcDbLine
 10
798.967962
 20
87.281105
 30
0.0
 11
794.967962
 21
87.880523
 31
0.0
  0
ELLIPSE
  5
67F
330
1F
100
AcDbEntity
  8
GR1-1
  6
CONTINUOUS
 62
     4
100
AcDbEllipse
 10
790.717962
 20
88.205105
 30
0.0
 11
9.307008289050067E-17
 21
-1.52
 31
0.0
210
0.0
220
0.0
230
1.0
 40
0.657895
 41
0.0
 42
3.141592653589793
  0
LINE
  5
680
330
1F
100
AcDbEntity
  8
GR1-1
  6
CONTINUOUS
 62
     4
100
AcDbLine
 10
798.967962
 20
94.481105
 30
0.0
 11
794.967962
 21
93.880523
 31
0.0
  0
INSERT
  5
684
330
1F
100
AcDbEntity
  8
0
100
AcDbBlockReference
  2
BLKF106
 10
0.0
 20
0.0
 30
0.0
  0
ELLIPSE
  5
690
330
1F
100
AcDbEntity
  8
GR1-1
  6
CONTINUOUS
 62
     4
100
AcDbEllipse
 10
803.217962
 20
88.205105
 30
0.0
 11
9.307008289050067E-17
 21
-1.52
 31
0.0
210
0.0
220
0.0
230
1.0
 40
0.657895
 41
3.141592653589793
 42
6.283185307179586
  0
LINE
  5
691
330
1F
100
AcDbEntity
  8
GR1-1
  6
CONTINUOUS
 62
     2
100
AcDbLine
 10
752.269153
 20
143.58333
 30
0.0
 11
752.074807
 21
142.298611
 31
0.0
  0
LINE
  5
692
330
1F
100
AcDbEntity
  8
GR1-1
  6
CONTINUOUS
 62
     2
100
AcDbLine
 10
747.008493
 20
142.952599
 30
0.0
 11
746.998857
 21
144.899103
 31
0.0
  0
INSERT
  5
696
330
1F
100
AcDbEntity
  8
0
100
AcDbBlockReference
  2
BLKF107
 10
0.0
 20
0.0
 30
0.0
  0
LINE
  5
69B
330
1F
100
AcDbEntity
  8
GR1-1
  6
CONTINUOUS
 62
     4
100
AcDbLine
 10
741.210901
 20
146.49414
 30
0.0
 11
741.210901
 21
132.183305
 31
0.0
  0
LINE
  5
69C
330
1F
100
AcDbEntity
  8
GR1-1
  6
CONTINUOUS
 62
     4
100
AcDbLine
 10
753.710901
 20
146.49414
 30
0.0
 11
753.710901
 21
132.183305
 31
0.0
  0
LINE
  5
69D
330
1F
100
AcDbEntity
  8
GR1-1
  6
CONTINUOUS
 62
     2
100
AcDbLine
 10
747.439109
 20
142.343616
 30
0.0
 11
749.416652
 21
142.817113
 31
0.0
  0
LINE
  5
69E
330
1F
100
AcDbEntity
  8
GR1-1
  6
CONTINUOUS
 62
     2
100
AcDbLine
 10
748.532082
 20
133.784954
 30
0.0
 11
750.416322
 21
135.592286
 31
0.0
  0
LINE
  5
69F
330
1F
100
AcDbEntity
  8
GR1-1
  6
CONTINUOUS
 62
     2
100
AcDbLine
 10
751.589691
 20
140.975553
 30
0.0
 11
749.011156
 21
135.234746
 31
0.0
  0
LINE
  5
6A0
330
1F
100
AcDbEntity
  8
GR1-1
  6
CONTINUOUS
 62
     4
100
AcDbLine
 10
741.210901
 20
132.183305
 30
0.0
 11
753.710901
 21
132.183305
 31
0.0
  0
LINE
  5
6A1
330
1F
100
AcDbEntity
  8
GR1-1
  6
CONTINUOUS
 62
     2
100
AcDbLine
 10
745.192949
 20
136.822867
 30
0.0
 11
746.293654
 21
135.626464
 31
0.0
  0
LINE
  5
6A2
330
1F
100
AcDbEntity
  8
GR1-1
  6
CONTINUOUS
 62
     2
100
AcDbLine
 10
744.1467
 20
137.812535
 30
0.0
 11
745.08336
 21
135.836568
 31
0.0
  0
LINE
  5
6A3
330
1F
100
AcDbEntity
  8
GR1-1
  6
CONTINUOUS
 62
     2
100
AcDbLine
 10
745.08336
 20
135.836568
 30
0.0
 11
745.401828
 21
132.385411
 31
0.0
  0
LINE
  5
6A4
330
1F
100
AcDbEntity
  8
GR1-1
  6
CONTINUOUS
 62
     2
100
AcDbLine
 10
746.282704
 20
133.371413
 30
0.0
 11
746.282704
 21
132.385411
 31
0.0
  0
LINE
  5
6A5
330
1F
100
AcDbEntity
  8
GR1-1
  6
CONTINUOUS
 62
     2
100
AcDbLine
 10
749.011156
 20
135.234746
 30
0.0
 11
746.349251
 21
134.236532
 31
0.0
  0
LINE
  5
6A6
330
1F
100
AcDbEntity
  8
GR1-1
  6
CONTINUOUS
 62
     2
100
AcDbLine
 10
747.21437
 20
133.87052
 30
0.0
 11
746.282704
 21
133.371413
 31
0.0
  0
LINE
  5
6A7
330
1F
100
AcDbEntity
  8
GR1-1
  6
CONTINUOUS
 62
     2
100
AcDbLine
 10
746.349251
 20
134.236532
 30
0.0
 11
746.293654
 21
135.626464
 31
0.0
  0
LINE
  5
6A8
330
1F
100
AcDbEntity
  8
GR1-1
  6
CONTINUOUS
 62
     2
100
AcDbLine
 10
748.532082
 20
133.784954
 30
0.0
 11
747.21437
 21
133.87052
 31
0.0
  0
LINE
  5
6A9
330
1F
100
AcDbEntity
  8
GR1-1
  6
CONTINUOUS
 62
     2
100
AcDbLine
 10
744.205493
 20
140.158764
 30
0.0
 11
745.717049
 21
141.390402
 31
0.0
  0
LINE
  5
6AA
330
1F
100
AcDbEntity
  8
GR1-1
  6
CONTINUOUS
 62
     2
100
AcDbLine
 10
743.899026
 20
139.245774
 30
0.0
 11
741.493038
 21
141.007906
 31
0.0
  0
LINE
  5
6AB
330
1F
100
AcDbEntity
  8
GR1-1
  6
CONTINUOUS
 62
     2
100
AcDbLine
 10
743.640154
 20
138.530069
 30
0.0
 11
741.390901
 21
138.335974
 31
0.0
  0
LINE
  5
6AC
330
1F
100
AcDbEntity
  8
GR1-1
  6
CONTINUOUS
 62
     2
100
AcDbLine
 10
741.390901
 20
137.565214
 30
0.0
 11
743.03636
 21
137.947942
 31
0.0
  0
LINE
  5
6AD
330
1F
100
AcDbEntity
  8
GR1-1
  6
CONTINUOUS
 62
     2
100
AcDbLine
 10
743.640154
 20
138.530069
 30
0.0
 11
743.899026
 21
139.245774
 31
0.0
  0
LINE
  5
6AE
330
1F
100
AcDbEntity
  8
GR1-1
  6
CONTINUOUS
 62
     2
100
AcDbLine
 10
743.03636
 20
137.947942
 30
0.0
 11
744.1467
 21
137.812535
 31
0.0
  0
LINE
  5
6AF
330
1F
100
AcDbEntity
  8
GR1-1
  6
CONTINUOUS
 62
     2
100
AcDbLine
 10
744.205493
 20
140.158764
 30
0.0
 11
741.390901
 21
142.377566
 31
0.0
  0
LINE
  5
6B0
330
1F
100
AcDbEntity
  8
GR1-1
  6
CONTINUOUS
 62
     2
100
AcDbLine
 10
741.493038
 20
141.007906
 30
0.0
 11
741.390901
 21
141.154303
 31
0.0
  0
LINE
  5
6B1
330
1F
100
AcDbEntity
  8
GR1-1
  6
CONTINUOUS
 62
     2
100
AcDbLine
 10
745.908472
 20
140.134414
 30
0.0
 11
744.453225
 21
138.74067
 31
0.0
  0
LINE
  5
6B2
330
1F
100
AcDbEntity
  8
GR1-1
  6
CONTINUOUS
 62
     2
100
AcDbLine
 10
744.453225
 20
138.74067
 30
0.0
 11
745.192949
 21
136.822867
 31
0.0
  0
LINE
  5
6B3
330
1F
100
AcDbEntity
  8
GR1-1
  6
CONTINUOUS
 62
     2
100
AcDbLine
 10
747.439109
 20
142.343616
 30
0.0
 11
746.659917
 21
141.295737
 31
0.0
  0
LINE
  5
6B4
330
1F
100
AcDbEntity
  8
GR1-1
  6
CONTINUOUS
 62
     2
100
AcDbLine
 10
745.717049
 20
141.390402
 30
0.0
 11
747.008493
 21
142.952599
 31
0.0
  0
LINE
  5
6B5
330
1F
100
AcDbEntity
  8
GR1-1
  6
CONTINUOUS
 62
     2
100
AcDbLine
 10
746.659917
 20
141.295737
 30
0.0
 11
745.908472
 21
140.134414
 31
0.0
  0
LINE
  5
6B6
330
1F
100
AcDbEntity
  8
GR1-1
  6
CONTINUOUS
 62
     2
100
AcDbLine
 10
752.191904
 20
135.009502
 30
0.0
 11
750.708351
 21
136.105616
 31
0.0
  0
LINE
  5
6B7
330
1F
100
AcDbEntity
  8
GR1-1
  6
CONTINUOUS
 62
     2
100
AcDbLine
 10
752.075238
 20
132.385411
 30
0.0
 11
752.010783
 21
133.689814
 31
0.0
  0
LINE
  5
6B8
330
1F
100
AcDbEntity
  8
GR1-1
  6
CONTINUOUS
 62
     2
100
AcDbLine
 10
753.103145
 20
133.080612
 30
0.0
 11
753.18166
 21
132.385411
 31
0.0
  0
LINE
  5
6B9
330
1F
100
AcDbEntity
  8
GR1-1
  6
CONTINUOUS
 62
     2
100
AcDbLine
 10
752.010783
 20
133.689814
 30
0.0
 11
750.416322
 21
135.592286
 31
0.0
  0
LINE
  5
6BA
330
1F
100
AcDbEntity
  8
GR1-1
  6
CONTINUOUS
 62
     2
100
AcDbLine
 10
752.191904
 20
135.009502
 30
0.0
 11
753.103145
 21
133.080612
 31
0.0
  0
LINE
  5
6BB
330
1F
100
AcDbEntity
  8
GR1-1
  6
CONTINUOUS
 62
     2
100
AcDbLine
 10
750.792379
 20
136.546762
 30
0.0
 11
752.103091
 21
140.080303
 31
0.0
  0
LINE
  5
6BC
330
1F
100
AcDbEntity
  8
GR1-1
  6
CONTINUOUS
 62
     2
100
AcDbLine
 10
750.708351
 20
136.105616
 30
0.0
 11
750.792379
 21
136.546762
 31
0.0
  0
LINE
  5
6BD
330
1F
100
AcDbEntity
  8
GR1-1
  6
CONTINUOUS
 62
     2
100
AcDbLine
 10
751.29986
 20
142.878355
 30
0.0
 11
751.589691
 21
140.975553
 31
0.0
  0
LINE
  5
6BE
330
1F
100
AcDbEntity
  8
GR1-1
  6
CONTINUOUS
 62
     2
100
AcDbLine
 10
749.416652
 20
142.817113
 30
0.0
 11
751.29986
 21
142.878355
 31
0.0
  0
LINE
  5
6BF
330
1F
100
AcDbEntity
  8
GR1-1
  6
CONTINUOUS
 62
     2
100
AcDbLine
 10
753.547052
 20
141.27241
 30
0.0
 11
752.413101
 21
141.283729
 31
0.0
  0
LINE
  5
6C0
330
1F
100
AcDbEntity
  8
GR1-1
  6
CONTINUOUS
 62
     2
100
AcDbLine
 10
752.103091
 20
140.080303
 30
0.0
 11
753.530901
 21
140.647165
 31
0.0
  0
LINE
  5
6C1
330
1F
100
AcDbEntity
  8
GR1-1
  6
CONTINUOUS
 62
     2
100
AcDbLine
 10
752.074807
 20
142.298611
 30
0.0
 11
752.413101
 21
141.283729
 31
0.0
  0
LINE
  5
6C2
330
1F
100
AcDbEntity
  8
GR1-1
  6
CONTINUOUS
 62
     2
100
AcDbLine
 10
748.54356
 20
143.152917
 30
0.0
 11
750.759872
 21
143.3544
 31
0.0
  0
LINE
  5
6C3
330
1F
100
AcDbEntity
  8
GR1-1
  6
CONTINUOUS
 62
     4
100
AcDbLine
 10
741.210901
 20
146.49414
 30
0.0
 11
753.710901
 21
146.49414
 31
0.0
  0
LINE
  5
6C4
330
1F
100
AcDbEntity
  8
GR1-1
  6
CONTINUOUS
 62
     2
100
AcDbLine
 10
746.998857
 20
144.899103
 30
0.0
 11
745.782135
 21
146.321732
 31
0.0
  0
LINE
  5
6C5
330
1F
100
AcDbEntity
  8
GR1-1
  6
CONTINUOUS
 62
     2
100
AcDbLine
 10
747.009465
 20
146.321732
 30
0.0
 11
747.603306
 21
145.503551
 31
0.0
  0
LINE
  5
6C6
330
1F
100
AcDbEntity
  8
GR1-1
  6
CONTINUOUS
 62
     2
100
AcDbLine
 10
747.670467
 20
143.287239
 30
0.0
 11
748.54356
 21
143.152917
 31
0.0
  0
LINE
  5
6C7
330
1F
100
AcDbEntity
  8
GR1-1
  6
CONTINUOUS
 62
     2
100
AcDbLine
 10
747.603306
 20
145.503551
 30
0.0
 11
747.670467
 21
143.287239
 31
0.0
  0
LINE
  5
6C8
330
1F
100
AcDbEntity
  8
GR1-1
  6
CONTINUOUS
 62
     2
100
AcDbLine
 10
750.759872
 20
143.3544
 30
0.0
 11
753.530901
 21
145.072493
 31
0.0
  0
LINE
  5
6C9
330
1F
100
AcDbEntity
  8
GR1-1
  6
CONTINUOUS
 62
     2
100
AcDbLine
 10
753.530901
 20
144.083678
 30
0.0
 11
752.269153
 21
143.58333
 31
0.0
  0
LINE
  5
6CA
330
1F
100
AcDbEntity
  8
GR1-1
  6
CONTINUOUS
 62
     4
100
AcDbLine
 10
825.88919
 20
135.738723
 30
0.0
 11
803.185554
 21
135.738723
 31
0.0
  0
LINE
  5
6CB
330
1F
100
AcDbEntity
  8
GR1-1
  6
CONTINUOUS
 62
     4
100
AcDbLine
 10
825.88919
 20
142.938723
 30
0.0
 11
803.185554
 21
142.938723
 31
0.0
  0
LINE
  5
6CC
330
1F
100
AcDbEntity
  8
GR1-1
  6
CONTINUOUS
 62
     4
100
AcDbLine
 10
825.28919
 20
136.338723
 30
0.0
 11
803.785554
 21
136.338723
 31
0.0
  0
LINE
  5
6CD
330
1F
100
AcDbEntity
  8
GR1-1
  6
CONTINUOUS
 62
     4
100
AcDbLine
 10
825.28919
 20
142.338723
 30
0.0
 11
803.785554
 21
142.338723
 31
0.0
  0
LINE
  5
6CE
330
1F
100
AcDbEntity
  8
GR1-1
  6
CONTINUOUS
 62
     4
100
AcDbLine
 10
802.585554
 20
136.338723
 30
0.0
 11
803.185554
 21
136.938723
 31
0.0
  0
ARC
  5
6CF
330
1F
100
AcDbEntity
  8
GR1-1
  6
CONTINUOUS
 62
     4
100
AcDbCircle
 10
803.785554
 20
136.938723
 30
0.0
 40
0.6
100
AcDbArc
 50
180.0
 51
270.0
  0
LINE
  5
6D0
330
1F
100
AcDbEntity
  8
GR1-1
  6
CONTINUOUS
 62
     4
100
AcDbLine
 10
802.585554
 20
136.338723
 30
0.0
 11
802.585554
 21
142.338723
 31
0.0
  0
ARC
  5
6D1
330
1F
100
AcDbEntity
  8
GR1-1
  6
CONTINUOUS
 62
     4
100
AcDbCircle
 10
803.185554
 20
136.338723
 30
0.0
 40
0.6
100
AcDbArc
 50
180.0
 51
270.0
  0
LINE
  5
6D2
330
1F
100
AcDbEntity
  8
GR1-1
  6
CONTINUOUS
 62
     4
100
AcDbLine
 10
803.185554
 20
135.738723
 30
0.0
 11
803.785554
 21
136.338723
 31
0.0
  0
LINE
  5
6D3
330
1F
100
AcDbEntity
  8
GR1-1
  6
CONTINUOUS
 62
     4
100
AcDbLine
 10
803.185554
 20
136.938723
 30
0.0
 11
803.185554
 21
141.738723
 31
0.0
  0
LINE
  5
6D4
330
1F
100
AcDbEntity
  8
GR1-1
  6
CONTINUOUS
 62
     4
100
AcDbLine
 10
802.585554
 20
142.338723
 30
0.0
 11
803.185554
 21
141.738723
 31
0.0
  0
ARC
  5
6D5
330
1F
100
AcDbEntity
  8
GR1-1
  6
CONTINUOUS
 62
     4
100
AcDbCircle
 10
803.185554
 20
142.338723
 30
0.0
 40
0.6
100
AcDbArc
 50
90.0
 51
180.0
  0
ARC
  5
6D6
330
1F
100
AcDbEntity
  8
GR1-1
  6
CONTINUOUS
 62
     4
100
AcDbCircle
 10
803.785554
 20
141.738723
 30
0.0
 40
0.6
100
AcDbArc
 50
90.0
 51
180.0
  0
LINE
  5
6D7
330
1F
100
AcDbEntity
  8
GR1-1
  6
CONTINUOUS
 62
     4
100
AcDbLine
 10
803.185554
 20
142.938723
 30
0.0
 11
803.785554
 21
142.338723
 31
0.0
  0
INSERT
  5
6DB
330
1F
100
AcDbEntity
  8
0
100
AcDbBlockReference
  2
BLKF108
 10
0.0
 20
0.0
 30
0.0
  0
ARC
  5
6E0
330
1F
100
AcDbEntity
  8
GR1-1
  6
CONTINUOUS
 62
     4
100
AcDbCircle
 10
825.28919
 20
136.938723
 30
0.0
 40
0.6
100
AcDbArc
 50
270.0
 51
360.0
  0
LINE
  5
6E1
330
1F
100
AcDbEntity
  8
GR1-1
  6
CONTINUOUS
 62
     4
100
AcDbLine
 10
826.48919
 20
136.338723
 30
0.0
 11
825.88919
 21
136.938723
 31
0.0
  0
LINE
  5
6E2
330
1F
100
AcDbEntity
  8
GR1-1
  6
CONTINUOUS
 62
     4
100
AcDbLine
 10
826.48919
 20
142.338723
 30
0.0
 11
826.48919
 21
136.338723
 31
0.0
  0
LINE
  5
6E3
330
1F
100
AcDbEntity
  8
GR1-1
  6
CONTINUOUS
 62
     4
100
AcDbLine
 10
825.28919
 20
136.338723
 30
0.0
 11
825.88919
 21
135.738723
 31
0.0
  0
ARC
  5
6E4
330
1F
100
AcDbEntity
  8
GR1-1
  6
CONTINUOUS
 62
     4
100
AcDbCircle
 10
825.88919
 20
136.338723
 30
0.0
 40
0.6
100
AcDbArc
 50
270.0
 51
360.0
  0
INSERT
  5
6E8
330
1F
100
AcDbEntity
  8
0
100
AcDbBlockReference
  2
BLKF109
 10
0.0
 20
0.0
 30
0.0
  0
LINE
  5
6ED
330
1F
100
AcDbEntity
  8
GR1-1
  6
CONTINUOUS
 62
     4
100
AcDbLine
 10
825.88919
 20
141.738723
 30
0.0
 11
825.88919
 21
136.938723
 31
0.0
  0
ARC
  5
6EE
330
1F
100
AcDbEntity
  8
GR1-1
  6
CONTINUOUS
 62
     4
100
AcDbCircle
 10
825.28919
 20
141.738723
 30
0.0
 40
0.6
100
AcDbArc
 50
0.0
 51
90.0
  0
LINE
  5
6EF
330
1F
100
AcDbEntity
  8
GR1-1
  6
CONTINUOUS
 62
     4
100
AcDbLine
 10
825.88919
 20
141.738723
 30
0.0
 11
826.48919
 21
142.338723
 31
0.0
  0
ARC
  5
6F0
330
1F
100
AcDbEntity
  8
GR1-1
  6
CONTINUOUS
 62
     4
100
AcDbCircle
 10
825.88919
 20
142.338723
 30
0.0
 40
0.6
100
AcDbArc
 50
0.0
 51
90.0
  0
LINE
  5
6F1
330
1F
100
AcDbEntity
  8
GR1-1
  6
CONTINUOUS
 62
     4
100
AcDbLine
 10
825.88919
 20
142.938723
 30
0.0
 11
825.28919
 21
142.338723
 31
0.0
  0
INSERT
  5
6F5
330
1F
100
AcDbEntity
  8
0
100
AcDbBlockReference
  2
BLKF110
 10
0.0
 20
0.0
 30
0.0
  0
ARC
  5
6FA
330
1F
100
AcDbEntity
  8
GR1-1
  6
CONTINUOUS
 62
     4
100
AcDbCircle
 10
686.814299
 20
141.738723
 30
0.0
 40
0.6
100
AcDbArc
 50
90.0
 51
180.0
  0
ARC
  5
6FB
330
1F
100
AcDbEntity
  8
GR1-1
  6
CONTINUOUS
 62
     4
100
AcDbCircle
 10
686.814299
 20
136.938723
 30
0.0
 40
0.6
100
AcDbArc
 50
180.0
 51
270.0
  0
ARC
  5
6FC
330
1F
100
AcDbEntity
  8
GR1-1
  6
CONTINUOUS
 62
     4
100
AcDbCircle
 10
708.317935
 20
141.738723
 30
0.0
 40
0.6
100
AcDbArc
 50
0.0
 51
90.0
  0
ARC
  5
6FD
330
1F
100
AcDbEntity
  8
GR1-1
  6
CONTINUOUS
 62
     4
100
AcDbCircle
 10
708.317935
 20
136.938723
 30
0.0
 40
0.6
100
AcDbArc
 50
270.0
 51
360.0
  0
TEXT
  5
6FE
330
1F
100
AcDbEntity
  8
GR1-1
  6
CONTINUOUS
 62
     4
100
AcDbText
 10
757.440859
 20
179.359609
 30
0.0
 40
1.5
  1
LKP-75
 41
0.7
  7
FX_VECTOR
 72
     5
 11
763.740859
 21
179.359609
 31
0.0
100
AcDbText
  0
LINE
  5
6FF
330
1F
100
AcDbEntity
  8
GR1-1
  6
CONTINUOUS
 62
     2
100
AcDbLine
 10
821.144154
 20
159.655491
 30
0.0
 11
819.660083
 21
156.687349
 31
0.0
  0
LINE
  5
700
330
1F
100
AcDbEntity
  8
GR1-1
  6
CONTINUOUS
 62
     2
100
AcDbLine
 10
823.565061
 20
159.64582
 30
0.0
 11
820.558989
 21
159.64582
 31
0.0
  0
INSERT
  5
701
330
1F
100
AcDbEntity
  8
GR1-1
  6
CONTINUOUS
 62
     2
100
AcDbBlockReference
  2
FXTIP_ARROW_S
 10
823.565061
 20
159.64582
 30
0.0
 41
2.0
 42
2.0
  0
LINE
  5
702
330
1F
100
AcDbEntity
  8
GR1-1
  6
CONTINUOUS
 62
     2
100
AcDbLine
 10
817.552917
 20
159.64582
 30
0.0
 11
820.558989
 21
159.64582
 31
0.0
  0
INSERT
  5
703
330
1F
100
AcDbEntity
  8
GR1-1
  6
CONTINUOUS
 62
     2
100
AcDbBlockReference
  2
FXTIP_ARROW_S
 10
817.552917
 20
159.64582
 30
0.0
 41
2.0
 42
2.0
 50
180.0
  0
TEXT
  5
704
330
1F
100
AcDbEntity
  8
GR1-1
  6
CONTINUOUS
 62
     4
100
AcDbText
 10
817.819375
 20
156.945898
 30
0.0
 40
2.0
  1
C
 41
0.7
  7
FX_VECTOR
 72
     5
 11
819.219375
 21
156.945898
 31
0.0
100
AcDbText
  0
TEXT
  5
705
330
1F
100
AcDbEntity
  8
GR1-1
  6
CONTINUOUS
 62
     4
100
AcDbText
 10
820.998984
 20
156.890566
 30
0.0
 40
2.0
  1
D
 41
0.7
  7
FX_VECTOR
 72
     5
 11
822.398984
 21
156.890566
 31
0.0
100
AcDbText
  0
ENDSEC
  0
SECTION
  2
OBJECTS
  0
DICTIONARY
  5
C
330
0
100
AcDbDictionary
  3
ACAD_GROUP
350
D
  3
ACAD_LAYOUT
350
1A
  3
ACAD_MLINESTYLE
350
17
  3
ACAD_PLOTSETTINGS
350
19
1001
ACAD
1000
TREAT_AS_HARD
1070
     0
  0
DICTIONARY
  5
70C
330
29
100
AcDbDictionary
  3
ACAD_XREC_ROUNDTRIP
360
70D
  0
DICTIONARY
  5
D
102
{ACAD_REACTORS
330
C
102
}
330
C
100
AcDbDictionary
1001
ACAD
1000
TREAT_AS_HARD
1070
     0
  0
DICTIONARY
  5
1A
102
{ACAD_REACTORS
330
C
102
}
330
C
100
AcDbDictionary
1001
ACAD
1000
TREAT_AS_HARD
1070
     0
  0
DICTIONARY
  5
17
102
{ACAD_REACTORS
330
C
102
}
330
C
100
AcDbDictionary
  3
STANDARD
350
18
1001
ACAD
1000
TREAT_AS_HARD
1070
     0
  0
DICTIONARY
  5
19
102
{ACAD_REACTORS
330
C
102
}
330
C
100
AcDbDictionary
1001
ACAD
1000
TREAT_AS_HARD
1070
     0
  0
XRECORD
  5
70D
102
{ACAD_REACTORS
330
70C
102
}
330
70C
100
AcDbXrecord
102
UCS
 74
     0
 71
     1
 10
0.0
 20
0.0
 30
0.0
 10
1.0
 20
0.0
 30
0.0
 10
0.0
 20
1.0
 30
0.0
146
0.0
 79
     0
102
VIEW
281
     0
  0
MLINESTYLE
  5
18
102
{ACAD_REACTORS
330
17
102
}
330
17
100
AcDbMlineStyle
  2
Standard
 70
     0
  3

 62
   256
 51
90.0
 52
90.0
 71
     2
 49
0.5
 62
   256
  6
BYLAYER
 49
-0.5
 62
   256
  6
BYLAYER
  0
ENDSEC
  0
EOF
