  0
SECTION
  2
HEADER
  9
$ACADVER
  1
AC1015
  9
$ACADMAINTVER
 70
     6
  9
$DWGCODEPAGE
  3
ANSI_932
  9
$INSBASE
 10
604.2209577168799
 20
16.94874457291433
 30
0.0
  9
$EXTMIN
 10
604.2209577168799
 20
16.94874457291433
 30
0.0
  9
$EXTMAX
 10
950.4709637784758
 20
261.7719811821235
 30
0.0
  9
$LIMMIN
 10
604.2209577168799
 20
16.94874457291433
  9
$LIMMAX
 10
950.4709637784758
 20
261.7719811821235
  9
$ORTHOMODE
 70
     0
  9
$REGENMODE
 70
     1
  9
$FILLMODE
 70
     1
  9
$QTEXTMODE
 70
     0
  9
$MIRRTEXT
 70
     1
  9
$LTSCALE
 40
1.0
  9
$ATTMODE
 70
     1
  9
$TEXTSIZE
 40
0.2
  9
$TRACEWID
 40
0.05
  9
$TEXTSTYLE
  7
FX_VECTOR
  9
$CLAYER
  8
0
  9
$CELTYPE
  6
BYLAYER
  9
$CECOLOR
 62
   256
  9
$CELTSCALE
 40
1.0
  9
$DISPSILH
 70
     0
  9
$DIMSCALE
 40
1.0
  9
$DIMASZ
 40
2.0
  9
$DIMEXO
 40
2.0
  9
$DIMDLI
 40
7.0
  9
$DIMRND
 40
0.0
  9
$DIMDLE
 40
6.0
  9
$DIMEXE
 40
1.0
  9
$DIMTP
 40
0.0
  9
$DIMTM
 40
0.0
  9
$DIMTXT
 40
3.5
  9
$DIMCEN
 40
2.5
  9
$DIMTSZ
 40
0.0
  9
$DIMTOL
 70
     0
  9
$DIMLIM
 70
     0
  9
$DIMTIH
 70
     0
  9
$DIMTOH
 70
     0
  9
$DIMSE1
 70
     0
  9
$DIMSE2
 70
     0
  9
$DIMTAD
 70
     1
  9
$DIMZIN
 70
     8
  9
$DIMBLK
  1

  9
$DIMASO
 70
     1
  9
$DIMSHO
 70
     1
  9
$DIMPOST
  1

  9
$DIMAPOST
  1

  9
$DIMALT
 70
     0
  9
$DIMALTD
 70
     3
  9
$DIMALTF
 40
0.03937
  9
$DIMLFAC
 40
1.0
  9
$DIMTOFL
 70
     1
  9
$DIMTVP
 40
0.0
  9
$DIMTIX
 70
     0
  9
$DIMSOXD
 70
     0
  9
$DIMSAH
 70
     1
  9
$DIMBLK1
  1
FXTIP_ARROW_S
  9
$DIMBLK2
  1
FXTIP_ARROW_E
  9
$DIMSTYLE
  2
FX_DIMINFO
  9
$DIMCLRD
 70
     7
  9
$DIMCLRE
 70
     7
  9
$DIMCLRT
 70
     7
  9
$DIMTFAC
 40
1.0
  9
$DIMGAP
 40
1.0
  9
$DIMJUST
 70
     0
  9
$DIMSD1
 70
     0
  9
$DIMSD2
 70
     0
  9
$DIMTOLJ
 70
     1
  9
$DIMTZIN
 70
     8
  9
$DIMALTZ
 70
     0
  9
$DIMALTTZ
 70
     0
  9
$DIMUPT
 70
     0
  9
$DIMDEC
 70
     2
  9
$DIMTDEC
 70
     2
  9
$DIMALTU
 70
     2
  9
$DIMALTTD
 70
     3
  9
$DIMTXSTY
  7
FX_VECTOR
  9
$DIMAUNIT
 70
     0
  9
$DIMADEC
 70
     2
  9
$DIMALTRND
 40
0.0
  9
$DIMAZIN
 70
     2
  9
$DIMDSEP
 70
    46
  9
$DIMATFIT
 70
     3
  9
$DIMFRAC
 70
     0
  9
$DIMLDRBLK
  1
FXTIP_ARROW_S
  9
$DIMLUNIT
 70
     2
  9
$DIMLWD
 70
    -2
  9
$DIMLWE
 70
    -2
  9
$DIMTMOVE
 70
     0
  9
$LUNITS
 70
     2
  9
$LUPREC
 70
     4
  9
$SKETCHINC
 40
0.1
  9
$FILLETRAD
 40
0.5
  9
$AUNITS
 70
     0
  9
$AUPREC
 70
     0
  9
$MENU
  1
acad
  9
$ELEVATION
 40
0.0
  9
$PELEVATION
 40
0.0
  9
$THICKNESS
 40
0.0
  9
$LIMCHECK
 70
     0
  9
$CHAMFERA
 40
0.5
  9
$CHAMFERB
 40
0.5
  9
$CHAMFERC
 40
1.0
  9
$CHAMFERD
 40
0.0
  9
$SKPOLY
 70
     0
  9
$TDCREATE
 40
2450193.849168137
  9
$TDUCREATE
 40
2450193.474168137
  9
$TDUPDATE
 40
2456463.419933287
  9
$TDUUPDATE
 40
2456463.044933287
  9
$TDINDWG
 40
0.0001141667
  9
$TDUSRTIMER
 40
0.0001141667
  9
$USRTIMER
 70
     1
  9
$ANGBASE
 50
0.0
  9
$ANGDIR
 70
     0
  9
$PDMODE
 70
     0
  9
$PDSIZE
 40
0.0
  9
$PLINEWID
 40
0.0
  9
$SPLFRAME
 70
     0
  9
$SPLINETYPE
 70
     6
  9
$SPLINESEGS
 70
     8
  9
$HANDSEED
  5
230
  9
$SURFTAB1
 70
     6
  9
$SURFTAB2
 70
     6
  9
$SURFTYPE
 70
     6
  9
$SURFU
 70
     6
  9
$SURFV
 70
     6
  9
$UCSBASE
  2

  9
$UCSNAME
  2

  9
$UCSORG
 10
0.0
 20
0.0
 30
0.0
  9
$UCSXDIR
 10
1.0
 20
0.0
 30
0.0
  9
$UCSYDIR
 10
0.0
 20
1.0
 30
0.0
  9
$UCSORTHOREF
  2

  9
$UCSORTHOVIEW
 70
     0
  9
$UCSORGTOP
 10
0.0
 20
0.0
 30
0.0
  9
$UCSORGBOTTOM
 10
0.0
 20
0.0
 30
0.0
  9
$UCSORGLEFT
 10
0.0
 20
0.0
 30
0.0
  9
$UCSORGRIGHT
 10
0.0
 20
0.0
 30
0.0
  9
$UCSORGFRONT
 10
0.0
 20
0.0
 30
0.0
  9
$UCSORGBACK
 10
0.0
 20
0.0
 30
0.0
  9
$PUCSBASE
  2

  9
$PUCSNAME
  2

  9
$PUCSORG
 10
0.0
 20
0.0
 30
0.0
  9
$PUCSXDIR
 10
1.0
 20
0.0
 30
0.0
  9
$PUCSYDIR
 10
0.0
 20
1.0
 30
0.0
  9
$PUCSORTHOREF
  2

  9
$PUCSORTHOVIEW
 70
     0
  9
$PUCSORGTOP
 10
0.0
 20
0.0
 30
0.0
  9
$PUCSORGBOTTOM
 10
0.0
 20
0.0
 30
0.0
  9
$PUCSORGLEFT
 10
0.0
 20
0.0
 30
0.0
  9
$PUCSORGRIGHT
 10
0.0
 20
0.0
 30
0.0
  9
$PUCSORGFRONT
 10
0.0
 20
0.0
 30
0.0
  9
$PUCSORGBACK
 10
0.0
 20
0.0
 30
0.0
  9
$USERI1
 70
     0
  9
$USERI2
 70
     0
  9
$USERI3
 70
     0
  9
$USERI4
 70
     0
  9
$USERI5
 70
     0
  9
$USERR1
 40
0.0
  9
$USERR2
 40
0.0
  9
$USERR3
 40
0.0
  9
$USERR4
 40
0.0
  9
$USERR5
 40
0.0
  9
$WORLDVIEW
 70
     1
  9
$SHADEDGE
 70
     3
  9
$SHADEDIF
 70
    70
  9
$TILEMODE
 70
     1
  9
$MAXACTVP
 70
    16
  9
$PINSBASE
 10
0.0
 20
0.0
 30
0.0
  9
$PLIMCHECK
 70
     0
  9
$PEXTMIN
 10
1.000000000000000E+20
 20
1.000000000000000E+20
 30
1.000000000000000E+20
  9
$PEXTMAX
 10
-1.000000000000000E+20
 20
-1.000000000000000E+20
 30
-1.000000000000000E+20
  9
$PLIMMIN
 10
0.0
 20
0.0
  9
$PLIMMAX
 10
12.0
 20
9.0
  9
$UNITMODE
 70
     0
  9
$VISRETAIN
 70
     0
  9
$PLINEGEN
 70
     0
  9
$PSLTSCALE
 70
     1
  9
$TREEDEPTH
 70
  3020
  9
$CMLSTYLE
  2
STANDARD
  9
$CMLJUST
 70
     0
  9
$CMLSCALE
 40
1.0
  9
$PROXYGRAPHICS
 70
     0
  9
$MEASUREMENT
 70
     0
  9
$CELWEIGHT
370
    -1
  9
$ENDCAPS
280
     0
  9
$JOINSTYLE
280
     0
  9
$LWDISPLAY
290
     0
  9
$INSUNITS
 70
     0
  9
$HYPERLINKBASE
  1

  9
$STYLESHEET
  1

  9
$XEDIT
290
     1
  9
$CEPSNTYPE
380
     0
  9
$PSTYLEMODE
290
     1
  9
$FINGERPRINTGUID
  2
{444C200D-C59F-4B93-8F41-3B700FFB9AFE}
  9
$VERSIONGUID
  2
{FAEB1C32-E019-11D5-929B-00C0DF256EC4}
  9
$EXTNAMES
290
     1
  9
$PSVPSCALE
 40
0.0
  9
$OLESTARTUP
290
     0
  0
ENDSEC
  0
SECTION
  2
CLASSES
  0
CLASS
  1
SCALE
  2
AcDbScale
  3
ObjectDBX Classes
 90
     1153
280
     0
281
     0
  0
CLASS
  1
MATERIAL
  2
AcDbMaterial
  3
ObjectDBX Classes
 90
     1153
280
     0
281
     0
  0
CLASS
  1
VISUALSTYLE
  2
AcDbVisualStyle
  3
ObjectDBX Classes
 90
     4095
280
     0
281
     0
  0
CLASS
  1
SUN
  2
AcDbSun
  3
SCENEOE
 90
     1024
280
     0
281
     0
  0
CLASS
  1
DICTIONARYVAR
  2
AcDbDictionaryVar
  3
ObjectDBX Classes
 90
        0
280
     0
281
     0
  0
CLASS
  1
ACDBPLACEHOLDER
  2
AcDbPlaceHolder
  3
ObjectDBX Classes
 90
        0
280
     0
281
     0
  0
CLASS
  1
LAYOUT
  2
AcDbLayout
  3
ObjectDBX Classes
 90
        0
280
     0
281
     0
  0
ENDSEC
  0
SECTION
  2
TABLES
  0
TABLE
  2
VPORT
  5
8
330
0
100
AcDbSymbolTable
 70
     2
  0
VPORT
  5
50
330
8
100
AcDbSymbolTableRecord
100
AcDbViewportTableRecord
  2
*ACTIVE
 70
     0
 10
0.0
 20
0.0
 11
1.0
 21
1.0
 12
777.3459607476779
 22
139.3603628775189
 13
0.0
 23
0.0
 14
0.15
 24
0.15
 15
0.0
 25
0.0
 16
0.0
 26
0.0
 36
1.0
 17
0.0
 27
0.0
 37
0.0
 40
244.8232366092092
 41
1.414285714285715
 42
50.0
 43
0.0
 44
0.0
 50
0.0
 51
0.0
 71
     0
 72
   100
 73
     1
 74
     0
 75
     0
 76
     0
 77
     0
 78
     0
281
     0
 65
     1
110
0.0
120
0.0
130
0.0
111
1.0
121
0.0
131
0.0
112
0.0
122
1.0
132
0.0
 79
     0
146
0.0
  0
ENDTAB
  0
TABLE
  2
LTYPE
  5
5
330
0
100
AcDbSymbolTable
 70
     5
  0
LTYPE
  5
14
330
5
100
AcDbSymbolTableRecord
100
AcDbLinetypeTableRecord
  2
BYBLOCK
 70
     0
  3

 72
    65
 73
     0
 40
0.0
  0
LTYPE
  5
15
330
5
100
AcDbSymbolTableRecord
100
AcDbLinetypeTableRecord
  2
BYLAYER
 70
     0
  3

 72
    65
 73
     0
 40
0.0
  0
LTYPE
  5
16
330
5
100
AcDbSymbolTableRecord
100
AcDbLinetypeTableRecord
  2
CONTINUOUS
 70
     0
  3
Continuous ___________________________________
 72
    65
 73
     0
 40
0.0
  0
LTYPE
  5
8C
330
5
100
AcDbSymbolTableRecord
100
AcDbLinetypeTableRecord
  2
DOT
 70
     0
  3
Dot . . . . . . . . . . . . . . . . . . . . . .
 72
    65
 73
     2
 40
6.3
 49
0.0
 74
     0
 49
-6.3
 74
     0
  0
ENDTAB
  0
TABLE
  2
LAYER
  5
2
330
0
100
AcDbSymbolTable
 70
     5
  0
LAYER
  5
F
330
2
100
AcDbSymbolTableRecord
100
AcDbLayerTableRecord
  2
0
 70
     0
 62
     7
  6
CONTINUOUS
370
    -3
390
0
  0
LAYER
  5
FC
330
2
100
AcDbSymbolTableRecord
100
AcDbLayerTableRecord
  2
Defpoints
 70
     0
 62
     7
  6
CONTINUOUS
290
     0
370
    -3
390
0
  0
LAYER
  5
FE
330
2
100
AcDbSymbolTableRecord
100
AcDbLayerTableRecord
  2
GR1_01
 70
     0
 62
     7
  6
CONTINUOUS
370
    -3
390
0
  0
ENDTAB
  0
TABLE
  2
STYLE
  5
3
330
0
100
AcDbSymbolTable
 70
     4
  0
STYLE
  5
10
330
3
100
AcDbSymbolTableRecord
100
AcDbTextStyleTableRecord
  2
STANDARD
 70
     0
 40
0.0
 41
1.0
 50
0.0
 71
     0
 42
0.2
  3
txt
  4

  0
STYLE
  5
91
330
3
100
AcDbSymbolTableRecord
100
AcDbTextStyleTableRecord
  2
FX_VECTOR
 70
     0
 40
0.0
 41
1.0
 50
0.0
 71
     0
 42
0.2
  3
MONOTXT.SHX
  4
BigFont.shx
  0
STYLE
  5
FD
330
3
100
AcDbSymbolTableRecord
100
AcDbTextStyleTableRecord
  2
DEFAULT
 70
     0
 40
0.0
 41
1.0
 50
0.0
 71
     0
 42
0.2
  3

  4

1001
ACAD
1000
ＭＳ ゴシック
1071
    32817
  0
STYLE
  5
10D
330
3
100
AcDbSymbolTableRecord
100
AcDbTextStyleTableRecord
  2
ＭＳ ゴシック
 70
     0
 40
0.0
 41
1.0
 50
0.0
 71
     0
 42
0.2
  3

  4

1001
ACAD
1000
ＭＳ ゴシック
1071
    32817
  0
ENDTAB
  0
TABLE
  2
VIEW
  5
6
330
0
100
AcDbSymbolTable
 70
     0
  0
ENDTAB
  0
TABLE
  2
UCS
  5
7
330
0
100
AcDbSymbolTable
 70
     0
  0
ENDTAB
  0
TABLE
  2
APPID
  5
9
330
0
100
AcDbSymbolTable
 70
     1
  0
APPID
  5
11
330
9
100
AcDbSymbolTableRecord
100
AcDbRegAppTableRecord
  2
ACAD
 70
     0
  0
ENDTAB
  0
TABLE
  2
DIMSTYLE
  5
A
330
0
100
AcDbSymbolTable
 70
     2
100
AcDbDimStyleTable
  0
DIMSTYLE
105
1D
330
A
100
AcDbSymbolTableRecord
100
AcDbDimStyleTableRecord
  2
STANDARD
 70
     0
178
     0
340
10
  0
DIMSTYLE
105
FB
330
A
100
AcDbSymbolTableRecord
100
AcDbDimStyleTableRecord
  2
FX_DIMINFO
 70
     0
 41
2.0
 42
2.0
 43
7.0
 44
1.0
 46
6.0
 73
     0
 74
     0
 77
     1
 78
     8
 79
     2
140
3.5
141
2.5
143
0.03937
147
1.0
171
     3
172
     1
173
     1
176
     7
177
     7
271
     2
178
     7
179
     2
271
     2
272
     2
274
     3
284
     8
340
91
341
95
343
95
344
9B
  0
ENDTAB
  0
TABLE
  2
BLOCK_RECORD
  5
1
330
0
100
AcDbSymbolTable
 70
    19
  0
BLOCK_RECORD
  5
1A
330
1
100
AcDbSymbolTableRecord
100
AcDbBlockTableRecord
  2
*MODEL_SPACE
340
52
  0
BLOCK_RECORD
  5
17
330
1
100
AcDbSymbolTableRecord
100
AcDbBlockTableRecord
  2
*PAPER_SPACE
340
53
  0
BLOCK_RECORD
  5
92
330
1
100
AcDbSymbolTableRecord
100
AcDbBlockTableRecord
  2
FXTIP_NONE
340
0
  0
BLOCK_RECORD
  5
95
330
1
100
AcDbSymbolTableRecord
100
AcDbBlockTableRecord
  2
FXTIP_ARROW_S
340
0
102
{BLKREFS
331
18B
331
191
331
196
331
19B
331
19F
331
1A5
331
1A8
331
1AD
331
1B7
331
1BE
331
1C1
331
1C7
331
1D1
331
1D4
331
1DA
331
1DF
331
1E9
331
1EB
102
}
  0
BLOCK_RECORD
  5
9B
330
1
100
AcDbSymbolTableRecord
100
AcDbBlockTableRecord
  2
FXTIP_ARROW_E
340
0
102
{BLKREFS
331
18C
331
192
331
197
331
19C
331
1A0
331
1A6
331
1AE
331
1B5
331
1BC
331
1C2
331
1C8
331
1CF
331
1D5
331
1DB
331
1E7
102
}
  0
BLOCK_RECORD
  5
A1
330
1
100
AcDbSymbolTableRecord
100
AcDbBlockTableRecord
  2
FXTIP_BLACKDOT_S
340
0
  0
BLOCK_RECORD
  5
A7
330
1
100
AcDbSymbolTableRecord
100
AcDbBlockTableRecord
  2
FXTIP_BLACKDOT_E
340
0
  0
BLOCK_RECORD
  5
AD
330
1
100
AcDbSymbolTableRecord
100
AcDbBlockTableRecord
  2
FXTIP_TRIANGLE_S
340
0
  0
BLOCK_RECORD
  5
B4
330
1
100
AcDbSymbolTableRecord
100
AcDbBlockTableRecord
  2
FXTIP_TRIANGLE_E
340
0
  0
BLOCK_RECORD
  5
BB
330
1
100
AcDbSymbolTableRecord
100
AcDbBlockTableRecord
  2
FXTIP_ARCHITECT_S
340
0
  0
BLOCK_RECORD
  5
C1
330
1
100
AcDbSymbolTableRecord
100
AcDbBlockTableRecord
  2
FXTIP_ARCHITECT_E
340
0
  0
BLOCK_RECORD
  5
C7
330
1
100
AcDbSymbolTableRecord
100
AcDbBlockTableRecord
  2
FXTIP_CIVIL_S
340
0
  0
BLOCK_RECORD
  5
CD
330
1
100
AcDbSymbolTableRecord
100
AcDbBlockTableRecord
  2
FXTIP_CIVIL_E
340
0
  0
BLOCK_RECORD
  5
D3
330
1
100
AcDbSymbolTableRecord
100
AcDbBlockTableRecord
  2
FXTIP_WHITEDOT_S
340
0
  0
BLOCK_RECORD
  5
D8
330
1
100
AcDbSymbolTableRecord
100
AcDbBlockTableRecord
  2
FXTIP_WHITEDOT_E
340
0
  0
BLOCK_RECORD
  5
DD
330
1
100
AcDbSymbolTableRecord
100
AcDbBlockTableRecord
  2
FXTIP_UPARROW_S
340
0
  0
BLOCK_RECORD
  5
E2
330
1
100
AcDbSymbolTableRecord
100
AcDbBlockTableRecord
  2
FXTIP_UPARROW_E
340
0
  0
BLOCK_RECORD
  5
E7
330
1
100
AcDbSymbolTableRecord
100
AcDbBlockTableRecord
  2
FXTIP_DOWNARROW_S
340
0
  0
BLOCK_RECORD
  5
EC
330
1
100
AcDbSymbolTableRecord
100
AcDbBlockTableRecord
  2
FXTIP_DOWNARROW_E
340
0
  0
BLOCK_RECORD
  5
F1
330
1
100
AcDbSymbolTableRecord
100
AcDbBlockTableRecord
  2
FXTIP_BLACKTRIANGLE_S
340
0
  0
BLOCK_RECORD
  5
F6
330
1
100
AcDbSymbolTableRecord
100
AcDbBlockTableRecord
  2
FXTIP_BLACKTRIANGLE_E
340
0
  0
ENDTAB
  0
ENDSEC
  0
SECTION
  2
BLOCKS
  0
BLOCK
  5
1B
330
1A
100
AcDbEntity
  8
0
100
AcDbBlockBegin
  2
*MODEL_SPACE
 70
     0
 10
0.0
 20
0.0
 30
0.0
  3
*MODEL_SPACE
  1

  0
ENDBLK
  5
1C
330
1A
100
AcDbEntity
  8
0
100
AcDbBlockEnd
  0
BLOCK
  5
18
330
17
100
AcDbEntity
 67
     1
  8
0
100
AcDbBlockBegin
  2
*PAPER_SPACE
 70
     0
 10
0.0
 20
0.0
 30
0.0
  3
*PAPER_SPACE
  1

  0
ENDBLK
  5
19
330
17
100
AcDbEntity
 67
     1
  8
0
100
AcDbBlockEnd
  0
BLOCK
  5
93
330
92
100
AcDbEntity
  8
0
100
AcDbBlockBegin
  2
FXTIP_NONE
 70
     0
 10
0.0
 20
0.0
 30
0.0
  3
FXTIP_NONE
  1

  0
ENDBLK
  5
94
330
92
100
AcDbEntity
  8
0
100
AcDbBlockEnd
  0
BLOCK
  5
96
330
95
100
AcDbEntity
  8
0
100
AcDbBlockBegin
  2
FXTIP_ARROW_S
 70
     0
 10
0.0
 20
0.0
 30
0.0
  3
FXTIP_ARROW_S
  1

  0
LINE
  5
98
330
95
100
AcDbEntity
  8
0
  6
Continuous
 62
     0
370
    -2
100
AcDbLine
 10
0.0
 20
0.0
 30
0.0
 11
-1.0
 21
0.0000000000000001
 31
0.0
  0
LINE
  5
99
330
95
100
AcDbEntity
  8
0
  6
Continuous
 62
     0
370
    -2
100
AcDbLine
 10
0.0
 20
0.0
 30
0.0
 11
-0.9659258262890683
 21
-0.2588190451025206
 31
0.0
  0
LINE
  5
9A
330
95
100
AcDbEntity
  8
0
  6
Continuous
 62
     0
370
    -2
100
AcDbLine
 10
0.0
 20
0.0
 30
0.0
 11
-0.9659258262890683
 21
0.2588190451025209
 31
0.0
  0
ENDBLK
  5
97
330
95
100
AcDbEntity
  8
0
100
AcDbBlockEnd
  0
BLOCK
  5
9C
330
9B
100
AcDbEntity
  8
0
100
AcDbBlockBegin
  2
FXTIP_ARROW_E
 70
     0
 10
0.0
 20
0.0
 30
0.0
  3
FXTIP_ARROW_E
  1

  0
LINE
  5
9E
330
9B
100
AcDbEntity
  8
0
  6
Continuous
 62
     0
370
    -2
100
AcDbLine
 10
0.0
 20
0.0
 30
0.0
 11
-1.0
 21
0.0
 31
0.0
  0
LINE
  5
9F
330
9B
100
AcDbEntity
  8
0
  6
Continuous
 62
     0
370
    -2
100
AcDbLine
 10
0.0
 20
0.0
 30
0.0
 11
-0.9659258262890683
 21
0.2588190451025207
 31
0.0
  0
LINE
  5
A0
330
9B
100
AcDbEntity
  8
0
  6
Continuous
 62
     0
370
    -2
100
AcDbLine
 10
0.0
 20
0.0
 30
0.0
 11
-0.9659258262890683
 21
-0.2588190451025207
 31
0.0
  0
ENDBLK
  5
9D
330
9B
100
AcDbEntity
  8
0
100
AcDbBlockEnd
  0
BLOCK
  5
A2
330
A1
100
AcDbEntity
  8
0
100
AcDbBlockBegin
  2
FXTIP_BLACKDOT_S
 70
     0
 10
0.0
 20
0.0
 30
0.0
  3
FXTIP_BLACKDOT_S
  1

  0
LINE
  5
A4
330
A1
100
AcDbEntity
  8
0
  6
Continuous
 62
     0
370
    -2
100
AcDbLine
 10
0.0
 20
0.0
 30
0.0
 11
-1.0
 21
0.0000000000000001
 31
0.0
  0
LWPOLYLINE
  5
A5
330
A1
100
AcDbEntity
  8
0
  6
Continuous
 62
     0
370
    -2
100
AcDbPolyline
 90
        2
 70
     1
 10
-0.5
 20
0.0
 40
1.0
 41
1.0
 42
1.0
 10
0.5
 20
0.0
 40
1.0
 41
1.0
 42
1.0
  0
CIRCLE
  5
A6
330
A1
100
AcDbEntity
  8
0
  6
Continuous
 62
     0
370
    -2
100
AcDbCircle
 10
0.0
 20
0.0
 30
0.0
 40
1.0
  0
ENDBLK
  5
A3
330
A1
100
AcDbEntity
  8
0
100
AcDbBlockEnd
  0
BLOCK
  5
A8
330
A7
100
AcDbEntity
  8
0
100
AcDbBlockBegin
  2
FXTIP_BLACKDOT_E
 70
     0
 10
0.0
 20
0.0
 30
0.0
  3
FXTIP_BLACKDOT_E
  1

  0
LINE
  5
AA
330
A7
100
AcDbEntity
  8
0
  6
Continuous
 62
     0
370
    -2
100
AcDbLine
 10
0.0
 20
0.0
 30
0.0
 11
-1.0
 21
0.0
 31
0.0
  0
LWPOLYLINE
  5
AB
330
A7
100
AcDbEntity
  8
0
  6
Continuous
 62
     0
370
    -2
100
AcDbPolyline
 90
        2
 70
     1
 10
-0.5
 20
0.0
 40
1.0
 41
1.0
 42
1.0
 10
0.5
 20
0.0
 40
1.0
 41
1.0
 42
1.0
  0
CIRCLE
  5
AC
330
A7
100
AcDbEntity
  8
0
  6
Continuous
 62
     0
370
    -2
100
AcDbCircle
 10
0.0
 20
0.0
 30
0.0
 40
1.0
  0
ENDBLK
  5
A9
330
A7
100
AcDbEntity
  8
0
100
AcDbBlockEnd
  0
BLOCK
  5
AE
330
AD
100
AcDbEntity
  8
0
100
AcDbBlockBegin
  2
FXTIP_TRIANGLE_S
 70
     0
 10
0.0
 20
0.0
 30
0.0
  3
FXTIP_TRIANGLE_S
  1

  0
LINE
  5
B0
330
AD
100
AcDbEntity
  8
0
  6
Continuous
 62
     0
370
    -2
100
AcDbLine
 10
0.0
 20
0.0
 30
0.0
 11
-1.0
 21
0.0000000000000001
 31
0.0
  0
LINE
  5
B1
330
AD
100
AcDbEntity
  8
0
  6
Continuous
 62
     0
370
    -2
100
AcDbLine
 10
0.0
 20
0.0
 30
0.0
 11
-0.9659258262890683
 21
-0.2588190451025206
 31
0.0
  0
LINE
  5
B2
330
AD
100
AcDbEntity
  8
0
  6
Continuous
 62
     0
370
    -2
100
AcDbLine
 10
0.0
 20
0.0
 30
0.0
 11
-0.9659258262890683
 21
0.2588190451025209
 31
0.0
  0
LINE
  5
B3
330
AD
100
AcDbEntity
  8
0
  6
Continuous
 62
     0
370
    -2
100
AcDbLine
 10
-0.9659258262890683
 20
-0.2588190451025206
 30
0.0
 11
-0.9659258262890683
 21
0.2588190451025209
 31
0.0
  0
ENDBLK
  5
AF
330
AD
100
AcDbEntity
  8
0
100
AcDbBlockEnd
  0
BLOCK
  5
B5
330
B4
100
AcDbEntity
  8
0
100
AcDbBlockBegin
  2
FXTIP_TRIANGLE_E
 70
     0
 10
0.0
 20
0.0
 30
0.0
  3
FXTIP_TRIANGLE_E
  1

  0
LINE
  5
B7
330
B4
100
AcDbEntity
  8
0
  6
Continuous
 62
     0
370
    -2
100
AcDbLine
 10
0.0
 20
0.0
 30
0.0
 11
-1.0
 21
0.0
 31
0.0
  0
LINE
  5
B8
330
B4
100
AcDbEntity
  8
0
  6
Continuous
 62
     0
370
    -2
100
AcDbLine
 10
0.0
 20
0.0
 30
0.0
 11
-0.9659258262890683
 21
0.2588190451025207
 31
0.0
  0
LINE
  5
B9
330
B4
100
AcDbEntity
  8
0
  6
Continuous
 62
     0
370
    -2
100
AcDbLine
 10
0.0
 20
0.0
 30
0.0
 11
-0.9659258262890683
 21
-0.2588190451025207
 31
0.0
  0
LINE
  5
BA
330
B4
100
AcDbEntity
  8
0
  6
Continuous
 62
     0
370
    -2
100
AcDbLine
 10
-0.9659258262890683
 20
0.2588190451025207
 30
0.0
 11
-0.9659258262890683
 21
-0.2588190451025207
 31
0.0
  0
ENDBLK
  5
B6
330
B4
100
AcDbEntity
  8
0
100
AcDbBlockEnd
  0
BLOCK
  5
BC
330
BB
100
AcDbEntity
  8
0
100
AcDbBlockBegin
  2
FXTIP_ARCHITECT_S
 70
     0
 10
0.0
 20
0.0
 30
0.0
  3
FXTIP_ARCHITECT_S
  1

  0
LINE
  5
BE
330
BB
100
AcDbEntity
  8
0
  6
Continuous
 62
     0
370
    -2
100
AcDbLine
 10
0.0
 20
0.0
 30
0.0
 11
-1.0
 21
0.0000000000000001
 31
0.0
  0
LINE
  5
BF
330
BB
100
AcDbEntity
  8
0
  6
Continuous
 62
     0
370
    -2
100
AcDbLine
 10
0.0
 20
0.0
 30
0.0
 11
-0.7071067811865476
 21
-0.7071067811865474
 31
0.0
  0
LINE
  5
C0
330
BB
100
AcDbEntity
  8
0
  6
Continuous
 62
     0
370
    -2
100
AcDbLine
 10
0.0
 20
0.0
 30
0.0
 11
0.7071067811865476
 21
0.7071067811865474
 31
0.0
  0
ENDBLK
  5
BD
330
BB
100
AcDbEntity
  8
0
100
AcDbBlockEnd
  0
BLOCK
  5
C2
330
C1
100
AcDbEntity
  8
0
100
AcDbBlockBegin
  2
FXTIP_ARCHITECT_E
 70
     0
 10
0.0
 20
0.0
 30
0.0
  3
FXTIP_ARCHITECT_E
  1

  0
LINE
  5
C4
330
C1
100
AcDbEntity
  8
0
  6
Continuous
 62
     0
370
    -2
100
AcDbLine
 10
0.0
 20
0.0
 30
0.0
 11
-1.0
 21
0.0
 31
0.0
  0
LINE
  5
C5
330
C1
100
AcDbEntity
  8
0
  6
Continuous
 62
     0
370
    -2
100
AcDbLine
 10
0.0
 20
0.0
 30
0.0
 11
0.7071067811865475
 21
0.7071067811865475
 31
0.0
  0
LINE
  5
C6
330
C1
100
AcDbEntity
  8
0
  6
Continuous
 62
     0
370
    -2
100
AcDbLine
 10
0.0
 20
0.0
 30
0.0
 11
-0.7071067811865475
 21
-0.7071067811865475
 31
0.0
  0
ENDBLK
  5
C3
330
C1
100
AcDbEntity
  8
0
100
AcDbBlockEnd
  0
BLOCK
  5
C8
330
C7
100
AcDbEntity
  8
0
100
AcDbBlockBegin
  2
FXTIP_CIVIL_S
 70
     0
 10
0.0
 20
0.0
 30
0.0
  3
FXTIP_CIVIL_S
  1

  0
LINE
  5
CA
330
C7
100
AcDbEntity
  8
0
  6
Continuous
 62
     0
370
    -2
100
AcDbLine
 10
0.0
 20
0.0
 30
0.0
 11
-1.0
 21
0.0000000000000002
 31
0.0
  0
LINE
  5
CB
330
C7
100
AcDbEntity
  8
0
  6
Continuous
 62
     0
370
    -2
100
AcDbLine
 10
0.0
 20
-0.125
 30
0.0
 11
-1.0
 21
-0.1249999999999998
 31
0.0
  0
LINE
  5
CC
330
C7
100
AcDbEntity
  8
0
  6
Continuous
 62
     0
370
    -2
100
AcDbLine
 10
0.0
 20
-0.25
 30
0.0
 11
-1.0
 21
-0.2499999999999999
 31
0.0
  0
ENDBLK
  5
C9
330
C7
100
AcDbEntity
  8
0
100
AcDbBlockEnd
  0
BLOCK
  5
CE
330
CD
100
AcDbEntity
  8
0
100
AcDbBlockBegin
  2
FXTIP_CIVIL_E
 70
     0
 10
0.0
 20
0.0
 30
0.0
  3
FXTIP_CIVIL_E
  1

  0
LINE
  5
D0
330
CD
100
AcDbEntity
  8
0
  6
Continuous
 62
     0
370
    -2
100
AcDbLine
 10
0.0
 20
0.0
 30
0.0
 11
-1.0
 21
0.0
 31
0.0
  0
LINE
  5
D1
330
CD
100
AcDbEntity
  8
0
  6
Continuous
 62
     0
370
    -2
100
AcDbLine
 10
0.0
 20
0.125
 30
0.0
 11
-1.0
 21
0.125
 31
0.0
  0
LINE
  5
D2
330
CD
100
AcDbEntity
  8
0
  6
Continuous
 62
     0
370
    -2
100
AcDbLine
 10
0.0
 20
0.25
 30
0.0
 11
-1.0
 21
0.25
 31
0.0
  0
ENDBLK
  5
CF
330
CD
100
AcDbEntity
  8
0
100
AcDbBlockEnd
  0
BLOCK
  5
D4
330
D3
100
AcDbEntity
  8
0
100
AcDbBlockBegin
  2
FXTIP_WHITEDOT_S
 70
     0
 10
0.0
 20
0.0
 30
0.0
  3
FXTIP_WHITEDOT_S
  1

  0
LINE
  5
D6
330
D3
100
AcDbEntity
  8
0
  6
Continuous
 62
     0
370
    -2
100
AcDbLine
 10
0.0
 20
0.0
 30
0.0
 11
-1.0
 21
0.0000000000000001
 31
0.0
  0
CIRCLE
  5
D7
330
D3
100
AcDbEntity
  8
0
  6
Continuous
 62
     0
370
    -2
100
AcDbCircle
 10
0.0
 20
0.0
 30
0.0
 40
1.0
  0
ENDBLK
  5
D5
330
D3
100
AcDbEntity
  8
0
100
AcDbBlockEnd
  0
BLOCK
  5
D9
330
D8
100
AcDbEntity
  8
0
100
AcDbBlockBegin
  2
FXTIP_WHITEDOT_E
 70
     0
 10
0.0
 20
0.0
 30
0.0
  3
FXTIP_WHITEDOT_E
  1

  0
LINE
  5
DB
330
D8
100
AcDbEntity
  8
0
  6
Continuous
 62
     0
370
    -2
100
AcDbLine
 10
0.0
 20
0.0
 30
0.0
 11
-1.0
 21
0.0
 31
0.0
  0
CIRCLE
  5
DC
330
D8
100
AcDbEntity
  8
0
  6
Continuous
 62
     0
370
    -2
100
AcDbCircle
 10
0.0
 20
0.0
 30
0.0
 40
1.0
  0
ENDBLK
  5
DA
330
D8
100
AcDbEntity
  8
0
100
AcDbBlockEnd
  0
BLOCK
  5
DE
330
DD
100
AcDbEntity
  8
0
100
AcDbBlockBegin
  2
FXTIP_UPARROW_S
 70
     0
 10
0.0
 20
0.0
 30
0.0
  3
FXTIP_UPARROW_S
  1

  0
LINE
  5
E0
330
DD
100
AcDbEntity
  8
0
  6
Continuous
 62
     0
370
    -2
100
AcDbLine
 10
0.0
 20
0.0
 30
0.0
 11
-1.0
 21
0.0000000000000001
 31
0.0
  0
LINE
  5
E1
330
DD
100
AcDbEntity
  8
0
  6
Continuous
 62
     0
370
    -2
100
AcDbLine
 10
0.0
 20
0.0
 30
0.0
 11
-0.9659258262890683
 21
-0.2588190451025206
 31
0.0
  0
ENDBLK
  5
DF
330
DD
100
AcDbEntity
  8
0
100
AcDbBlockEnd
  0
BLOCK
  5
E3
330
E2
100
AcDbEntity
  8
0
100
AcDbBlockBegin
  2
FXTIP_UPARROW_E
 70
     0
 10
0.0
 20
0.0
 30
0.0
  3
FXTIP_UPARROW_E
  1

  0
LINE
  5
E5
330
E2
100
AcDbEntity
  8
0
  6
Continuous
 62
     0
370
    -2
100
AcDbLine
 10
0.0
 20
0.0
 30
0.0
 11
-1.0
 21
0.0
 31
0.0
  0
LINE
  5
E6
330
E2
100
AcDbEntity
  8
0
  6
Continuous
 62
     0
370
    -2
100
AcDbLine
 10
0.0
 20
0.0
 30
0.0
 11
-0.9659258262890683
 21
0.2588190451025207
 31
0.0
  0
ENDBLK
  5
E4
330
E2
100
AcDbEntity
  8
0
100
AcDbBlockEnd
  0
BLOCK
  5
E8
330
E7
100
AcDbEntity
  8
0
100
AcDbBlockBegin
  2
FXTIP_DOWNARROW_S
 70
     0
 10
0.0
 20
0.0
 30
0.0
  3
FXTIP_DOWNARROW_S
  1

  0
LINE
  5
EA
330
E7
100
AcDbEntity
  8
0
  6
Continuous
 62
     0
370
    -2
100
AcDbLine
 10
0.0
 20
0.0
 30
0.0
 11
-1.0
 21
0.0000000000000001
 31
0.0
  0
LINE
  5
EB
330
E7
100
AcDbEntity
  8
0
  6
Continuous
 62
     0
370
    -2
100
AcDbLine
 10
0.0
 20
0.0
 30
0.0
 11
-0.9659258262890683
 21
0.2588190451025209
 31
0.0
  0
ENDBLK
  5
E9
330
E7
100
AcDbEntity
  8
0
100
AcDbBlockEnd
  0
BLOCK
  5
ED
330
EC
100
AcDbEntity
  8
0
100
AcDbBlockBegin
  2
FXTIP_DOWNARROW_E
 70
     0
 10
0.0
 20
0.0
 30
0.0
  3
FXTIP_DOWNARROW_E
  1

  0
LINE
  5
EF
330
EC
100
AcDbEntity
  8
0
  6
Continuous
 62
     0
370
    -2
100
AcDbLine
 10
0.0
 20
0.0
 30
0.0
 11
-1.0
 21
0.0
 31
0.0
  0
LINE
  5
F0
330
EC
100
AcDbEntity
  8
0
  6
Continuous
 62
     0
370
    -2
100
AcDbLine
 10
0.0
 20
0.0
 30
0.0
 11
-0.9659258262890683
 21
-0.2588190451025207
 31
0.0
  0
ENDBLK
  5
EE
330
EC
100
AcDbEntity
  8
0
100
AcDbBlockEnd
  0
BLOCK
  5
F2
330
F1
100
AcDbEntity
  8
0
100
AcDbBlockBegin
  2
FXTIP_BLACKTRIANGLE_S
 70
     0
 10
0.0
 20
0.0
 30
0.0
  3
FXTIP_BLACKTRIANGLE_S
  1

  0
LINE
  5
F4
330
F1
100
AcDbEntity
  8
0
  6
Continuous
 62
     0
370
    -2
100
AcDbLine
 10
0.0
 20
0.0
 30
0.0
 11
-1.0
 21
0.0000000000000001
 31
0.0
  0
SOLID
  5
F5
330
F1
100
AcDbEntity
  8
0
  6
Continuous
 62
     0
370
    -2
100
AcDbTrace
 10
0.0
 20
0.0
 30
0.0
 11
-0.9659258262890683
 21
-0.2588190451025206
 31
0.0
 12
-0.9659258262890683
 22
0.2588190451025209
 32
0.0
 13
-0.9659258262890683
 23
0.2588190451025209
 33
0.0
  0
ENDBLK
  5
F3
330
F1
100
AcDbEntity
  8
0
100
AcDbBlockEnd
  0
BLOCK
  5
F7
330
F6
100
AcDbEntity
  8
0
100
AcDbBlockBegin
  2
FXTIP_BLACKTRIANGLE_E
 70
     0
 10
0.0
 20
0.0
 30
0.0
  3
FXTIP_BLACKTRIANGLE_E
  1

  0
LINE
  5
F9
330
F6
100
AcDbEntity
  8
0
  6
Continuous
 62
     0
370
    -2
100
AcDbLine
 10
0.0
 20
0.0
 30
0.0
 11
-1.0
 21
0.0
 31
0.0
  0
SOLID
  5
FA
330
F6
100
AcDbEntity
  8
0
  6
Continuous
 62
     0
370
    -2
100
AcDbTrace
 10
0.0
 20
0.0
 30
0.0
 11
-0.9659258262890683
 21
0.2588190451025207
 31
0.0
 12
-0.9659258262890683
 22
-0.2588190451025207
 32
0.0
 13
-0.9659258262890683
 23
-0.2588190451025207
 33
0.0
  0
ENDBLK
  5
F8
330
F6
100
AcDbEntity
  8
0
100
AcDbBlockEnd
  0
ENDSEC
  0
SECTION
  2
ENTITIES
  0
LINE
  5
FF
330
1A
100
AcDbEntity
  8
GR1_01
  6
Continuous
 62
     3
370
    35
100
AcDbLine
 10
915.8459631723163
 20
234.3603628775189
 30
0.0
 11
638.8459735971592
 21
234.3603628775189
 31
0.0
  0
LINE
  5
100
330
1A
100
AcDbEntity
  8
GR1_01
  6
Continuous
 62
     3
370
    35
100
AcDbLine
 10
638.8459735971592
 20
234.3603628775189
 30
0.0
 11
638.8459583230394
 21
44.36036287751898
 31
0.0
  0
LINE
  5
101
330
1A
100
AcDbEntity
  8
GR1_01
  6
Continuous
 62
     3
370
    35
100
AcDbLine
 10
638.8459583230394
 20
44.36036287751898
 30
0.0
 11
915.8459578017973
 21
44.36036287751894
 31
0.0
  0
LINE
  5
102
330
1A
100
AcDbEntity
  8
GR1_01
  6
Continuous
 62
     3
370
    35
100
AcDbLine
 10
915.8459578017973
 20
44.36036287751894
 30
0.0
 11
915.8459631723163
 21
234.3603628775189
 31
0.0
  0
LINE
  5
103
330
1A
100
AcDbEntity
  8
GR1_01
  6
Continuous
 62
     3
370
    35
100
AcDbLine
 10
914.8459631440504
 20
233.3603628775189
 30
0.0
 11
639.8459735167693
 21
233.360362877519
 31
0.0
  0
LINE
  5
104
330
1A
100
AcDbEntity
  8
GR1_01
  6
Continuous
 62
     3
370
    35
100
AcDbLine
 10
639.8459735167693
 20
233.360362877519
 30
0.0
 11
639.8459584034297
 21
45.36036287751898
 31
0.0
  0
LINE
  5
105
330
1A
100
AcDbEntity
  8
GR1_01
  6
Continuous
 62
     3
370
    35
100
AcDbLine
 10
639.8459584034297
 20
45.36036287751898
 30
0.0
 11
914.845957830063
 21
45.36036287751894
 31
0.0
  0
LINE
  5
106
330
1A
100
AcDbEntity
  8
GR1_01
  6
Continuous
 62
     3
370
    35
100
AcDbLine
 10
914.845957830063
 20
45.36036287751894
 30
0.0
 11
914.8459631440504
 21
233.3603628775189
 31
0.0
  0
LINE
  5
107
330
1A
100
AcDbEntity
  8
GR1_01
  6
Continuous
 62
     4
370
    25
100
AcDbLine
 10
836.7932121129082
 20
66.86116845022477
 30
0.0
 11
911.7932365269706
 21
66.86116845022475
 31
0.0
  0
LINE
  5
108
330
1A
100
AcDbEntity
  8
GR1_01
  6
Continuous
 62
     4
370
    25
100
AcDbLine
 10
911.7932365269706
 20
60.86116845022475
 30
0.0
 11
836.7932121129082
 21
60.86116845022477
 31
0.0
  0
LINE
  5
109
330
1A
100
AcDbEntity
  8
GR1_01
  6
Continuous
 62
     4
370
    25
100
AcDbLine
 10
836.7932121129082
 20
54.86117150198258
 30
0.0
 11
911.7932365269706
 21
54.86117150198256
 31
0.0
  0
LINE
  5
10A
330
1A
100
AcDbEntity
  8
GR1_01
  6
Continuous
 62
     4
370
    25
100
AcDbLine
 10
836.7932121129082
 20
48.86116997610365
 30
0.0
 11
836.7932121129082
 21
66.86116845022475
 31
0.0
  0
LINE
  5
10B
330
1A
100
AcDbEntity
  8
GR1_01
  6
Continuous
 62
     4
370
    25
100
AcDbLine
 10
851.7932121129082
 20
66.86116845022475
 30
0.0
 11
851.7932121129082
 21
54.86117150198256
 31
0.0
  0
LINE
  5
10C
330
1A
100
AcDbEntity
  8
GR1_01
  6
Continuous
 62
     4
370
    25
100
AcDbLine
 10
874.2932243199394
 20
54.86117150198258
 30
0.0
 11
874.2932243199394
 21
60.86116845022477
 31
0.0
  0
TEXT
  5
10E
330
1A
100
AcDbEntity
  8
GR1_01
  6
Continuous
 62
     7
370
    13
100
AcDbText
 10
841.7432291666667
 20
62.35685554273201
 30
0.0
 40
2.651515151515151
  1
図名
 41
0.7397802059467022
  7
ＭＳ ゴシック
 11
841.7432291666667
 21
63.68261311848958
 31
0.0
100
AcDbText
 73
     2
  0
TEXT
  5
10F
330
1A
100
AcDbEntity
  8
GR1_01
  6
Continuous
 62
     7
370
    13
100
AcDbText
 10
841.7432291666667
 20
56.32530036695076
 30
0.0
 40
2.651515151515151
  1
尺度
 41
0.7397802059467022
  7
ＭＳ ゴシック
 11
841.7432291666667
 21
57.65105794270833
 31
0.0
100
AcDbText
 73
     2
  0
TEXT
  5
110
330
1A
100
AcDbEntity
  8
GR1_01
  6
Continuous
 62
     7
370
    13
100
AcDbText
 10
876.4432291666667
 20
56.32530036695076
 30
0.0
 40
2.651515151515151
  1
参考重量
 41
0.7760439422104385
  7
ＭＳ ゴシック
 11
876.4432291666667
 21
57.65105794270833
 31
0.0
100
AcDbText
 73
     2
  0
TEXT
  5
111
330
1A
100
AcDbEntity
  8
GR1_01
  6
Continuous
 62
     7
370
    13
100
AcDbText
 10
854.9432291666667
 20
50.29374519116951
 30
0.0
 40
2.651515151515151
  1
小倉セメント製品工業株式会社
 41
0.8019466109702503
  7
ＭＳ ゴシック
 11
854.9432291666667
 21
51.61950276692708
 31
0.0
100
AcDbText
 73
     2
  0
LINE
  5
112
330
1A
100
AcDbEntity
  8
GR1_01
  6
Continuous
 62
     4
370
    25
100
AcDbLine
 10
889.2932731480645
 20
60.86116845022477
 30
0.0
 11
889.2932731480645
 21
54.86117150198258
 31
0.0
  0
TEXT
  5
113
330
1A
100
AcDbEntity
  8
GR1_01
  6
Continuous
 62
     7
370
    13
100
AcDbText
 10
858.4432291666667
 20
56.48831713127367
 30
0.0
 40
2.651515151515151
  1
１／３０
 41
0.6672527334192297
  7
ＭＳ ゴシック
 11
858.4432291666667
 21
57.81407470703125
 31
0.0
100
AcDbText
 73
     2
  0
TEXT
  5
114
330
1A
100
AcDbEntity
  8
GR1_01
  6
Continuous
 62
     7
370
    13
100
AcDbText
 10
892.4932291666667
 20
56.32530036695076
 30
0.0
 40
2.651515151515151
  1
３４００　ｋｇ
 41
0.6672527334192297
  7
ＭＳ ゴシック
 11
892.4932291666667
 21
57.65105794270833
 31
0.0
100
AcDbText
 73
     2
  0
TEXT
  5
115
330
1A
100
AcDbEntity
  8
GR1_01
  6
Continuous
 62
     7
370
    13
100
AcDbText
 10
867.9932291666667
 20
62.28311286695075
 30
0.0
 40
2.651515151515151
  1
ＫＬウォール　２７５０Ｈ
 41
0.6672527334192299
  7
ＭＳ ゴシック
 11
867.9932291666667
 21
63.60887044270833
 31
0.0
100
AcDbText
 73
     2
  0
LINE
  5
116
330
1A
100
AcDbEntity
  8
GR1_01
  6
Continuous
 62
     4
370
    25
100
AcDbLine
 10
911.7932365269706
 20
66.86116845022475
 30
0.0
 11
911.7932365269706
 21
48.86116997610365
 31
0.0
  0
LINE
  5
117
330
1A
100
AcDbEntity
  8
GR1_01
  6
Continuous
 62
     4
370
    25
100
AcDbLine
 10
836.7932121129082
 20
48.86116997610365
 30
0.0
 11
911.7932365269706
 21
48.86116997610365
 31
0.0
  0
LINE
  5
118
330
1A
100
AcDbEntity
  8
GR1_01
  6
Continuous
 62
     4
370
    25
100
AcDbLine
 10
706.546879166813
 20
95.41737024400035
 30
0.0
 11
706.546879166813
 21
186.4173702440003
 31
0.0
  0
LINE
  5
119
330
1A
100
AcDbEntity
  8
GR1_01
  6
Continuous
 62
     4
370
    25
100
AcDbLine
 10
706.7135458334797
 20
186.584036910667
 30
0.0
 11
710.546879166813
 21
186.584036910667
 31
0.0
  0
LINE
  5
11A
330
1A
100
AcDbEntity
  8
GR1_01
  6
Continuous
 62
     7
370
    13
100
AcDbLine
 10
706.8802125001463
 20
186.4173702440003
 30
0.0
 11
710.3802125001463
 21
186.4173702440003
 31
0.0
  0
LINE
  5
11B
330
1A
100
AcDbEntity
  8
GR1_01
  6
Continuous
 62
     7
370
    13
100
AcDbLine
 10
710.3802125001463
 20
186.4173702440003
 30
0.0
 11
710.546879166813
 21
186.584036910667
 31
0.0
  0
LINE
  5
11C
330
1A
100
AcDbEntity
  8
GR1_01
  6
Continuous
 62
     7
370
    13
100
AcDbLine
 10
706.8802125001463
 20
186.4173702440003
 30
0.0
 11
706.8802125001463
 21
173.2507035773336
 31
0.0
  0
LINE
  5
11D
330
1A
100
AcDbEntity
  8
GR1_01
  6
Continuous
 62
     7
370
    13
100
AcDbLine
 10
736.9290968979975
 20
98.39579164906802
 30
0.0
 11
739.3927238082866
 21
98.2726103035536
 31
0.0
  0
LINE
  5
11E
330
1A
100
AcDbEntity
  8
GR1_01
  6
Continuous
 62
     7
370
    13
100
AcDbLine
 10
736.9290968979975
 20
98.39579164906802
 30
0.0
 11
737.0400369372423
 21
100.3927123554788
 31
0.0
  0
LINE
  5
11F
330
1A
100
AcDbEntity
  8
GR1_01
  6
Continuous
 62
     7
370
    13
100
AcDbLine
 10
739.3927238082866
 20
98.2726103035536
 30
0.0
 11
739.5036638475318
 21
100.2695310099644
 31
0.0
  0
LINE
  5
120
330
1A
100
AcDbEntity
  8
GR1_01
  6
Continuous
 62
     7
370
    13
100
AcDbLine
 10
739.2262625305644
 20
98.28093336743972
 30
0.0
 11
739.3279574246598
 21
100.1114414611538
 31
0.0
  0
LINE
  5
121
330
1A
100
AcDbEntity
  8
GR1_01
  6
Continuous
 62
     7
370
    13
100
AcDbLine
 10
737.0955581757197
 20
98.3874685851819
 30
0.0
 11
737.1972530698148
 21
100.2179766788961
 31
0.0
  0
CIRCLE
  5
122
330
1A
100
AcDbEntity
  8
GR1_01
  6
Continuous
 62
     7
370
    13
100
AcDbCircle
 10
738.2135458334797
 20
99.28163962238823
 30
0.0
 40
0.3333333333333333
  0
LINE
  5
123
330
1A
100
AcDbEntity
  8
GR1_01
  6
Continuous
 62
     7
370
    13
100
AcDbLine
 10
710.546879166813
 20
176.8173702440003
 30
0.0
 11
708.546879166813
 21
176.8173702440003
 31
0.0
  0
LINE
  5
124
330
1A
100
AcDbEntity
  8
GR1_01
  6
Continuous
 62
     7
370
    13
100
AcDbLine
 10
708.546879166813
 20
176.8173702440003
 30
0.0
 11
708.546879166813
 21
174.3507035773336
 31
0.0
  0
LINE
  5
125
330
1A
100
AcDbEntity
  8
GR1_01
  6
Continuous
 62
     7
370
    13
100
AcDbLine
 10
708.546879166813
 20
174.3507035773336
 30
0.0
 11
710.546879166813
 21
174.3507035773336
 31
0.0
  0
LINE
  5
126
330
1A
100
AcDbEntity
  8
GR1_01
  6
Continuous
 62
     7
370
    13
100
AcDbLine
 10
710.3802125001463
 20
176.6507035773337
 30
0.0
 11
708.546879166813
 21
176.6507035773336
 31
0.0
  0
LINE
  5
127
330
1A
100
AcDbEntity
  8
GR1_01
  6
Continuous
 62
     7
370
    13
100
AcDbLine
 10
708.546879166813
 20
174.5173702440003
 30
0.0
 11
710.3802125001463
 21
174.5173702440003
 31
0.0
  0
CIRCLE
  5
128
330
1A
100
AcDbEntity
  8
GR1_01
  6
Continuous
 62
     7
370
    13
100
AcDbCircle
 10
709.546879166813
 20
175.584036910667
 30
0.0
 40
0.3333333333333333
  0
LINE
  5
129
330
1A
100
AcDbEntity
  8
GR1_01
  6
Continuous
 62
     4
370
    25
100
AcDbLine
 10
799.8802125001463
 20
186.584036910667
 30
0.0
 11
866.3802125001463
 21
186.584036910667
 31
0.0
  0
LINE
  5
12A
330
1A
100
AcDbEntity
  8
GR1_01
  6
Continuous
 62
     4
370
    25
100
AcDbLine
 10
866.546879166813
 20
186.4173702440003
 30
0.0
 11
866.546879166813
 21
173.2507035773336
 31
0.0
  0
LINE
  5
12B
330
1A
100
AcDbEntity
  8
GR1_01
  6
Continuous
 62
     4
370
    25
100
AcDbLine
 10
866.546879166813
 20
94.91737024400035
 30
0.0
 11
799.8802125001463
 21
94.91737024400035
 31
0.0
  0
LINE
  5
12C
330
1A
100
AcDbEntity
  8
GR1_01
  6
Continuous
 62
     4
370
    25
100
AcDbLine
 10
799.8802125001463
 20
94.91737024400035
 30
0.0
 11
799.8802125001463
 21
186.584036910667
 31
0.0
  0
LINE
  5
12D
330
1A
100
AcDbEntity
  8
GR1_01
  6
Continuous
 62
     4
370
    25
100
AcDbLine
 10
866.3802125001463
 20
173.084036910667
 30
0.0
 11
866.3802125001463
 21
122.4173702440002
 31
0.0
  0
LINE
  5
12E
330
1A
100
AcDbEntity
  8
GR1_01
  6
Continuous
 62
     4
370
    25
100
AcDbLine
 10
866.546879166813
 20
173.2507035773336
 30
0.0
 11
866.3802125001463
 21
173.084036910667
 31
0.0
  0
LINE
  5
12F
330
1A
100
AcDbEntity
  8
GR1_01
  6
Continuous
 62
     4
370
    25
100
AcDbLine
 10
866.546879166813
 20
109.2507035773337
 30
0.0
 11
866.546879166813
 21
94.91737024400035
 31
0.0
  0
LINE
  5
130
330
1A
100
AcDbEntity
  8
GR1_01
  6
Continuous
 62
     4
370
    25
100
AcDbLine
 10
866.3802125001463
 20
186.584036910667
 30
0.0
 11
866.546879166813
 21
186.4173702440003
 31
0.0
  0
LINE
  5
131
330
1A
100
AcDbEntity
  8
GR1_01
  6
DOT
 62
     7
370
    13
100
AcDbLine
 10
706.5333012898985
 20
126.4076000715591
 30
0.0
 11
712.2988171513092
 21
126.1673702440003
 31
0.0
  0
LINE
  5
132
330
1A
100
AcDbEntity
  8
GR1_01
  6
DOT
 62
     7
370
    13
100
AcDbLine
 10
706.5604423475453
 20
123.4243953248512
 30
0.0
 11
712.3918404071229
 21
123.6673702440004
 31
0.0
  0
LINE
  5
133
330
1A
100
AcDbEntity
  8
GR1_01
  6
Continuous
 62
     4
370
    25
100
AcDbLine
 10
706.546879166813
 20
186.4173702440003
 30
0.0
 11
706.7135458334797
 21
186.584036910667
 31
0.0
  0
LINE
  5
134
330
1A
100
AcDbEntity
  8
GR1_01
  6
Continuous
 62
     7
370
    13
100
AcDbLine
 10
706.7135458334797
 20
186.584036910667
 30
0.0
 11
706.8802125001463
 21
186.4173702440003
 31
0.0
  0
LINE
  5
135
330
1A
100
AcDbEntity
  8
GR1_01
  6
Continuous
 62
     7
370
    13
100
AcDbLine
 10
866.3802125001463
 20
173.084036910667
 30
0.0
 11
866.3802125001463
 21
186.584036910667
 31
0.0
  0
LINE
  5
136
330
1A
100
AcDbEntity
  8
GR1_01
  6
Continuous
 62
     7
370
    13
100
AcDbLine
 10
866.3802125001463
 20
109.4173702440003
 30
0.0
 11
866.3802125001463
 21
94.91737024400035
 31
0.0
  0
LINE
  5
137
330
1A
100
AcDbEntity
  8
GR1_01
  6
DOT
 62
     7
370
    13
100
AcDbLine
 10
848.2135458334797
 20
124.9173702440003
 30
0.0
 11
851.546879166813
 21
124.9173702440003
 31
0.0
  0
LINE
  5
138
330
1A
100
AcDbEntity
  8
GR1_01
  6
DOT
 62
     7
370
    13
100
AcDbLine
 10
849.8802125001463
 20
126.584036910667
 30
0.0
 11
849.8802125001463
 21
123.2507035773337
 31
0.0
  0
LINE
  5
139
330
1A
100
AcDbEntity
  8
GR1_01
  6
DOT
 62
     7
370
    13
100
AcDbLine
 10
814.8802125001463
 20
124.9173702440003
 30
0.0
 11
818.2135458334797
 21
124.9173702440003
 31
0.0
  0
LINE
  5
13A
330
1A
100
AcDbEntity
  8
GR1_01
  6
DOT
 62
     7
370
    13
100
AcDbLine
 10
816.546879166813
 20
126.584036910667
 30
0.0
 11
816.546879166813
 21
123.2507035773337
 31
0.0
  0
LINE
  5
13B
330
1A
100
AcDbEntity
  8
GR1_01
  6
Continuous
 62
     7
370
    13
100
AcDbLine
 10
799.8802125001463
 20
176.8173702440003
 30
0.0
 11
801.8802125001463
 21
176.8173702440003
 31
0.0
  0
LINE
  5
13C
330
1A
100
AcDbEntity
  8
GR1_01
  6
Continuous
 62
     7
370
    13
100
AcDbLine
 10
801.8802125001463
 20
176.8173702440003
 30
0.0
 11
801.8802125001463
 21
176.6507035773336
 31
0.0
  0
LINE
  5
13D
330
1A
100
AcDbEntity
  8
GR1_01
  6
Continuous
 62
     7
370
    13
100
AcDbLine
 10
802.3135458334797
 20
176.6507035773336
 30
0.0
 11
800.046879166813
 21
176.6507035773336
 31
0.0
  0
LINE
  5
13E
330
1A
100
AcDbEntity
  8
GR1_01
  6
Continuous
 62
     7
370
    13
100
AcDbLine
 10
800.046879166813
 20
176.6507035773336
 30
0.0
 11
800.046879166813
 21
174.5173702440003
 31
0.0
  0
LINE
  5
13F
330
1A
100
AcDbEntity
  8
GR1_01
  6
Continuous
 62
     7
370
    13
100
AcDbLine
 10
800.046879166813
 20
174.5173702440003
 30
0.0
 11
802.3135458334797
 21
174.5173702440003
 31
0.0
  0
LINE
  5
140
330
1A
100
AcDbEntity
  8
GR1_01
  6
Continuous
 62
     7
370
    13
100
AcDbLine
 10
801.8802125001463
 20
174.5173702440003
 30
0.0
 11
801.8802125001463
 21
174.3507035773336
 31
0.0
  0
LINE
  5
141
330
1A
100
AcDbEntity
  8
GR1_01
  6
Continuous
 62
     7
370
    13
100
AcDbLine
 10
801.8802125001463
 20
174.3507035773336
 30
0.0
 11
799.8802125001463
 21
174.3507035773336
 31
0.0
  0
ARC
  5
142
330
1A
100
AcDbEntity
  8
GR1_01
  6
Continuous
 62
     7
370
    13
100
AcDbCircle
 10
802.3135458334797
 20
175.584036910667
 30
0.0
 40
1.066666666666667
100
AcDbArc
 50
266.3018148248755
 51
94.33330148978311
  0
LINE
  5
143
330
1A
100
AcDbEntity
  8
GR1_01
  6
Continuous
 62
     7
370
    13
100
AcDbLine
 10
866.546879166813
 20
176.8173702440003
 30
0.0
 11
864.546879166813
 21
176.8173702440003
 31
0.0
  0
LINE
  5
144
330
1A
100
AcDbEntity
  8
GR1_01
  6
Continuous
 62
     7
370
    13
100
AcDbLine
 10
864.546879166813
 20
176.8173702440003
 30
0.0
 11
864.546879166813
 21
176.6507035773336
 31
0.0
  0
LINE
  5
145
330
1A
100
AcDbEntity
  8
GR1_01
  6
Continuous
 62
     7
370
    13
100
AcDbLine
 10
864.1135458334796
 20
176.6507035773336
 30
0.0
 11
866.3802125001463
 21
176.6507035773336
 31
0.0
  0
LINE
  5
146
330
1A
100
AcDbEntity
  8
GR1_01
  6
Continuous
 62
     7
370
    13
100
AcDbLine
 10
866.3802125001463
 20
174.5173702440003
 30
0.0
 11
864.1135458334796
 21
174.5173702440003
 31
0.0
  0
LINE
  5
147
330
1A
100
AcDbEntity
  8
GR1_01
  6
Continuous
 62
     7
370
    13
100
AcDbLine
 10
864.546879166813
 20
174.5173702440003
 30
0.0
 11
864.546879166813
 21
174.3507035773336
 31
0.0
  0
LINE
  5
148
330
1A
100
AcDbEntity
  8
GR1_01
  6
Continuous
 62
     7
370
    13
100
AcDbLine
 10
864.546879166813
 20
174.3507035773336
 30
0.0
 11
866.546879166813
 21
174.3507035773336
 31
0.0
  0
ARC
  5
149
330
1A
100
AcDbEntity
  8
GR1_01
  6
Continuous
 62
     7
370
    13
100
AcDbCircle
 10
864.1135458334796
 20
175.584036910667
 30
0.0
 40
1.066666666666667
100
AcDbArc
 50
85.66669851021732
 51
273.6981851751248
  0
LINE
  5
14A
330
1A
100
AcDbEntity
  8
GR1_01
  6
Continuous
 62
     4
370
    25
100
AcDbLine
 10
766.546879166813
 20
94.91737024400035
 30
0.0
 11
707.046879166813
 21
94.91737024400035
 31
0.0
  0
LINE
  5
14B
330
1A
100
AcDbEntity
  8
GR1_01
  6
Continuous
 62
     4
370
    25
100
AcDbLine
 10
706.546879166813
 20
95.41737024400035
 30
0.0
 11
707.046879166813
 21
94.91737024400035
 31
0.0
  0
LINE
  5
14C
330
1A
100
AcDbEntity
  8
GR1_01
  6
Continuous
 62
     7
370
    13
100
AcDbLine
 10
706.8802125001463
 20
173.2507035773336
 30
0.0
 11
710.2135458334797
 21
173.2507035773336
 31
0.0
  0
LINE
  5
14D
330
1A
100
AcDbEntity
  8
GR1_01
  6
Continuous
 62
     7
370
    13
100
AcDbLine
 10
706.7135458334797
 20
173.084036910667
 30
0.0
 11
710.2135458334797
 21
173.084036910667
 31
0.0
  0
LINE
  5
14E
330
1A
100
AcDbEntity
  8
GR1_01
  6
Continuous
 62
     7
370
    13
100
AcDbLine
 10
706.7135458334797
 20
173.084036910667
 30
0.0
 11
706.7135458334797
 21
106.7507035773337
 31
0.0
  0
LINE
  5
14F
330
1A
100
AcDbEntity
  8
GR1_01
  6
Continuous
 62
     7
370
    13
100
AcDbLine
 10
706.8802125001463
 20
173.2507035773336
 30
0.0
 11
706.7135458334797
 21
173.084036910667
 31
0.0
  0
LINE
  5
150
330
1A
100
AcDbEntity
  8
GR1_01
  6
Continuous
 62
     7
370
    13
100
AcDbLine
 10
707.8802125001463
 20
106.584036910667
 30
0.0
 11
706.8802125001463
 21
106.584036910667
 31
0.0
  0
LINE
  5
151
330
1A
100
AcDbEntity
  8
GR1_01
  6
Continuous
 62
     7
370
    13
100
AcDbLine
 10
707.8802125001464
 20
106.7507035773337
 30
0.0
 11
706.7135458334797
 21
106.7507035773337
 31
0.0
  0
LINE
  5
152
330
1A
100
AcDbEntity
  8
GR1_01
  6
Continuous
 62
     7
370
    13
100
AcDbLine
 10
706.8802125001463
 20
95.08403691066702
 30
0.0
 11
706.8802125001463
 21
106.584036910667
 31
0.0
  0
LINE
  5
153
330
1A
100
AcDbEntity
  8
GR1_01
  6
Continuous
 62
     7
370
    13
100
AcDbLine
 10
706.7135458334797
 20
106.7507035773337
 30
0.0
 11
706.8802125001463
 21
106.584036910667
 31
0.0
  0
LINE
  5
154
330
1A
100
AcDbEntity
  8
GR1_01
  6
Continuous
 62
     7
370
    13
100
AcDbLine
 10
741.546879166813
 20
94.91737024400035
 30
0.0
 11
741.546879166813
 21
99.8419538374253
 31
0.0
  0
LINE
  5
155
330
1A
100
AcDbEntity
  8
GR1_01
  6
Continuous
 62
     7
370
    13
100
AcDbLine
 10
741.7135458334797
 20
94.91737024400035
 30
0.0
 11
741.7135458334797
 21
99.84195383742532
 31
0.0
  0
LINE
  5
156
330
1A
100
AcDbEntity
  8
GR1_01
  6
Continuous
 62
     4
370
    25
100
AcDbLine
 10
799.8802125001462
 20
108.2507035773338
 30
0.0
 11
866.3802125001462
 21
108.2507035773337
 31
0.0
  0
LINE
  5
157
330
1A
100
AcDbEntity
  8
GR1_01
  6
Continuous
 62
     4
370
    25
100
AcDbLine
 10
799.8802125001463
 20
101.2625387384464
 30
0.0
 11
866.546879166813
 21
101.2625387384464
 31
0.0
  0
LINE
  5
158
330
1A
100
AcDbEntity
  8
GR1_01
  6
Continuous
 62
     4
370
    25
100
AcDbLine
 10
799.8802125001463
 20
98.91737024400035
 30
0.0
 11
866.546879166813
 21
98.91737024400035
 31
0.0
  0
LINE
  5
159
330
1A
100
AcDbEntity
  8
GR1_01
  6
Continuous
 62
     4
370
    25
100
AcDbLine
 10
710.546879166813
 20
186.584036910667
 30
0.0
 11
710.546879166813
 21
173.2507035773336
 31
0.0
  0
LINE
  5
15A
330
1A
100
AcDbEntity
  8
GR1_01
  6
Continuous
 62
     7
370
    13
100
AcDbLine
 10
710.3802125001463
 20
186.4173702440003
 30
0.0
 11
710.3802125001463
 21
173.4173702440003
 31
0.0
  0
ARC
  5
15B
330
1A
100
AcDbEntity
  8
GR1_01
  6
Continuous
 62
     7
370
    13
100
AcDbCircle
 10
710.2135458334797
 20
173.4173702440003
 30
0.0
 40
0.3333333333333333
100
AcDbArc
 50
270.0
 51
0.0
  0
LINE
  5
15C
330
1A
100
AcDbEntity
  8
GR1_01
  6
Continuous
 62
     7
370
    13
100
AcDbLine
 10
799.8802125001463
 20
173.2507035773336
 30
0.0
 11
866.3802125001463
 21
173.2507035773336
 31
0.0
  0
LINE
  5
15D
330
1A
100
AcDbEntity
  8
GR1_01
  6
Continuous
 62
     4
370
    25
100
AcDbLine
 10
866.3802125001463
 20
109.4173702440003
 30
0.0
 11
866.546879166813
 21
109.2507035773337
 31
0.0
  0
LINE
  5
15E
330
1A
100
AcDbEntity
  8
GR1_01
  6
Continuous
 62
     7
370
    13
100
AcDbLine
 10
708.046879166813
 20
109.084036910667
 30
0.0
 11
708.0468791668131
 21
106.9173702440004
 31
0.0
  0
LINE
  5
15F
330
1A
100
AcDbEntity
  8
GR1_01
  6
Continuous
 62
     7
370
    13
100
AcDbLine
 10
708.2135458334797
 20
106.9173702440004
 30
0.0
 11
708.2135458334797
 21
109.084036910667
 31
0.0
  0
ARC
  5
160
330
1A
100
AcDbEntity
  8
GR1_01
  6
Continuous
 62
     7
370
    13
100
AcDbCircle
 10
707.8802125001463
 20
106.9173702440004
 30
0.0
 40
0.3333333333333333
100
AcDbArc
 50
270.0
 51
0.0
  0
LINE
  5
161
330
1A
100
AcDbEntity
  8
GR1_01
  6
Continuous
 62
     4
370
    25
100
AcDbLine
 10
766.546879166813
 20
98.91737024400035
 30
0.0
 11
766.546879166813
 21
94.91737024400035
 31
0.0
  0
LINE
  5
162
330
1A
100
AcDbEntity
  8
GR1_01
  6
Continuous
 62
     4
370
    25
100
AcDbLine
 10
710.54687916681
 20
173.2507035773335
 30
0.0
 11
712.9654838179757
 21
108.2507035773337
 31
0.0
  0
LINE
  5
163
330
1A
100
AcDbEntity
  8
GR1_01
  6
Continuous
 62
     4
370
    25
100
AcDbLine
 10
719.6435092778926
 20
101.2625387384464
 30
0.0
 11
766.546879166813
 21
98.91737024400032
 31
0.0
  0
LINE
  5
164
330
1A
100
AcDbEntity
  8
GR1_01
  6
Continuous
 62
     7
370
    13
100
AcDbLine
 10
712.7674634658131
 20
109.0902341723844
 30
0.0
 11
712.8012846102574
 21
108.1812909154449
 31
0.0
  0
LINE
  5
165
330
1A
100
AcDbEntity
  8
GR1_01
  6
Continuous
 62
     7
370
    13
100
AcDbLine
 10
719.5688810311766
 20
101.099395280828
 30
0.0
 11
741.3885354363036
 21
100.0084125605716
 31
0.0
  0
LINE
  5
166
330
1A
100
AcDbEntity
  8
GR1_01
  6
Continuous
 62
     7
370
    13
100
AcDbLine
 10
712.6009120571579
 20
109.4173702440004
 30
0.0
 11
708.3802125001463
 21
109.4173702440004
 31
0.0
  0
LINE
  5
167
330
1A
100
AcDbEntity
  8
GR1_01
  6
Continuous
 62
     7
370
    13
100
AcDbLine
 10
708.3802125001463
 20
109.2507035773337
 30
0.0
 11
712.6009120571581
 21
109.2507035773337
 31
0.0
  0
ARC
  5
168
330
1A
100
AcDbEntity
  8
GR1_01
  6
Continuous
 62
     7
370
    13
100
AcDbCircle
 10
708.3802125001463
 20
109.084036910667
 30
0.0
 40
0.3333333333333333
100
AcDbArc
 50
90.0
 51
180.0
  0
CIRCLE
  5
169
330
1A
100
AcDbEntity
  8
GR1_01
  6
Continuous
 62
     7
370
    13
100
AcDbCircle
 10
711.5685845931697
 20
118.9173702440003
 30
0.0
 40
0.3333333333333333
  0
LINE
  5
16A
330
1A
100
AcDbEntity
  8
GR1_01
  6
Continuous
 62
     7
370
    13
100
AcDbLine
 10
712.2777715809777
 20
122.2507035773337
 30
0.0
 11
712.5258335964818
 21
115.584036910667
 31
0.0
  0
LINE
  5
16B
330
1A
100
AcDbEntity
  8
GR1_01
  6
Continuous
 62
     7
370
    13
100
AcDbLine
 10
712.4383520350302
 20
122.4173702440003
 30
0.0
 11
708.3802125001463
 21
122.4173702440003
 31
0.0
  0
LINE
  5
16C
330
1A
100
AcDbEntity
  8
GR1_01
  6
Continuous
 62
     7
370
    13
100
AcDbLine
 10
708.046879166813
 20
122.084036910667
 30
0.0
 11
708.046879166813
 21
115.7507035773337
 31
0.0
  0
LINE
  5
16D
330
1A
100
AcDbEntity
  8
GR1_01
  6
Continuous
 62
     7
370
    13
100
AcDbLine
 10
708.3802125001463
 20
115.4173702440003
 30
0.0
 11
712.6988171513092
 21
115.4173702440003
 31
0.0
  0
LINE
  5
16E
330
1A
100
AcDbEntity
  8
GR1_01
  6
Continuous
 62
     7
370
    13
100
AcDbLine
 10
712.5258335964818
 20
115.584036910667
 30
0.0
 11
708.546879166813
 21
115.584036910667
 31
0.0
  0
LINE
  5
16F
330
1A
100
AcDbEntity
  8
GR1_01
  6
Continuous
 62
     7
370
    13
100
AcDbLine
 10
708.2135458334797
 20
115.9173702440003
 30
0.0
 11
708.2135458334797
 21
121.9173702440003
 31
0.0
  0
LINE
  5
170
330
1A
100
AcDbEntity
  8
GR1_01
  6
Continuous
 62
     7
370
    13
100
AcDbLine
 10
708.546879166813
 20
122.2507035773337
 30
0.0
 11
712.2777715809777
 21
122.2507035773337
 31
0.0
  0
ARC
  5
171
330
1A
100
AcDbEntity
  8
GR1_01
  6
Continuous
 62
     7
370
    13
100
AcDbCircle
 10
708.3802125001463
 20
122.084036910667
 30
0.0
 40
0.3333333333333333
100
AcDbArc
 50
90.0
 51
180.0
  0
ARC
  5
172
330
1A
100
AcDbEntity
  8
GR1_01
  6
Continuous
 62
     7
370
    13
100
AcDbCircle
 10
708.546879166813
 20
121.9173702440003
 30
0.0
 40
0.3333333333333333
100
AcDbArc
 50
90.0
 51
180.0
  0
ARC
  5
173
330
1A
100
AcDbEntity
  8
GR1_01
  6
Continuous
 62
     7
370
    13
100
AcDbCircle
 10
708.546879166813
 20
115.9173702440003
 30
0.0
 40
0.3333333333333333
100
AcDbArc
 50
180.0
 51
270.0
  0
ARC
  5
174
330
1A
100
AcDbEntity
  8
GR1_01
  6
Continuous
 62
     7
370
    13
100
AcDbCircle
 10
708.3802125001463
 20
115.7507035773337
 30
0.0
 40
0.3333333333333333
100
AcDbArc
 50
180.0
 51
270.0
  0
LINE
  5
175
330
1A
100
AcDbEntity
  8
GR1_01
  6
Continuous
 62
     7
370
    13
100
AcDbLine
 10
712.4383520350302
 20
122.4173702440003
 30
0.0
 11
712.2777715809777
 21
122.2507035773337
 31
0.0
  0
LINE
  5
176
330
1A
100
AcDbEntity
  8
GR1_01
  6
Continuous
 62
     7
370
    13
100
AcDbLine
 10
712.5258335964818
 20
115.584036910667
 30
0.0
 11
712.6988171513092
 21
115.4173702440003
 31
0.0
  0
LINE
  5
177
330
1A
100
AcDbEntity
  8
GR1_01
  6
Continuous
 62
     7
370
    13
100
AcDbLine
 10
799.8802125001463
 20
120.1507035773336
 30
0.0
 11
801.8802125001463
 21
120.1507035773336
 31
0.0
  0
LINE
  5
178
330
1A
100
AcDbEntity
  8
GR1_01
  6
Continuous
 62
     7
370
    13
100
AcDbLine
 10
801.8802125001463
 20
120.1507035773336
 30
0.0
 11
801.8802125001463
 21
119.984036910667
 31
0.0
  0
LINE
  5
179
330
1A
100
AcDbEntity
  8
GR1_01
  6
Continuous
 62
     7
370
    13
100
AcDbLine
 10
802.3135458334797
 20
119.984036910667
 30
0.0
 11
800.046879166813
 21
119.984036910667
 31
0.0
  0
LINE
  5
17A
330
1A
100
AcDbEntity
  8
GR1_01
  6
Continuous
 62
     7
370
    13
100
AcDbLine
 10
800.046879166813
 20
119.984036910667
 30
0.0
 11
800.046879166813
 21
117.8507035773336
 31
0.0
  0
LINE
  5
17B
330
1A
100
AcDbEntity
  8
GR1_01
  6
Continuous
 62
     7
370
    13
100
AcDbLine
 10
800.046879166813
 20
117.8507035773336
 30
0.0
 11
802.3135458334797
 21
117.8507035773336
 31
0.0
  0
LINE
  5
17C
330
1A
100
AcDbEntity
  8
GR1_01
  6
Continuous
 62
     7
370
    13
100
AcDbLine
 10
801.8802125001463
 20
117.8507035773336
 30
0.0
 11
801.8802125001463
 21
117.684036910667
 31
0.0
  0
LINE
  5
17D
330
1A
100
AcDbEntity
  8
GR1_01
  6
Continuous
 62
     7
370
    13
100
AcDbLine
 10
801.8802125001463
 20
117.684036910667
 30
0.0
 11
799.8802125001463
 21
117.684036910667
 31
0.0
  0
ARC
  5
17E
330
1A
100
AcDbEntity
  8
GR1_01
  6
Continuous
 62
     7
370
    13
100
AcDbCircle
 10
802.3135458334797
 20
118.9173702440003
 30
0.0
 40
1.066666666666667
100
AcDbArc
 50
266.3018148248755
 51
94.33330148978311
  0
LINE
  5
17F
330
1A
100
AcDbEntity
  8
GR1_01
  6
Continuous
 62
     7
370
    13
100
AcDbLine
 10
866.546879166813
 20
120.1507035773336
 30
0.0
 11
864.546879166813
 21
120.1507035773336
 31
0.0
  0
LINE
  5
180
330
1A
100
AcDbEntity
  8
GR1_01
  6
Continuous
 62
     7
370
    13
100
AcDbLine
 10
864.546879166813
 20
120.1507035773336
 30
0.0
 11
864.546879166813
 21
119.984036910667
 31
0.0
  0
LINE
  5
181
330
1A
100
AcDbEntity
  8
GR1_01
  6
Continuous
 62
     7
370
    13
100
AcDbLine
 10
864.1135458334796
 20
119.984036910667
 30
0.0
 11
866.3802125001463
 21
119.984036910667
 31
0.0
  0
LINE
  5
182
330
1A
100
AcDbEntity
  8
GR1_01
  6
Continuous
 62
     7
370
    13
100
AcDbLine
 10
866.3802125001463
 20
119.984036910667
 30
0.0
 11
866.3802125001463
 21
117.8507035773336
 31
0.0
  0
LINE
  5
183
330
1A
100
AcDbEntity
  8
GR1_01
  6
Continuous
 62
     7
370
    13
100
AcDbLine
 10
866.3802125001463
 20
117.8507035773336
 30
0.0
 11
864.1135458334796
 21
117.8507035773336
 31
0.0
  0
LINE
  5
184
330
1A
100
AcDbEntity
  8
GR1_01
  6
Continuous
 62
     7
370
    13
100
AcDbLine
 10
864.546879166813
 20
117.8507035773336
 30
0.0
 11
864.546879166813
 21
117.684036910667
 31
0.0
  0
LINE
  5
185
330
1A
100
AcDbEntity
  8
GR1_01
  6
Continuous
 62
     7
370
    13
100
AcDbLine
 10
864.546879166813
 20
117.684036910667
 30
0.0
 11
866.546879166813
 21
117.684036910667
 31
0.0
  0
ARC
  5
186
330
1A
100
AcDbEntity
  8
GR1_01
  6
Continuous
 62
     7
370
    13
100
AcDbCircle
 10
864.1135458334796
 20
118.9173702440003
 30
0.0
 40
1.066666666666667
100
AcDbArc
 50
85.66669851021732
 51
273.6981851751248
  0
CIRCLE
  5
187
330
1A
100
AcDbEntity
  8
GR1_01
  6
Continuous
 62
     4
370
    25
100
AcDbCircle
 10
816.546879166813
 20
124.9173702440003
 30
0.0
 40
1.25
  0
CIRCLE
  5
188
330
1A
100
AcDbEntity
  8
GR1_01
  6
Continuous
 62
     4
370
    25
100
AcDbCircle
 10
849.8802125001463
 20
124.9173702440003
 30
0.0
 40
1.25
  0
TEXT
  5
189
330
1A
100
AcDbEntity
  8
GR1_01
  6
Continuous
 62
     7
370
    13
100
AcDbText
 10
828.6135417620341
 20
204.5840332023221
 30
0.0
 40
3.5
  1
２０００
 41
0.7999999834143597
  7
FX_VECTOR
 72
     5
 11
837.8135415712992
 21
204.5840332039278
 31
0.0
100
AcDbText
  0
LINE
  5
18A
330
1A
100
AcDbEntity
  8
GR1_01
  6
Continuous
 62
     7
370
    13
100
AcDbLine
 10
799.8802125001462
 20
203.584036910667
 30
0.0
 11
866.5468791668128
 21
203.584036910667
 31
0.0
  0
INSERT
  5
18B
330
1A
100
AcDbEntity
  8
GR1_01
  6
Continuous
 62
     7
370
    13
100
AcDbBlockReference
  2
FXTIP_ARROW_S
 10
799.8802125001462
 20
203.584036910667
 30
0.0
 41
2.0
 42
2.0
 50
180.0
  0
INSERT
  5
18C
330
1A
100
AcDbEntity
  8
GR1_01
  6
Continuous
 62
     7
370
    13
100
AcDbBlockReference
  2
FXTIP_ARROW_E
 10
866.5468791668128
 20
203.584036910667
 30
0.0
 41
2.0
 42
2.0
 50
360.0
  0
LINE
  5
18D
330
1A
100
AcDbEntity
  8
GR1_01
  6
Continuous
 62
     7
370
    13
100
AcDbLine
 10
799.8802125001463
 20
188.584036910667
 30
0.0
 11
799.8802125001462
 21
204.584036910667
 31
0.0
  0
LINE
  5
18E
330
1A
100
AcDbEntity
  8
GR1_01
  6
Continuous
 62
     7
370
    13
100
AcDbLine
 10
866.546879166813
 20
188.5840369106672
 30
0.0
 11
866.5468791668128
 21
204.584036910667
 31
0.0
  0
TEXT
  5
18F
330
1A
100
AcDbEntity
  8
GR1_01
  6
Continuous
 62
     7
370
    13
100
AcDbText
 10
804.7635417381922
 20
197.5840332025228
 30
0.0
 40
3.5
  1
５００
 41
0.8117646890528062
  7
FX_VECTOR
 72
     5
 11
811.663541595141
 21
197.5840332037271
 31
0.0
100
AcDbText
  0
LINE
  5
190
330
1A
100
AcDbEntity
  8
GR1_01
  6
Continuous
 62
     7
370
    13
100
AcDbLine
 10
799.8802125001462
 20
196.584036910667
 30
0.0
 11
816.5468791668129
 21
196.584036910667
 31
0.0
  0
INSERT
  5
191
330
1A
100
AcDbEntity
  8
GR1_01
  6
Continuous
 62
     7
370
    13
100
AcDbBlockReference
  2
FXTIP_ARROW_S
 10
799.8802125001462
 20
196.584036910667
 30
0.0
 41
2.0
 42
2.0
 50
180.0
  0
INSERT
  5
192
330
1A
100
AcDbEntity
  8
GR1_01
  6
Continuous
 62
     7
370
    13
100
AcDbBlockReference
  2
FXTIP_ARROW_E
 10
816.5468791668129
 20
196.584036910667
 30
0.0
 41
2.0
 42
2.0
 50
360.0
  0
LINE
  5
193
330
1A
100
AcDbEntity
  8
GR1_01
  6
Continuous
 62
     7
370
    13
100
AcDbLine
 10
816.5468791668129
 20
188.584036910667
 30
0.0
 11
816.5468791668129
 21
197.584036910667
 31
0.0
  0
TEXT
  5
194
330
1A
100
AcDbEntity
  8
GR1_01
  6
Continuous
 62
     7
370
    13
100
AcDbText
 10
828.6135417620341
 20
197.5840332023221
 30
0.0
 40
3.5
  1
１０００
 41
0.7999999834143597
  7
FX_VECTOR
 72
     5
 11
837.8135415712992
 21
197.5840332039278
 31
0.0
100
AcDbText
  0
LINE
  5
195
330
1A
100
AcDbEntity
  8
GR1_01
  6
Continuous
 62
     7
370
    13
100
AcDbLine
 10
816.5468791668129
 20
196.584036910667
 30
0.0
 11
849.8802125001462
 21
196.584036910667
 31
0.0
  0
INSERT
  5
196
330
1A
100
AcDbEntity
  8
GR1_01
  6
Continuous
 62
     7
370
    13
100
AcDbBlockReference
  2
FXTIP_ARROW_S
 10
816.5468791668129
 20
196.584036910667
 30
0.0
 41
2.0
 42
2.0
 50
180.0
  0
INSERT
  5
197
330
1A
100
AcDbEntity
  8
GR1_01
  6
Continuous
 62
     7
370
    13
100
AcDbBlockReference
  2
FXTIP_ARROW_E
 10
849.8802125001462
 20
196.584036910667
 30
0.0
 41
2.0
 42
2.0
 50
360.0
  0
LINE
  5
198
330
1A
100
AcDbEntity
  8
GR1_01
  6
Continuous
 62
     7
370
    13
100
AcDbLine
 10
849.8802125001462
 20
188.5840369106671
 30
0.0
 11
849.8802125001462
 21
197.584036910667
 31
0.0
  0
TEXT
  5
199
330
1A
100
AcDbEntity
  8
GR1_01
  6
Continuous
 62
     7
370
    13
100
AcDbText
 10
854.7635417381922
 20
197.5840332025228
 30
0.0
 40
3.5
  1
５００
 41
0.8117646890528062
  7
FX_VECTOR
 72
     5
 11
861.663541595141
 21
197.5840332037271
 31
0.0
100
AcDbText
  0
LINE
  5
19A
330
1A
100
AcDbEntity
  8
GR1_01
  6
Continuous
 62
     7
370
    13
100
AcDbLine
 10
849.8802125001462
 20
196.584036910667
 30
0.0
 11
866.5468791668128
 21
196.584036910667
 31
0.0
  0
INSERT
  5
19B
330
1A
100
AcDbEntity
  8
GR1_01
  6
Continuous
 62
     7
370
    13
100
AcDbBlockReference
  2
FXTIP_ARROW_S
 10
849.8802125001462
 20
196.584036910667
 30
0.0
 41
2.0
 42
2.0
 50
180.0
  0
INSERT
  5
19C
330
1A
100
AcDbEntity
  8
GR1_01
  6
Continuous
 62
     7
370
    13
100
AcDbBlockReference
  2
FXTIP_ARROW_E
 10
866.5468791668128
 20
196.584036910667
 30
0.0
 41
2.0
 42
2.0
 50
360.0
  0
TEXT
  5
19D
330
1A
100
AcDbEntity
  8
GR1_01
  6
Continuous
 62
     7
370
    13
100
AcDbText
 10
855.046875
 20
142.6506999651591
 30
0.0
 40
3.5
  1
１７００
 50
90.0
 41
0.7999999834143597
  7
FX_VECTOR
 72
     5
 11
855.046875
 21
151.8506997744242
 31
0.0
100
AcDbText
  0
LINE
  5
19E
330
1A
100
AcDbEntity
  8
GR1_01
  6
Continuous
 62
     7
370
    13
100
AcDbLine
 10
856.0468791668128
 20
118.9173702440003
 30
0.0
 11
856.0468791668128
 21
175.584036910667
 31
0.0
  0
INSERT
  5
19F
330
1A
100
AcDbEntity
  8
GR1_01
  6
Continuous
 62
     7
370
    13
100
AcDbBlockReference
  2
FXTIP_ARROW_S
 10
856.0468791668128
 20
118.9173702440003
 30
0.0
 41
2.0
 42
2.0
 50
270.0
  0
INSERT
  5
1A0
330
1A
100
AcDbEntity
  8
GR1_01
  6
Continuous
 62
     7
370
    13
100
AcDbBlockReference
  2
FXTIP_ARROW_E
 10
856.0468791668128
 20
175.584036910667
 30
0.0
 41
2.0
 42
2.0
 50
90.0
  0
LINE
  5
1A1
330
1A
100
AcDbEntity
  8
GR1_01
  6
Continuous
 62
     7
370
    13
100
AcDbLine
 10
861.046879166813
 20
118.9173702440003
 30
0.0
 11
855.0468791668128
 21
118.9173702440003
 31
0.0
  0
LINE
  5
1A2
330
1A
100
AcDbEntity
  8
GR1_01
  6
Continuous
 62
     7
370
    13
100
AcDbLine
 10
861.046879166813
 20
175.584036910667
 30
0.0
 11
855.0468791668128
 21
175.584036910667
 31
0.0
  0
TEXT
  5
1A3
330
1A
100
AcDbEntity
  8
GR1_01
  6
Continuous
 62
     7
370
    13
100
AcDbText
 10
855.046875
 20
177.6340332746506
 30
0.0
 40
3.5
  1
３３０
 50
90.0
 41
0.8117646890528062
  7
FX_VECTOR
 72
     5
 11
855.046875
 21
184.5340331315994
 31
0.0
100
AcDbText
  0
LINE
  5
1A4
330
1A
100
AcDbEntity
  8
GR1_01
  6
Continuous
 62
     7
370
    13
100
AcDbLine
 10
856.0468791668128
 20
175.584036910667
 30
0.0
 11
856.0468791668128
 21
186.584036910667
 31
0.0
  0
INSERT
  5
1A5
330
1A
100
AcDbEntity
  8
GR1_01
  6
Continuous
 62
     7
370
    13
100
AcDbBlockReference
  2
FXTIP_ARROW_S
 10
856.0468791668128
 20
175.584036910667
 30
0.0
 41
2.0
 42
2.0
 50
270.0
  0
INSERT
  5
1A6
330
1A
100
AcDbEntity
  8
GR1_01
  6
Continuous
 62
     7
370
    13
100
AcDbBlockReference
  2
FXTIP_ARROW_E
 10
856.0468791668128
 20
186.584036910667
 30
0.0
 41
2.0
 42
2.0
 50
90.0
  0
LINE
  5
1A7
330
1A
100
AcDbEntity
  8
GR1_01
  6
Continuous
 62
     7
370
    13
100
AcDbLine
 10
817.4439627230136
 20
124.0468869913214
 30
0.0
 11
824.2233846763668
 21
115.2436927925185
 31
0.0
  0
INSERT
  5
1A8
330
1A
100
AcDbEntity
  8
GR1_01
  6
Continuous
 62
     7
370
    13
100
AcDbBlockReference
  2
FXTIP_ARROW_S
 10
817.4439627230136
 20
124.0468869913214
 30
0.0
 41
2.0
 42
2.0
 50
127.6002033476719
  0
LINE
  5
1A9
330
1A
100
AcDbEntity
  8
GR1_01
  6
Continuous
 62
     7
370
    13
100
AcDbLine
 10
824.2233846763668
 20
115.2436927925185
 30
0.0
 11
839.2233846763662
 21
115.2436927925185
 31
0.0
  0
TEXT
  5
1AA
330
1A
100
AcDbEntity
  8
GR1_01
  6
Continuous
 62
     7
370
    13
100
AcDbText
 10
825.3344183365504
 20
116.354833984375
 30
0.0
 40
3.888888804117839
  1
２－φ７５
 41
0.793103473785476
  7
FX_VECTOR
 72
     5
 11
838.1121962467829
 21
116.354833984375
 31
0.0
100
AcDbText
  0
TEXT
  5
1AB
330
1A
100
AcDbEntity
  8
GR1_01
  6
Continuous
 62
     7
370
    13
100
AcDbText
 10
806.8802083333334
 20
106.4673747460047
 30
0.0
 40
3.5
  1
９００
 50
90.0
 41
0.8117646890528062
  7
FX_VECTOR
 72
     5
 11
806.8802083333334
 21
113.3673746029536
 31
0.0
100
AcDbText
  0
LINE
  5
1AC
330
1A
100
AcDbEntity
  8
GR1_01
  6
Continuous
 62
     7
370
    13
100
AcDbLine
 10
807.8802125001462
 20
94.91737024400035
 30
0.0
 11
807.8802125001462
 21
124.9173702440003
 31
0.0
  0
INSERT
  5
1AD
330
1A
100
AcDbEntity
  8
GR1_01
  6
Continuous
 62
     7
370
    13
100
AcDbBlockReference
  2
FXTIP_ARROW_S
 10
807.8802125001462
 20
94.91737024400035
 30
0.0
 41
2.0
 42
2.0
 50
270.0
  0
INSERT
  5
1AE
330
1A
100
AcDbEntity
  8
GR1_01
  6
Continuous
 62
     7
370
    13
100
AcDbBlockReference
  2
FXTIP_ARROW_E
 10
807.8802125001462
 20
124.9173702440003
 30
0.0
 41
2.0
 42
2.0
 50
90.0
  0
LINE
  5
1AF
330
1A
100
AcDbEntity
  8
GR1_01
  6
Continuous
 62
     7
370
    13
100
AcDbLine
 10
812.8802125001463
 20
124.9173702440003
 30
0.0
 11
806.8802125001462
 21
124.9173702440003
 31
0.0
  0
TEXT
  5
1B0
330
1A
100
AcDbEntity
  8
GR1_01
  6
Continuous
 62
     7
370
    13
100
AcDbText
 10
775.546875
 20
99.91737474600474
 30
0.0
 40
3.5
  1
１２０
 50
90.0
 41
0.8117646890528062
  7
FX_VECTOR
 72
     5
 11
775.546875
 21
106.8173746029536
 31
0.0
100
AcDbText
  0
LINE
  5
1B1
330
1A
100
AcDbEntity
  8
GR1_01
  6
Continuous
 62
     7
370
    13
100
AcDbLine
 10
776.5468791668129
 20
94.91737024400035
 30
0.0
 11
776.5468791668129
 21
98.91737024400037
 31
0.0
  0
LINE
  5
1B2
330
1A
100
AcDbEntity
  8
GR1_01
  6
Continuous
 62
     7
370
    13
100
AcDbLine
 10
768.546879166813
 20
94.91737024400035
 30
0.0
 11
777.5468791668129
 21
94.91737024400035
 31
0.0
  0
LINE
  5
1B3
330
1A
100
AcDbEntity
  8
GR1_01
  6
Continuous
 62
     7
370
    13
100
AcDbLine
 10
768.546879166813
 20
98.91737024400037
 30
0.0
 11
777.5468791668129
 21
98.91737024400037
 31
0.0
  0
LINE
  5
1B4
330
1A
100
AcDbEntity
  8
GR1_01
  6
Continuous
 62
     7
370
    13
100
AcDbLine
 10
776.5468791668129
 20
88.91737024400035
 30
0.0
 11
776.5468791668129
 21
94.91737024400035
 31
0.0
  0
INSERT
  5
1B5
330
1A
100
AcDbEntity
  8
GR1_01
  6
Continuous
 62
     7
370
    13
100
AcDbBlockReference
  2
FXTIP_ARROW_E
 10
776.5468791668129
 20
94.91737024400035
 30
0.0
 41
2.0
 42
2.0
 50
90.0
  0
LINE
  5
1B6
330
1A
100
AcDbEntity
  8
GR1_01
  6
Continuous
 62
     7
370
    13
100
AcDbLine
 10
776.5468791668129
 20
98.91737024400037
 30
0.0
 11
776.5468791668129
 21
107.8173702440004
 31
0.0
  0
INSERT
  5
1B7
330
1A
100
AcDbEntity
  8
GR1_01
  6
Continuous
 62
     7
370
    13
100
AcDbBlockReference
  2
FXTIP_ARROW_S
 10
776.5468791668129
 20
98.91737024400037
 30
0.0
 41
2.0
 42
2.0
 50
270.0
  0
TEXT
  5
1B8
330
1A
100
AcDbEntity
  8
GR1_01
  6
Continuous
 62
     7
370
    13
100
AcDbText
 10
714.2135417381922
 20
85.91737467387702
 30
0.0
 40
3.5
  1
２００
 41
0.8117646890528062
  7
FX_VECTOR
 72
     5
 11
721.1135415951411
 21
85.9173746750813
 31
0.0
100
AcDbText
  0
LINE
  5
1B9
330
1A
100
AcDbEntity
  8
GR1_01
  6
Continuous
 62
     7
370
    13
100
AcDbLine
 10
706.5468791668129
 20
84.91737024400035
 30
0.0
 11
713.2135458334798
 21
84.91737024400035
 31
0.0
  0
LINE
  5
1BA
330
1A
100
AcDbEntity
  8
GR1_01
  6
Continuous
 62
     7
370
    13
100
AcDbLine
 10
713.2135458334798
 20
92.91737024400035
 30
0.0
 11
713.2135458334798
 21
83.91737024400035
 31
0.0
  0
LINE
  5
1BB
330
1A
100
AcDbEntity
  8
GR1_01
  6
Continuous
 62
     7
370
    13
100
AcDbLine
 10
700.5468791668129
 20
84.91737024400035
 30
0.0
 11
706.5468791668129
 21
84.91737024400035
 31
0.0
  0
INSERT
  5
1BC
330
1A
100
AcDbEntity
  8
GR1_01
  6
Continuous
 62
     7
370
    13
100
AcDbBlockReference
  2
FXTIP_ARROW_E
 10
706.5468791668129
 20
84.91737024400035
 30
0.0
 41
2.0
 42
2.0
 50
360.0
  0
LINE
  5
1BD
330
1A
100
AcDbEntity
  8
GR1_01
  6
Continuous
 62
     7
370
    13
100
AcDbLine
 10
713.2135458334798
 20
84.91737024400035
 30
0.0
 11
722.1135458334797
 21
84.91737024400035
 31
0.0
  0
INSERT
  5
1BE
330
1A
100
AcDbEntity
  8
GR1_01
  6
Continuous
 62
     7
370
    13
100
AcDbBlockReference
  2
FXTIP_ARROW_S
 10
713.2135458334798
 20
84.91737024400035
 30
0.0
 41
2.0
 42
2.0
 50
180.0
  0
TEXT
  5
1BF
330
1A
100
AcDbEntity
  8
GR1_01
  6
Continuous
 62
     7
370
    13
100
AcDbText
 10
731.9468750953674
 20
78.9173746736763
 30
0.0
 40
3.5
  1
１８００
 41
0.7999999834143597
  7
FX_VECTOR
 72
     5
 11
741.1468749046326
 21
78.91737467528202
 31
0.0
100
AcDbText
  0
LINE
  5
1C0
330
1A
100
AcDbEntity
  8
GR1_01
  6
Continuous
 62
     7
370
    13
100
AcDbLine
 10
706.5468791668129
 20
77.91737024400035
 30
0.0
 11
766.5468791668129
 21
77.91737024400035
 31
0.0
  0
INSERT
  5
1C1
330
1A
100
AcDbEntity
  8
GR1_01
  6
Continuous
 62
     7
370
    13
100
AcDbBlockReference
  2
FXTIP_ARROW_S
 10
706.5468791668129
 20
77.91737024400035
 30
0.0
 41
2.0
 42
2.0
 50
180.0
  0
INSERT
  5
1C2
330
1A
100
AcDbEntity
  8
GR1_01
  6
Continuous
 62
     7
370
    13
100
AcDbBlockReference
  2
FXTIP_ARROW_E
 10
766.5468791668129
 20
77.91737024400035
 30
0.0
 41
2.0
 42
2.0
 50
360.0
  0
LINE
  5
1C3
330
1A
100
AcDbEntity
  8
GR1_01
  6
Continuous
 62
     7
370
    13
100
AcDbLine
 10
706.546879166813
 20
92.91737024400041
 30
0.0
 11
706.5468791668129
 21
76.91737024400035
 31
0.0
  0
LINE
  5
1C4
330
1A
100
AcDbEntity
  8
GR1_01
  6
Continuous
 62
     7
370
    13
100
AcDbLine
 10
766.546879166813
 20
92.91737024400035
 30
0.0
 11
766.5468791668129
 21
76.91737024400035
 31
0.0
  0
TEXT
  5
1C5
330
1A
100
AcDbEntity
  8
GR1_01
  6
Continuous
 62
     7
370
    13
100
AcDbText
 10
748.930208404859
 20
111.3340413405437
 30
0.0
 40
3.5
  1
８５０
 41
0.8117646890528062
  7
FX_VECTOR
 72
     5
 11
755.8302082618078
 21
111.334041341748
 31
0.0
100
AcDbText
  0
LINE
  5
1C6
330
1A
100
AcDbEntity
  8
GR1_01
  6
Continuous
 62
     7
370
    13
100
AcDbLine
 10
738.2135458334795
 20
110.334036910667
 30
0.0
 11
766.5468791668129
 21
110.334036910667
 31
0.0
  0
INSERT
  5
1C7
330
1A
100
AcDbEntity
  8
GR1_01
  6
Continuous
 62
     7
370
    13
100
AcDbBlockReference
  2
FXTIP_ARROW_S
 10
738.2135458334795
 20
110.334036910667
 30
0.0
 41
2.0
 42
2.0
 50
180.0
  0
INSERT
  5
1C8
330
1A
100
AcDbEntity
  8
GR1_01
  6
Continuous
 62
     7
370
    13
100
AcDbBlockReference
  2
FXTIP_ARROW_E
 10
766.5468791668129
 20
110.334036910667
 30
0.0
 41
2.0
 42
2.0
 50
360.0
  0
LINE
  5
1C9
330
1A
100
AcDbEntity
  8
GR1_01
  6
Continuous
 62
     7
370
    13
100
AcDbLine
 10
738.2135458334797
 20
102.334036910667
 30
0.0
 11
738.2135458334795
 21
111.334036910667
 31
0.0
  0
LINE
  5
1CA
330
1A
100
AcDbEntity
  8
GR1_01
  6
Continuous
 62
     7
370
    13
100
AcDbLine
 10
766.546879166813
 20
102.3340369106674
 30
0.0
 11
766.5468791668129
 21
111.334036910667
 31
0.0
  0
TEXT
  5
1CB
330
1A
100
AcDbEntity
  8
GR1_01
  6
Continuous
 62
     7
370
    13
100
AcDbText
 10
695.546875
 20
102.5840414126714
 30
0.0
 40
3.5
  1
２００
 50
90.0
 41
0.8117646890528062
  7
FX_VECTOR
 72
     5
 11
695.546875
 21
109.4840412696203
 31
0.0
100
AcDbText
  0
LINE
  5
1CC
330
1A
100
AcDbEntity
  8
GR1_01
  6
Continuous
 62
     7
370
    13
100
AcDbLine
 10
696.5468791668129
 20
94.91737024400035
 30
0.0
 11
696.5468791668129
 21
101.584036910667
 31
0.0
  0
LINE
  5
1CD
330
1A
100
AcDbEntity
  8
GR1_01
  6
Continuous
 62
     7
370
    13
100
AcDbLine
 10
704.5468791668131
 20
101.5840369106671
 30
0.0
 11
695.5468791668129
 21
101.584036910667
 31
0.0
  0
LINE
  5
1CE
330
1A
100
AcDbEntity
  8
GR1_01
  6
Continuous
 62
     7
370
    13
100
AcDbLine
 10
696.5468791668129
 20
88.91737024400035
 30
0.0
 11
696.5468791668129
 21
94.91737024400035
 31
0.0
  0
INSERT
  5
1CF
330
1A
100
AcDbEntity
  8
GR1_01
  6
Continuous
 62
     7
370
    13
100
AcDbBlockReference
  2
FXTIP_ARROW_E
 10
696.5468791668129
 20
94.91737024400035
 30
0.0
 41
2.0
 42
2.0
 50
90.0
  0
LINE
  5
1D0
330
1A
100
AcDbEntity
  8
GR1_01
  6
Continuous
 62
     7
370
    13
100
AcDbLine
 10
696.5468791668129
 20
101.584036910667
 30
0.0
 11
696.5468791668129
 21
110.484036910667
 31
0.0
  0
INSERT
  5
1D1
330
1A
100
AcDbEntity
  8
GR1_01
  6
Continuous
 62
     7
370
    13
100
AcDbBlockReference
  2
FXTIP_ARROW_S
 10
696.5468791668129
 20
101.584036910667
 30
0.0
 41
2.0
 42
2.0
 50
270.0
  0
TEXT
  5
1D2
330
1A
100
AcDbEntity
  8
GR1_01
  6
Continuous
 62
     7
370
    13
100
AcDbText
 10
688.546875
 20
136.1506999651591
 30
0.0
 40
3.5
  1
２７５０
 50
90.0
 41
0.7999999834143597
  7
FX_VECTOR
 72
     5
 11
688.546875
 21
145.3506997744242
 31
0.0
100
AcDbText
  0
LINE
  5
1D3
330
1A
100
AcDbEntity
  8
GR1_01
  6
Continuous
 62
     7
370
    13
100
AcDbLine
 10
689.5468791668129
 20
94.91737024400035
 30
0.0
 11
689.5468791668129
 21
186.584036910667
 31
0.0
  0
INSERT
  5
1D4
330
1A
100
AcDbEntity
  8
GR1_01
  6
Continuous
 62
     7
370
    13
100
AcDbBlockReference
  2
FXTIP_ARROW_S
 10
689.5468791668129
 20
94.91737024400035
 30
0.0
 41
2.0
 42
2.0
 50
270.0
  0
INSERT
  5
1D5
330
1A
100
AcDbEntity
  8
GR1_01
  6
Continuous
 62
     7
370
    13
100
AcDbBlockReference
  2
FXTIP_ARROW_E
 10
689.5468791668129
 20
186.584036910667
 30
0.0
 41
2.0
 42
2.0
 50
90.0
  0
LINE
  5
1D6
330
1A
100
AcDbEntity
  8
GR1_01
  6
Continuous
 62
     7
370
    13
100
AcDbLine
 10
704.5468791668131
 20
94.91737024400035
 30
0.0
 11
688.5468791668129
 21
94.91737024400035
 31
0.0
  0
LINE
  5
1D7
330
1A
100
AcDbEntity
  8
GR1_01
  6
Continuous
 62
     7
370
    13
100
AcDbLine
 10
704.546879166813
 20
186.584036910667
 30
0.0
 11
688.5468791668129
 21
186.584036910667
 31
0.0
  0
TEXT
  5
1D8
330
1A
100
AcDbEntity
  8
GR1_01
  6
Continuous
 62
     7
370
    13
100
AcDbText
 10
719.546875
 20
176.4673666079839
 30
0.0
 40
3.5
  1
４００
 50
90.0
 41
0.8117646890528062
  7
FX_VECTOR
 72
     5
 11
719.546875
 21
183.3673664649328
 31
0.0
100
AcDbText
  0
LINE
  5
1D9
330
1A
100
AcDbEntity
  8
GR1_01
  6
Continuous
 62
     7
370
    13
100
AcDbLine
 10
720.5468791668129
 20
173.2507035773336
 30
0.0
 11
720.5468791668129
 21
186.584036910667
 31
0.0
  0
INSERT
  5
1DA
330
1A
100
AcDbEntity
  8
GR1_01
  6
Continuous
 62
     7
370
    13
100
AcDbBlockReference
  2
FXTIP_ARROW_S
 10
720.5468791668129
 20
173.2507035773336
 30
0.0
 41
2.0
 42
2.0
 50
270.0
  0
INSERT
  5
1DB
330
1A
100
AcDbEntity
  8
GR1_01
  6
Continuous
 62
     7
370
    13
100
AcDbBlockReference
  2
FXTIP_ARROW_E
 10
720.5468791668129
 20
186.584036910667
 30
0.0
 41
2.0
 42
2.0
 50
90.0
  0
LINE
  5
1DC
330
1A
100
AcDbEntity
  8
GR1_01
  6
Continuous
 62
     7
370
    13
100
AcDbLine
 10
712.546879166813
 20
173.2507035773336
 30
0.0
 11
721.5468791668129
 21
173.2507035773336
 31
0.0
  0
LINE
  5
1DD
330
1A
100
AcDbEntity
  8
GR1_01
  6
Continuous
 62
     7
370
    13
100
AcDbLine
 10
712.546879166813
 20
186.584036910667
 30
0.0
 11
721.5468791668129
 21
186.584036910667
 31
0.0
  0
LINE
  5
1DE
330
1A
100
AcDbEntity
  8
GR1_01
  6
Continuous
 62
     7
370
    13
100
AcDbLine
 10
716.4134014357628
 20
104.6426585333872
 30
0.0
 11
721.0524406672675
 21
109.2816977648919
 31
0.0
  0
INSERT
  5
1DF
330
1A
100
AcDbEntity
  8
GR1_01
  6
Continuous
 62
     7
370
    13
100
AcDbBlockReference
  2
FXTIP_ARROW_S
 10
716.4134014357628
 20
104.6426585333872
 30
0.0
 41
2.0
 42
2.0
 50
225.0
  0
LINE
  5
1E0
330
1A
100
AcDbEntity
  8
GR1_01
  6
Continuous
 62
     7
370
    13
100
AcDbLine
 10
721.0524406672675
 20
109.2816977648919
 30
0.0
 11
732.2524406672676
 21
109.2816977648919
 31
0.0
  0
TEXT
  5
1E1
330
1A
100
AcDbEntity
  8
GR1_01
  6
Continuous
 62
     7
370
    13
100
AcDbText
 10
722.0524089495341
 20
110.2817057291667
 30
0.0
 40
3.5
  1
２００Ｃ
 41
0.7999999834143597
  7
FX_VECTOR
 72
     5
 11
731.2524087587992
 21
110.2817057291667
 31
0.0
100
AcDbText
  0
TEXT
  5
1E2
330
1A
100
AcDbEntity
  8
GR1_01
  6
Continuous
 62
     7
370
    13
100
AcDbText
 10
711.5468750715256
 20
197.5840332025228
 30
0.0
 40
3.5
  1
１２０
 41
0.8117646890528062
  7
FX_VECTOR
 72
     5
 11
718.4468749284745
 21
197.5840332037271
 31
0.0
100
AcDbText
  0
LINE
  5
1E3
330
1A
100
AcDbEntity
  8
GR1_01
  6
Continuous
 62
     7
370
    13
100
AcDbLine
 10
706.5468791668129
 20
196.584036910667
 30
0.0
 11
710.5468791668129
 21
196.584036910667
 31
0.0
  0
LINE
  5
1E4
330
1A
100
AcDbEntity
  8
GR1_01
  6
Continuous
 62
     7
370
    13
100
AcDbLine
 10
706.546879166813
 20
188.5840369106669
 30
0.0
 11
706.5468791668129
 21
197.584036910667
 31
0.0
  0
LINE
  5
1E5
330
1A
100
AcDbEntity
  8
GR1_01
  6
Continuous
 62
     7
370
    13
100
AcDbLine
 10
710.5468791668129
 20
188.584036910667
 30
0.0
 11
710.5468791668129
 21
197.584036910667
 31
0.0
  0
LINE
  5
1E6
330
1A
100
AcDbEntity
  8
GR1_01
  6
Continuous
 62
     7
370
    13
100
AcDbLine
 10
700.5468791668129
 20
196.584036910667
 30
0.0
 11
706.5468791668129
 21
196.584036910667
 31
0.0
  0
INSERT
  5
1E7
330
1A
100
AcDbEntity
  8
GR1_01
  6
Continuous
 62
     7
370
    13
100
AcDbBlockReference
  2
FXTIP_ARROW_E
 10
706.5468791668129
 20
196.584036910667
 30
0.0
 41
2.0
 42
2.0
 50
360.0
  0
LINE
  5
1E8
330
1A
100
AcDbEntity
  8
GR1_01
  6
Continuous
 62
     7
370
    13
100
AcDbLine
 10
710.5468791668129
 20
196.584036910667
 30
0.0
 11
719.4468791668129
 21
196.584036910667
 31
0.0
  0
INSERT
  5
1E9
330
1A
100
AcDbEntity
  8
GR1_01
  6
Continuous
 62
     7
370
    13
100
AcDbBlockReference
  2
FXTIP_ARROW_S
 10
710.5468791668129
 20
196.584036910667
 30
0.0
 41
2.0
 42
2.0
 50
180.0
  0
LINE
  5
1EA
330
1A
100
AcDbEntity
  8
GR1_01
  6
Continuous
 62
     7
370
    13
100
AcDbLine
 10
706.639374191757
 20
186.5098652689444
 30
0.0
 11
698.3931011642188
 21
194.0760144595876
 31
0.0
  0
INSERT
  5
1EB
330
1A
100
AcDbEntity
  8
GR1_01
  6
Continuous
 62
     7
370
    13
100
AcDbBlockReference
  2
FXTIP_ARROW_S
 10
706.639374191757
 20
186.5098652689444
 30
0.0
 41
2.0
 42
2.0
 50
317.4628877653289
  0
LINE
  5
1EC
330
1A
100
AcDbEntity
  8
GR1_01
  6
Continuous
 62
     7
370
    13
100
AcDbLine
 10
698.3931011642188
 20
194.0760144595876
 30
0.0
 11
689.4931011642188
 21
194.0760144595876
 31
0.0
  0
TEXT
  5
1ED
330
1A
100
AcDbEntity
  8
GR1_01
  6
Continuous
 62
     7
370
    13
100
AcDbText
 10
690.4930990298589
 20
195.0760091145833
 30
0.0
 40
3.5
  1
面取り
 41
0.8117646890528062
  7
FX_VECTOR
 72
     5
 11
697.3930988868077
 21
195.0760091145833
 31
0.0
100
AcDbText
  0
LINE
  5
1EE
330
1A
100
AcDbEntity
  8
GR1_01
  6
Continuous
 62
     4
370
    25
100
AcDbLine
 10
712.9654838179757
 20
108.2507035773337
 30
0.0
 11
719.6435092778926
 21
101.2625387384464
 31
0.0
  0
ARC
  5
1EF
330
1A
100
AcDbEntity
  8
GR1_01
  6
Continuous
 62
     7
370
    13
100
AcDbCircle
 10
741.3802125001463
 20
99.84195383742532
 30
0.0
 40
0.3333333333333333
100
AcDbArc
 50
0.0
 51
87.13759477389007
  0
ARC
  5
1F0
330
1A
100
AcDbEntity
  8
GR1_01
  6
Continuous
 62
     7
370
    13
100
AcDbCircle
 10
741.3802125001463
 20
99.8419538374253
 30
0.0
 40
0.1666666666666667
100
AcDbArc
 50
0.0
 51
87.13759477386927
  0
ARC
  5
1F1
330
1A
100
AcDbEntity
  8
GR1_01
  6
Continuous
 62
     7
370
    13
100
AcDbCircle
 10
712.6009120571581
 20
109.084036910667
 30
0.0
 40
0.1666666666666667
100
AcDbArc
 50
2.130952887105528
 51
90.0
  0
ARC
  5
1F2
330
1A
100
AcDbEntity
  8
GR1_01
  6
Continuous
 62
     7
370
    13
100
AcDbCircle
 10
712.6009120571579
 20
109.084036910667
 30
0.0
 40
0.3333333333333333
100
AcDbArc
 50
2.130952887107357
 51
90.0
  0
ARC
  5
1F3
330
1A
100
AcDbEntity
  8
GR1_01
  6
Continuous
 62
     7
370
    13
100
AcDbCircle
 10
708.3802125001463
 20
109.084036910667
 30
0.0
 40
0.1666666666666667
100
AcDbArc
 50
90.0
 51
180.0
  0
ARC
  5
1F4
330
1A
100
AcDbEntity
  8
GR1_01
  6
Continuous
 62
     7
370
    13
100
AcDbCircle
 10
707.8802125001464
 20
106.9173702440004
 30
0.0
 40
0.1666666666666667
100
AcDbArc
 50
270.0
 51
0.0000000000052416
  0
ARC
  5
1F5
330
1A
100
AcDbEntity
  8
GR1_01
  6
Continuous
 62
     7
370
    13
100
AcDbCircle
 10
710.2135458334797
 20
173.4173702440003
 30
0.0
 40
0.1666666666666667
100
AcDbArc
 50
270.0
 51
0.0
  0
LINE
  5
1F6
330
1A
100
AcDbEntity
  8
GR1_01
  6
Continuous
 62
     7
370
    13
100
AcDbLine
 10
712.8012846102574
 20
108.181290915445
 30
0.0
 11
719.5688810311765
 21
101.099395280828
 31
0.0
  0
LINE
  5
1F7
330
1A
100
AcDbEntity
  8
GR1_01
  6
Continuous
 62
     7
370
    13
100
AcDbLine
 10
712.9654838179756
 20
108.2507035773337
 30
0.0
 11
712.8012846102574
 21
108.1812909154451
 31
0.0
  0
LINE
  5
1F8
330
1A
100
AcDbEntity
  8
GR1_01
  6
Continuous
 62
     7
370
    13
100
AcDbLine
 10
719.6435092778925
 20
101.2625387384464
 30
0.0
 11
719.5688810311764
 21
101.099395280828
 31
0.0
  0
LINE
  5
1F9
330
1A
100
AcDbEntity
  8
GR1_01
  6
Continuous
 62
     7
370
    13
100
AcDbLine
 10
710.6158591621768
 20
117.609669770058
 30
0.0
 11
712.6144760660375
 21
117.6840369106669
 31
0.0
  0
LINE
  5
1FA
330
1A
100
AcDbEntity
  8
GR1_01
  6
Continuous
 62
     7
370
    13
100
AcDbLine
 10
710.5240762164401
 20
120.0763364367248
 30
0.0
 11
712.5226931203009
 21
120.1507035773336
 31
0.0
  0
LINE
  5
1FB
330
1A
100
AcDbEntity
  8
GR1_01
  6
Continuous
 62
     7
370
    13
100
AcDbLine
 10
710.5240762164401
 20
120.0763364367248
 30
0.0
 11
710.6158591621768
 21
117.609669770058
 31
0.0
  0
LINE
  5
1FC
330
1A
100
AcDbEntity
  8
GR1_01
  6
Continuous
 62
     7
370
    13
100
AcDbLine
 10
710.5302734781576
 20
119.9097850280697
 30
0.0
 11
712.3623389733639
 21
119.9779549069612
 31
0.0
  0
LINE
  5
1FD
330
1A
100
AcDbEntity
  8
GR1_01
  6
Continuous
 62
     7
370
    13
100
AcDbLine
 10
710.6096619004593
 20
117.7762211787131
 30
0.0
 11
712.4417273956656
 21
117.8443910576046
 31
0.0
  0
LINE
  5
1FE
330
1A
100
AcDbEntity
  8
GR1_01
  6
Continuous
 62
     4
370
    25
100
AcDbLine
 10
866.5468791668127
 20
115.584036910667
 30
0.0
 11
866.5468791668127
 21
122.2507035773338
 31
0.0
  0
LINE
  5
1FF
330
1A
100
AcDbEntity
  8
GR1_01
  6
Continuous
 62
     4
370
    25
100
AcDbLine
 10
866.5468791668128
 20
122.2507035773338
 30
0.0
 11
866.3802125001462
 21
122.4173702440003
 31
0.0
  0
LINE
  5
200
330
1A
100
AcDbEntity
  8
GR1_01
  6
Continuous
 62
     4
370
    25
100
AcDbLine
 10
866.5468791668127
 20
115.584036910667
 30
0.0
 11
866.3802125001462
 21
115.4173702440003
 31
0.0
  0
LINE
  5
201
330
1A
100
AcDbEntity
  8
GR1_01
  6
Continuous
 62
     7
370
    13
100
AcDbLine
 10
866.3802125001463
 20
120.1507035773336
 30
0.0
 11
866.3802125001462
 21
117.6840369106669
 31
0.0
  0
LINE
  5
202
330
1A
100
AcDbEntity
  8
GR1_01
  6
Continuous
 62
     4
370
    25
100
AcDbLine
 10
866.3802125001463
 20
115.4173702440004
 30
0.0
 11
866.3802125001463
 21
109.4173702440003
 31
0.0
  0
ENDSEC
  0
SECTION
  2
OBJECTS
  0
DICTIONARY
  5
C
330
0
100
AcDbDictionary
281
     1
  3
ACAD_GROUP
350
D
  3
ACAD_LAYOUT
350
51
  3
ACAD_MATERIAL
350
76
  3
ACAD_MLEADERSTYLE
350
206
  3
ACAD_MLINESTYLE
350
E
  3
ACAD_SCALELIST
350
54
  3
ACAD_VISUALSTYLE
350
7A
  3
AcDbVariableDictionary
350
204
  0
DICTIONARY
  5
D
102
{ACAD_REACTORS
330
C
102
}
330
C
100
AcDbDictionary
281
     1
  0
DICTIONARY
  5
51
102
{ACAD_REACTORS
330
C
102
}
330
C
100
AcDbDictionary
281
     1
  3
Layout1
350
53
  3
Model
350
52
  0
DICTIONARY
  5
76
102
{ACAD_REACTORS
330
C
102
}
330
C
100
AcDbDictionary
281
     1
  3
ByBlock
350
78
  3
ByLayer
350
77
  3
Global
350
79
  0
DICTIONARY
  5
206
102
{ACAD_REACTORS
330
C
102
}
330
C
100
AcDbDictionary
281
     1
  0
DICTIONARY
  5
E
102
{ACAD_REACTORS
330
C
102
}
330
C
100
AcDbDictionary
281
     1
  3
STANDARD
350
13
  0
DICTIONARY
  5
54
102
{ACAD_REACTORS
330
C
102
}
330
C
100
AcDbDictionary
281
     1
  3
A0
350
55
  3
A1
350
56
  3
A2
350
57
  3
A3
350
58
  3
A4
350
59
  3
A5
350
5A
  3
A6
350
5B
  3
A7
350
5C
  3
A8
350
5D
  3
A9
350
5E
  3
B0
350
5F
  3
B1
350
60
  3
B2
350
61
  3
B3
350
62
  3
B4
350
63
  3
B5
350
64
  3
B6
350
65
  3
B7
350
66
  3
B8
350
67
  3
B9
350
68
  3
C0
350
69
  3
C1
350
6A
  3
C2
350
6B
  3
C3
350
6C
  3
C4
350
6D
  3
C5
350
6E
  3
C6
350
6F
  3
C7
350
70
  3
C8
350
71
  3
C9
350
72
  3
D0
350
73
  3
D1
350
74
  3
D2
350
75
  0
DICTIONARY
  5
7A
102
{ACAD_REACTORS
330
C
102
}
330
C
100
AcDbDictionary
281
     1
  3
2dWireframe
350
7F
  3
3D Hidden
350
81
  3
3dWireframe
350
80
  3
Basic
350
82
  3
Brighten
350
86
  3
ColorChange
350
8A
  3
Conceptual
350
84
  3
Dim
350
85
  3
Facepattern
350
89
  3
Flat
350
7B
  3
FlatWithEdges
350
7C
  3
Gouraud
350
7D
  3
GouraudWithEdges
350
7E
  3
Linepattern
350
88
  3
Realistic
350
83
  3
Thicken
350
87
  0
DICTIONARY
  5
204
102
{ACAD_REACTORS
330
C
102
}
330
C
100
AcDbDictionary
281
     1
  3
CANNOSCALE
350
209
  3
DIMASSOC
350
207
  3
HIDETEXT
350
208
  0
LAYOUT
  5
53
102
{ACAD_REACTORS
330
51
102
}
330
51
100
AcDbPlotSettings
  1

  2
none_device
  4

  6

 40
0.0
 41
0.0
 42
0.0
 43
0.0
 44
0.0
 45
0.0
 46
0.0
 47
0.0
 48
0.0
 49
0.0
140
0.0
141
0.0
142
1.0
143
1.0
 70
   688
 72
     0
 73
     0
 74
     5
  7

 75
    16
147
1.0
148
0.0
149
0.0
100
AcDbLayout
  1
Layout1
 70
     1
 71
     1
 10
0.0
 20
0.0
 11
12.0
 21
9.0
 12
0.0
 22
0.0
 32
0.0
 14
1.000000000000000E+20
 24
1.000000000000000E+20
 34
1.000000000000000E+20
 15
-1.000000000000000E+20
 25
-1.000000000000000E+20
 35
-1.000000000000000E+20
146
0.0
 13
0.0
 23
0.0
 33
0.0
 16
1.0
 26
0.0
 36
0.0
 17
0.0
 27
1.0
 37
0.0
 76
     0
330
17
  0
LAYOUT
  5
52
102
{ACAD_REACTORS
330
51
102
}
330
51
100
AcDbPlotSettings
  1

  2
none_device
  4

  6

 40
0.0
 41
0.0
 42
0.0
 43
0.0
 44
0.0
 45
0.0
 46
0.0
 47
0.0
 48
0.0
 49
0.0
140
0.0
141
0.0
142
1.0
143
1.0
 70
  1712
 72
     0
 73
     0
 74
     0
  7

 75
     0
147
1.0
148
0.0
149
0.0
100
AcDbLayout
  1
Model
 70
     1
 71
     0
 10
604.2209577168799
 20
16.94874457291433
 11
950.4709637784758
 21
261.7719811821235
 12
604.2209577168799
 22
16.94874457291433
 32
0.0
 14
604.2209577168799
 24
16.94874457291433
 34
0.0
 15
950.4709637784758
 25
261.7719811821235
 35
0.0
146
0.0
 13
0.0
 23
0.0
 33
0.0
 16
1.0
 26
0.0
 36
0.0
 17
0.0
 27
1.0
 37
0.0
 76
     0
330
1A
331
50
  0
MATERIAL
  5
78
102
{ACAD_REACTORS
330
76
102
}
102
{ACAD_XDICTIONARY
360
20C
102
}
330
76
100
AcDbMaterial
  1
ByBlock
  0
MATERIAL
  5
77
102
{ACAD_REACTORS
330
76
102
}
102
{ACAD_XDICTIONARY
360
20A
102
}
330
76
100
AcDbMaterial
  1
ByLayer
  0
MATERIAL
  5
79
102
{ACAD_REACTORS
330
76
102
}
102
{ACAD_XDICTIONARY
360
20E
102
}
330
76
100
AcDbMaterial
  1
Global
  0
MLINESTYLE
  5
13
102
{ACAD_REACTORS
330
E
102
}
330
E
100
AcDbMlineStyle
  2
STANDARD
 70
     0
  3

 62
     0
 51
90.0
 52
90.0
 71
     2
 49
0.5
 62
   256
  6
BYLAYER
 49
-0.5
 62
   256
  6
BYLAYER
  0
SCALE
  5
55
102
{ACAD_REACTORS
330
54
102
}
330
54
100
AcDbScale
 70
     0
300
1:1
140
1.0
141
1.0
290
     1
  0
SCALE
  5
56
102
{ACAD_REACTORS
330
54
102
}
330
54
100
AcDbScale
 70
     0
300
1:2
140
1.0
141
2.0
290
     0
  0
SCALE
  5
57
102
{ACAD_REACTORS
330
54
102
}
330
54
100
AcDbScale
 70
     0
300
1:4
140
1.0
141
4.0
290
     0
  0
SCALE
  5
58
102
{ACAD_REACTORS
330
54
102
}
330
54
100
AcDbScale
 70
     0
300
1:5
140
1.0
141
5.0
290
     0
  0
SCALE
  5
59
102
{ACAD_REACTORS
330
54
102
}
330
54
100
AcDbScale
 70
     0
300
1:8
140
1.0
141
8.0
290
     0
  0
SCALE
  5
5A
102
{ACAD_REACTORS
330
54
102
}
330
54
100
AcDbScale
 70
     0
300
1:10
140
1.0
141
10.0
290
     0
  0
SCALE
  5
5B
102
{ACAD_REACTORS
330
54
102
}
330
54
100
AcDbScale
 70
     0
300
1:16
140
1.0
141
16.0
290
     0
  0
SCALE
  5
5C
102
{ACAD_REACTORS
330
54
102
}
330
54
100
AcDbScale
 70
     0
300
1:20
140
1.0
141
20.0
290
     0
  0
SCALE
  5
5D
102
{ACAD_REACTORS
330
54
102
}
330
54
100
AcDbScale
 70
     0
300
1:30
140
1.0
141
30.0
290
     0
  0
SCALE
  5
5E
102
{ACAD_REACTORS
330
54
102
}
330
54
100
AcDbScale
 70
     0
300
1:40
140
1.0
141
40.0
290
     0
  0
SCALE
  5
5F
102
{ACAD_REACTORS
330
54
102
}
330
54
100
AcDbScale
 70
     0
300
1:50
140
1.0
141
50.0
290
     0
  0
SCALE
  5
60
102
{ACAD_REACTORS
330
54
102
}
330
54
100
AcDbScale
 70
     0
300
1:100
140
1.0
141
100.0
290
     0
  0
SCALE
  5
61
102
{ACAD_REACTORS
330
54
102
}
330
54
100
AcDbScale
 70
     0
300
2:1
140
2.0
141
1.0
290
     0
  0
SCALE
  5
62
102
{ACAD_REACTORS
330
54
102
}
330
54
100
AcDbScale
 70
     0
300
4:1
140
4.0
141
1.0
290
     0
  0
SCALE
  5
63
102
{ACAD_REACTORS
330
54
102
}
330
54
100
AcDbScale
 70
     0
300
8:1
140
8.0
141
1.0
290
     0
  0
SCALE
  5
64
102
{ACAD_REACTORS
330
54
102
}
330
54
100
AcDbScale
 70
     0
300
10:1
140
10.0
141
1.0
290
     0
  0
SCALE
  5
65
102
{ACAD_REACTORS
330
54
102
}
330
54
100
AcDbScale
 70
     0
300
100:1
140
100.0
141
1.0
290
     0
  0
SCALE
  5
66
102
{ACAD_REACTORS
330
54
102
}
330
54
100
AcDbScale
 70
     0
300
1/128" = 1'-0"
140
0.0078125
141
12.0
290
     0
  0
SCALE
  5
67
102
{ACAD_REACTORS
330
54
102
}
330
54
100
AcDbScale
 70
     0
300
1/64" = 1'-0"
140
0.015625
141
12.0
290
     0
  0
SCALE
  5
68
102
{ACAD_REACTORS
330
54
102
}
330
54
100
AcDbScale
 70
     0
300
1/32" = 1'-0"
140
0.03125
141
12.0
290
     0
  0
SCALE
  5
69
102
{ACAD_REACTORS
330
54
102
}
330
54
100
AcDbScale
 70
     0
300
1/16" = 1'-0"
140
0.0625
141
12.0
290
     0
  0
SCALE
  5
6A
102
{ACAD_REACTORS
330
54
102
}
330
54
100
AcDbScale
 70
     0
300
3/32" = 1'-0"
140
0.09375
141
12.0
290
     0
  0
SCALE
  5
6B
102
{ACAD_REACTORS
330
54
102
}
330
54
100
AcDbScale
 70
     0
300
1/8" = 1'-0"
140
0.125
141
12.0
290
     0
  0
SCALE
  5
6C
102
{ACAD_REACTORS
330
54
102
}
330
54
100
AcDbScale
 70
     0
300
3/16" = 1'-0"
140
0.1875
141
12.0
290
     0
  0
SCALE
  5
6D
102
{ACAD_REACTORS
330
54
102
}
330
54
100
AcDbScale
 70
     0
300
1/4" = 1'-0"
140
0.25
141
12.0
290
     0
  0
SCALE
  5
6E
102
{ACAD_REACTORS
330
54
102
}
330
54
100
AcDbScale
 70
     0
300
3/8" = 1'-0"
140
0.375
141
12.0
290
     0
  0
SCALE
  5
6F
102
{ACAD_REACTORS
330
54
102
}
330
54
100
AcDbScale
 70
     0
300
1/2" = 1'-0"
140
0.5
141
12.0
290
     0
  0
SCALE
  5
70
102
{ACAD_REACTORS
330
54
102
}
330
54
100
AcDbScale
 70
     0
300
3/4" = 1'-0"
140
0.75
141
12.0
290
     0
  0
SCALE
  5
71
102
{ACAD_REACTORS
330
54
102
}
330
54
100
AcDbScale
 70
     0
300
1" = 1'-0"
140
1.0
141
12.0
290
     0
  0
SCALE
  5
72
102
{ACAD_REACTORS
330
54
102
}
330
54
100
AcDbScale
 70
     0
300
1-1/2" = 1'-0"
140
1.5
141
12.0
290
     0
  0
SCALE
  5
73
102
{ACAD_REACTORS
330
54
102
}
330
54
100
AcDbScale
 70
     0
300
3" = 1'-0"
140
3.0
141
12.0
290
     0
  0
SCALE
  5
74
102
{ACAD_REACTORS
330
54
102
}
330
54
100
AcDbScale
 70
     0
300
6" = 1'-0"
140
6.0
141
12.0
290
     0
  0
SCALE
  5
75
102
{ACAD_REACTORS
330
54
102
}
330
54
100
AcDbScale
 70
     0
300
1'-0" = 1'-0"
140
12.0
141
12.0
290
     0
  0
VISUALSTYLE
  5
7F
102
{ACAD_REACTORS
330
7A
102
}
102
{ACAD_XDICTIONARY
360
218
102
}
330
7A
100
AcDbVisualStyle
  2
2dWireframe
 70
     4
 71
     0
 72
     2
 73
     0
 90
        0
 40
-0.6
 41
-30.0
 62
     5
 63
     7
 74
     1
 91
        4
 64
     7
 65
   257
 75
     1
175
     1
 42
1.0
 92
        0
 66
   257
 43
1.0
 76
     1
 77
     6
 78
     2
 67
     7
 79
     5
170
     0
171
     0
290
     0
174
     0
 93
        1
 44
0.0
173
     0
291
     0
 45
0.0
1001
ACAD
1000
AcDbSavedByObjectVersion
1070
     0
  0
VISUALSTYLE
  5
81
102
{ACAD_REACTORS
330
7A
102
}
102
{ACAD_XDICTIONARY
360
21C
102
}
330
7A
100
AcDbVisualStyle
  2
3D Hidden
 70
     6
 71
     1
 72
     2
 73
     2
 90
        0
 40
-0.6
 41
-30.0
 62
     5
 63
     7
 74
     2
 91
        2
 64
     7
 65
   257
 75
     2
175
     1
 42
40.0
 92
        0
 66
   257
 43
1.0
 76
     1
 77
     6
 78
     2
 67
     7
 79
     3
170
     0
171
     0
290
     0
174
     0
 93
        1
 44
0.0
173
     0
291
     0
 45
0.0
1001
ACAD
1000
AcDbSavedByObjectVersion
1070
     0
  0
VISUALSTYLE
  5
80
102
{ACAD_REACTORS
330
7A
102
}
102
{ACAD_XDICTIONARY
360
21A
102
}
330
7A
100
AcDbVisualStyle
  2
3dWireframe
 70
     5
 71
     0
 72
     2
 73
     0
 90
        0
 40
-0.6
 41
-30.0
 62
     5
 63
     7
 74
     1
 91
        4
 64
     7
 65
   257
 75
     1
175
     1
 42
1.0
 92
        0
 66
   257
 43
1.0
 76
     1
 77
     6
 78
     2
 67
     7
 79
     5
170
     0
171
     0
290
     0
174
     0
 93
        1
 44
0.0
173
     0
291
     0
 45
0.0
1001
ACAD
1000
AcDbSavedByObjectVersion
1070
     0
  0
VISUALSTYLE
  5
82
102
{ACAD_REACTORS
330
7A
102
}
102
{ACAD_XDICTIONARY
360
21E
102
}
330
7A
100
AcDbVisualStyle
  2
Basic
 70
     7
 71
     1
 72
     0
 73
     1
 90
        0
 40
-0.6
 41
-30.0
 62
     5
 63
     7
 74
     0
 91
        4
 64
     7
 65
   257
 75
     1
175
     1
 42
1.0
 92
        8
 66
     7
 43
1.0
 76
     1
 77
     6
 78
     2
 67
     7
 79
     5
170
     0
171
     0
290
     0
174
     0
 93
        1
 44
0.0
173
     0
291
     1
 45
0.0
1001
ACAD
1000
AcDbSavedByObjectVersion
1070
     0
  0
VISUALSTYLE
  5
86
102
{ACAD_REACTORS
330
7A
102
}
102
{ACAD_XDICTIONARY
360
226
102
}
330
7A
100
AcDbVisualStyle
  2
Brighten
 70
    12
 71
     2
 72
     2
 73
     0
 90
        0
 40
-0.6
 41
-30.0
 62
     5
 63
     7
 74
     1
 91
        4
 64
     7
 65
   257
 75
     1
175
     1
 42
1.0
 92
        8
 66
     7
 43
1.0
 76
     1
 77
     6
 78
     2
 67
     7
 79
     5
170
     0
171
     0
290
     0
174
     0
 93
        1
 44
50.0
173
     0
291
     1
 45
0.0
1001
ACAD
1000
AcDbSavedByObjectVersion
1070
     0
  0
VISUALSTYLE
  5
8A
102
{ACAD_REACTORS
330
7A
102
}
102
{ACAD_XDICTIONARY
360
22E
102
}
330
7A
100
AcDbVisualStyle
  2
ColorChange
 70
    16
 71
     2
 72
     2
 73
     3
 90
        0
 40
-0.6
 41
-30.0
 62
     5
 63
     8
 74
     1
 91
        4
 64
     7
 65
   257
 75
     1
175
     1
 42
1.0
 92
        8
 66
     8
 43
1.0
 76
     1
 77
     6
 78
     2
 67
     7
 79
     5
170
     0
171
     0
290
     0
174
     0
 93
        1
 44
0.0
173
     0
291
     1
 45
0.0
1001
ACAD
1000
AcDbSavedByObjectVersion
1070
     0
  0
VISUALSTYLE
  5
84
102
{ACAD_REACTORS
330
7A
102
}
102
{ACAD_XDICTIONARY
360
222
102
}
330
7A
100
AcDbVisualStyle
  2
Conceptual
 70
     9
 71
     3
 72
     2
 73
     0
 90
        0
 40
-0.6
 41
-30.0
 62
     5
 63
     7
 74
     2
 91
        2
 64
     7
 65
   257
 75
     1
175
     1
 42
40.0
 92
        8
 66
     7
 43
1.0
 76
     1
 77
     6
 78
     2
 67
     7
 79
     3
170
     0
171
     0
290
     0
174
     0
 93
        1
 44
0.0
173
     0
291
     0
 45
0.0
1001
ACAD
1000
AcDbSavedByObjectVersion
1070
     0
  0
VISUALSTYLE
  5
85
102
{ACAD_REACTORS
330
7A
102
}
102
{ACAD_XDICTIONARY
360
224
102
}
330
7A
100
AcDbVisualStyle
  2
Dim
 70
    11
 71
     2
 72
     2
 73
     0
 90
        0
 40
-0.6
 41
-30.0
 62
     5
 63
     7
 74
     1
 91
        4
 64
     7
 65
   257
 75
     1
175
     1
 42
1.0
 92
        8
 66
     7
 43
1.0
 76
     1
 77
     6
 78
     2
 67
     7
 79
     5
170
     0
171
     0
290
     0
174
     0
 93
        1
 44
-50.0
173
     0
291
     1
 45
0.0
1001
ACAD
1000
AcDbSavedByObjectVersion
1070
     0
  0
VISUALSTYLE
  5
89
102
{ACAD_REACTORS
330
7A
102
}
102
{ACAD_XDICTIONARY
360
22C
102
}
330
7A
100
AcDbVisualStyle
  2
Facepattern
 70
    15
 71
     2
 72
     2
 73
     0
 90
        0
 40
-0.6
 41
-30.0
 62
     5
 63
     7
 74
     1
 91
        4
 64
     7
 65
   257
 75
     1
175
     1
 42
1.0
 92
        8
 66
     7
 43
1.0
 76
     1
 77
     6
 78
     2
 67
     7
 79
     5
170
     0
171
     0
290
     0
174
     0
 93
        1
 44
0.0
173
     0
291
     1
 45
0.0
1001
ACAD
1000
AcDbSavedByObjectVersion
1070
     0
  0
VISUALSTYLE
  5
7B
102
{ACAD_REACTORS
330
7A
102
}
102
{ACAD_XDICTIONARY
360
210
102
}
330
7A
100
AcDbVisualStyle
  2
Flat
 70
     0
 71
     2
 72
     1
 73
     1
 90
        2
 40
-0.6
 41
30.0
 62
     5
 63
     7
 74
     0
 91
        4
 64
     7
 65
   257
 75
     1
175
     1
 42
1.0
 92
        8
 66
     7
 43
1.0
 76
     1
 77
     6
 78
     2
 67
     7
 79
     5
170
     0
171
     0
290
     0
174
     0
 93
       13
 44
0.0
173
     0
291
     1
 45
0.0
1001
ACAD
1000
AcDbSavedByObjectVersion
1070
     0
  0
VISUALSTYLE
  5
7C
102
{ACAD_REACTORS
330
7A
102
}
102
{ACAD_XDICTIONARY
360
212
102
}
330
7A
100
AcDbVisualStyle
  2
FlatWithEdges
 70
     1
 71
     2
 72
     1
 73
     1
 90
        2
 40
-0.6
 41
30.0
 62
     5
 63
     7
 74
     1
 91
        4
 64
     7
 65
   257
 75
     1
175
     1
 42
1.0
 92
        0
 66
   257
 43
1.0
 76
     1
 77
     6
 78
     2
 67
     7
 79
     5
170
     0
171
     0
290
     0
174
     0
 93
       13
 44
0.0
173
     0
291
     1
 45
0.0
1001
ACAD
1000
AcDbSavedByObjectVersion
1070
     0
  0
VISUALSTYLE
  5
7D
102
{ACAD_REACTORS
330
7A
102
}
102
{ACAD_XDICTIONARY
360
214
102
}
330
7A
100
AcDbVisualStyle
  2
Gouraud
 70
     2
 71
     2
 72
     2
 73
     1
 90
        2
 40
-0.6
 41
30.0
 62
     5
 63
     7
 74
     0
 91
        4
 64
     7
 65
   257
 75
     1
175
     1
 42
1.0
 92
        0
 66
     7
 43
1.0
 76
     1
 77
     6
 78
     2
 67
     7
 79
     5
170
     0
171
     0
290
     0
174
     0
 93
       13
 44
0.0
173
     0
291
     1
 45
0.0
1001
ACAD
1000
AcDbSavedByObjectVersion
1070
     0
  0
VISUALSTYLE
  5
7E
102
{ACAD_REACTORS
330
7A
102
}
102
{ACAD_XDICTIONARY
360
216
102
}
330
7A
100
AcDbVisualStyle
  2
GouraudWithEdges
 70
     3
 71
     2
 72
     2
 73
     1
 90
        2
 40
-0.6
 41
30.0
 62
     5
 63
     7
 74
     1
 91
        4
 64
     7
 65
   257
 75
     1
175
     1
 42
1.0
 92
        0
 66
   257
 43
1.0
 76
     1
 77
     6
 78
     2
 67
     7
 79
     5
170
     0
171
     0
290
     0
174
     0
 93
       13
 44
0.0
173
     0
291
     1
 45
0.0
1001
ACAD
1000
AcDbSavedByObjectVersion
1070
     0
  0
VISUALSTYLE
  5
88
102
{ACAD_REACTORS
330
7A
102
}
102
{ACAD_XDICTIONARY
360
22A
102
}
330
7A
100
AcDbVisualStyle
  2
Linepattern
 70
    14
 71
     2
 72
     2
 73
     0
 90
        0
 40
-0.6
 41
-30.0
 62
     5
 63
     7
 74
     1
 91
        4
 64
     7
 65
   257
 75
     7
175
     7
 42
1.0
 92
        8
 66
     7
 43
1.0
 76
     1
 77
     6
 78
     2
 67
     7
 79
     5
170
     0
171
     0
290
     0
174
     0
 93
        1
 44
0.0
173
     0
291
     1
 45
0.0
1001
ACAD
1000
AcDbSavedByObjectVersion
1070
     0
  0
VISUALSTYLE
  5
83
102
{ACAD_REACTORS
330
7A
102
}
102
{ACAD_XDICTIONARY
360
220
102
}
330
7A
100
AcDbVisualStyle
  2
Realistic
 70
     8
 71
     2
 72
     2
 73
     0
 90
        0
 40
-0.6
 41
-30.0
 62
     5
 63
     7
 74
     1
 91
        0
 64
     7
 65
   257
 75
     1
175
     1
 42
1.0
 92
        8
 66
     8
 43
1.0
 76
     1
 77
     6
 78
     2
 67
     7
 79
     5
170
     0
171
     0
290
     0
174
     0
 93
       13
 44
0.0
173
     0
291
     0
 45
0.0
1001
ACAD
1000
AcDbSavedByObjectVersion
1070
     0
  0
VISUALSTYLE
  5
87
102
{ACAD_REACTORS
330
7A
102
}
102
{ACAD_XDICTIONARY
360
228
102
}
330
7A
100
AcDbVisualStyle
  2
Thicken
 70
    13
 71
     2
 72
     2
 73
     0
 90
        0
 40
-0.6
 41
-30.0
 62
     5
 63
     7
 74
     1
 91
        4
 64
     7
 65
   257
 75
     1
175
     1
 42
1.0
 92
       12
 66
     7
 43
1.0
 76
     1
 77
     6
 78
     2
 67
     7
 79
     5
170
     0
171
     0
290
     0
174
     0
 93
        1
 44
0.0
173
     0
291
     1
 45
0.0
1001
ACAD
1000
AcDbSavedByObjectVersion
1070
     0
  0
DICTIONARYVAR
  5
209
102
{ACAD_REACTORS
330
204
102
}
330
204
100
DictionaryVariables
280
     0
  1
1:1
  0
DICTIONARYVAR
  5
207
102
{ACAD_REACTORS
330
204
102
}
330
204
100
DictionaryVariables
280
     0
  1
2
  0
DICTIONARYVAR
  5
208
102
{ACAD_REACTORS
330
204
102
}
330
204
100
DictionaryVariables
280
     0
  1
1
  0
DICTIONARY
  5
20C
330
78
100
AcDbDictionary
280
     1
281
     1
  3
ACAD_XREC_ROUNDTRIP
360
20D
  0
DICTIONARY
  5
20A
330
77
100
AcDbDictionary
280
     1
281
     1
  3
ACAD_XREC_ROUNDTRIP
360
20B
  0
DICTIONARY
  5
20E
330
79
100
AcDbDictionary
280
     1
281
     1
  3
ACAD_XREC_ROUNDTRIP
360
20F
  0
DICTIONARY
  5
218
330
7F
100
AcDbDictionary
280
     1
281
     1
  3
ACAD_XREC_ROUNDTRIP
360
219
  0
DICTIONARY
  5
21C
330
81
100
AcDbDictionary
280
     1
281
     1
  3
ACAD_XREC_ROUNDTRIP
360
21D
  0
DICTIONARY
  5
21A
330
80
100
AcDbDictionary
280
     1
281
     1
  3
ACAD_XREC_ROUNDTRIP
360
21B
  0
DICTIONARY
  5
21E
330
82
100
AcDbDictionary
280
     1
281
     1
  3
ACAD_XREC_ROUNDTRIP
360
21F
  0
DICTIONARY
  5
226
330
86
100
AcDbDictionary
280
     1
281
     1
  3
ACAD_XREC_ROUNDTRIP
360
227
  0
DICTIONARY
  5
22E
330
8A
100
AcDbDictionary
280
     1
281
     1
  3
ACAD_XREC_ROUNDTRIP
360
22F
  0
DICTIONARY
  5
222
330
84
100
AcDbDictionary
280
     1
281
     1
  3
ACAD_XREC_ROUNDTRIP
360
223
  0
DICTIONARY
  5
224
330
85
100
AcDbDictionary
280
     1
281
     1
  3
ACAD_XREC_ROUNDTRIP
360
225
  0
DICTIONARY
  5
22C
330
89
100
AcDbDictionary
280
     1
281
     1
  3
ACAD_XREC_ROUNDTRIP
360
22D
  0
DICTIONARY
  5
210
330
7B
100
AcDbDictionary
280
     1
281
     1
  3
ACAD_XREC_ROUNDTRIP
360
211
  0
DICTIONARY
  5
212
330
7C
100
AcDbDictionary
280
     1
281
     1
  3
ACAD_XREC_ROUNDTRIP
360
213
  0
DICTIONARY
  5
214
330
7D
100
AcDbDictionary
280
     1
281
     1
  3
ACAD_XREC_ROUNDTRIP
360
215
  0
DICTIONARY
  5
216
330
7E
100
AcDbDictionary
280
     1
281
     1
  3
ACAD_XREC_ROUNDTRIP
360
217
  0
DICTIONARY
  5
22A
330
88
100
AcDbDictionary
280
     1
281
     1
  3
ACAD_XREC_ROUNDTRIP
360
22B
  0
DICTIONARY
  5
220
330
83
100
AcDbDictionary
280
     1
281
     1
  3
ACAD_XREC_ROUNDTRIP
360
221
  0
DICTIONARY
  5
228
330
87
100
AcDbDictionary
280
     1
281
     1
  3
ACAD_XREC_ROUNDTRIP
360
229
  0
XRECORD
  5
20D
102
{ACAD_REACTORS
330
20C
102
}
330
20C
100
AcDbXrecord
280
     1
102
MATERIAL
148
0.0
149
0.0
149
0.0
 93
        0
 94
      127
282
     0
 72
     1
 77
     1
171
     1
175
     1
179
     1
273
     0
  0
XRECORD
  5
20B
102
{ACAD_REACTORS
330
20A
102
}
330
20A
100
AcDbXrecord
280
     1
102
MATERIAL
148
0.0
149
0.0
149
0.0
 93
        0
 94
      127
282
     0
 72
     1
 77
     1
171
     1
175
     1
179
     1
273
     0
  0
XRECORD
  5
20F
102
{ACAD_REACTORS
330
20E
102
}
330
20E
100
AcDbXrecord
280
     1
102
MATERIAL
148
0.0
149
0.0
149
0.0
 93
        0
 94
      127
282
     0
 72
     1
 77
     1
171
     1
175
     1
179
     1
273
     0
  0
XRECORD
  5
219
102
{ACAD_REACTORS
330
218
102
}
330
218
100
AcDbXrecord
280
     1
102
RTVSPropertyOp0
 70
     1
102
RTVSPropertyOp1
 70
     1
102
RTVSPropertyOp2
 70
     1
102
RTVSPropertyOp3
 70
     1
102
RTVSPropertyOp4
 70
     1
102
RTVSPropertyOp5
 70
     1
102
RTVSPropertyOp6
 70
     1
102
RTVSPropertyOp7
 70
     1
102
RTVSPropertyOp8
 70
     1
102
RTVSPropertyOp9
 70
     1
102
RTVSPropertyOp10
 70
     1
102
RTVSPropertyOp11
 70
     1
102
RTVSPropertyOp12
 70
     1
102
RTVSPropertyOp13
 70
     1
102
RTVSPropertyOp14
 70
     1
102
RTVSPropertyOp15
 70
     1
102
RTVSPropertyOp16
 70
     1
102
RTVSPropertyOp17
 70
     1
102
RTVSPropertyOp18
 70
     1
102
RTVSPropertyOp19
 70
     1
102
RTVSPropertyOp20
 70
     1
102
RTVSPropertyOp21
 70
     1
102
RTVSPropertyOp22
 70
     1
102
RTVSPropertyOp23
 70
     1
102
RTVSPropertyOp24
 70
     1
102
RTVSPropertyOp25
 70
     1
102
RTVSPropertyOp26
 70
     1
102
RTVSPropertyOp27
 70
     1
102
RTVSPropertyOp28
 70
     1
102
RTVSPropertyOp29
 70
     1
102
RTVSPropertyOp30
 70
     1
102
RTVSPropertyOp31
 70
     1
102
RTVSPropertyOp32
 70
     1
  0
XRECORD
  5
21D
102
{ACAD_REACTORS
330
21C
102
}
330
21C
100
AcDbXrecord
280
     1
102
RTVSPropertyOp0
 70
     1
102
RTVSPropertyOp1
 70
     1
102
RTVSPropertyOp2
 70
     1
102
RTVSPropertyOp3
 70
     1
102
RTVSPropertyOp4
 70
     1
102
RTVSPropertyOp5
 70
     1
102
RTVSPropertyOp6
 70
     1
102
RTVSPropertyOp7
 70
     1
102
RTVSPropertyOp8
 70
     1
102
RTVSPropertyOp9
 70
     1
102
RTVSPropertyOp10
 70
     1
102
RTVSPropertyOp11
 70
     1
102
RTVSPropertyOp12
 70
     1
102
RTVSPropertyOp13
 70
     1
102
RTVSPropertyOp14
 70
     1
102
RTVSPropertyOp15
 70
     1
102
RTVSPropertyOp16
 70
     1
102
RTVSPropertyOp17
 70
     1
102
RTVSPropertyOp18
 70
     1
102
RTVSPropertyOp19
 70
     1
102
RTVSPropertyOp20
 70
     1
102
RTVSPropertyOp21
 70
     1
102
RTVSPropertyOp22
 70
     1
102
RTVSPropertyOp23
 70
     1
102
RTVSPropertyOp24
 70
     1
102
RTVSPropertyOp25
 70
     1
102
RTVSPropertyOp26
 70
     1
102
RTVSPropertyOp27
 70
     1
102
RTVSPropertyOp28
 70
     1
102
RTVSPropertyOp29
 70
     1
102
RTVSPropertyOp30
 70
     1
102
RTVSPropertyOp31
 70
     1
102
RTVSPropertyOp32
 70
     1
  0
XRECORD
  5
21B
102
{ACAD_REACTORS
330
21A
102
}
330
21A
100
AcDbXrecord
280
     1
102
RTVSPropertyOp0
 70
     1
102
RTVSPropertyOp1
 70
     1
102
RTVSPropertyOp2
 70
     1
102
RTVSPropertyOp3
 70
     1
102
RTVSPropertyOp4
 70
     1
102
RTVSPropertyOp5
 70
     1
102
RTVSPropertyOp6
 70
     1
102
RTVSPropertyOp7
 70
     1
102
RTVSPropertyOp8
 70
     1
102
RTVSPropertyOp9
 70
     1
102
RTVSPropertyOp10
 70
     1
102
RTVSPropertyOp11
 70
     1
102
RTVSPropertyOp12
 70
     1
102
RTVSPropertyOp13
 70
     1
102
RTVSPropertyOp14
 70
     1
102
RTVSPropertyOp15
 70
     1
102
RTVSPropertyOp16
 70
     1
102
RTVSPropertyOp17
 70
     1
102
RTVSPropertyOp18
 70
     1
102
RTVSPropertyOp19
 70
     1
102
RTVSPropertyOp20
 70
     1
102
RTVSPropertyOp21
 70
     1
102
RTVSPropertyOp22
 70
     1
102
RTVSPropertyOp23
 70
     1
102
RTVSPropertyOp24
 70
     1
102
RTVSPropertyOp25
 70
     1
102
RTVSPropertyOp26
 70
     1
102
RTVSPropertyOp27
 70
     1
102
RTVSPropertyOp28
 70
     1
102
RTVSPropertyOp29
 70
     1
102
RTVSPropertyOp30
 70
     1
102
RTVSPropertyOp31
 70
     1
102
RTVSPropertyOp32
 70
     1
  0
XRECORD
  5
21F
102
{ACAD_REACTORS
330
21E
102
}
330
21E
100
AcDbXrecord
280
     1
102
RTVSPropertyOp0
 70
     1
102
RTVSPropertyOp1
 70
     1
102
RTVSPropertyOp2
 70
     1
102
RTVSPropertyOp3
 70
     1
102
RTVSPropertyOp4
 70
     1
102
RTVSPropertyOp5
 70
     1
102
RTVSPropertyOp6
 70
     1
102
RTVSPropertyOp7
 70
     1
102
RTVSPropertyOp8
 70
     1
102
RTVSPropertyOp9
 70
     1
102
RTVSPropertyOp10
 70
     1
102
RTVSPropertyOp11
 70
     1
102
RTVSPropertyOp12
 70
     1
102
RTVSPropertyOp13
 70
     1
102
RTVSPropertyOp14
 70
     1
102
RTVSPropertyOp15
 70
     1
102
RTVSPropertyOp16
 70
     1
102
RTVSPropertyOp17
 70
     1
102
RTVSPropertyOp18
 70
     1
102
RTVSPropertyOp19
 70
     1
102
RTVSPropertyOp20
 70
     1
102
RTVSPropertyOp21
 70
     1
102
RTVSPropertyOp22
 70
     1
102
RTVSPropertyOp23
 70
     1
102
RTVSPropertyOp24
 70
     1
102
RTVSPropertyOp25
 70
     1
102
RTVSPropertyOp26
 70
     1
102
RTVSPropertyOp27
 70
     1
102
RTVSPropertyOp28
 70
     1
102
RTVSPropertyOp29
 70
     1
102
RTVSPropertyOp30
 70
     1
102
RTVSPropertyOp31
 70
     1
102
RTVSPropertyOp32
 70
     1
  0
XRECORD
  5
227
102
{ACAD_REACTORS
330
226
102
}
330
226
100
AcDbXrecord
280
     1
102
RTVSPropertyOp0
 70
     1
102
RTVSPropertyOp1
 70
     1
102
RTVSPropertyOp2
 70
     1
102
RTVSPropertyOp3
 70
     1
102
RTVSPropertyOp4
 70
     1
102
RTVSPropertyOp5
 70
     1
102
RTVSPropertyOp6
 70
     1
102
RTVSPropertyOp7
 70
     1
102
RTVSPropertyOp8
 70
     1
102
RTVSPropertyOp9
 70
     1
102
RTVSPropertyOp10
 70
     1
102
RTVSPropertyOp11
 70
     1
102
RTVSPropertyOp12
 70
     1
102
RTVSPropertyOp13
 70
     1
102
RTVSPropertyOp14
 70
     1
102
RTVSPropertyOp15
 70
     1
102
RTVSPropertyOp16
 70
     1
102
RTVSPropertyOp17
 70
     1
102
RTVSPropertyOp18
 70
     1
102
RTVSPropertyOp19
 70
     1
102
RTVSPropertyOp20
 70
     1
102
RTVSPropertyOp21
 70
     1
102
RTVSPropertyOp22
 70
     1
102
RTVSPropertyOp23
 70
     1
102
RTVSPropertyOp24
 70
     1
102
RTVSPropertyOp25
 70
     1
102
RTVSPropertyOp26
 70
     1
102
RTVSPropertyOp27
 70
     1
102
RTVSPropertyOp28
 70
     1
102
RTVSPropertyOp29
 70
     1
102
RTVSPropertyOp30
 70
     1
102
RTVSPropertyOp31
 70
     1
102
RTVSPropertyOp32
 70
     1
  0
XRECORD
  5
22F
102
{ACAD_REACTORS
330
22E
102
}
330
22E
100
AcDbXrecord
280
     1
102
RTVSPropertyOp0
 70
     1
102
RTVSPropertyOp1
 70
     1
102
RTVSPropertyOp2
 70
     1
102
RTVSPropertyOp3
 70
     1
102
RTVSPropertyOp4
 70
     1
102
RTVSPropertyOp5
 70
     1
102
RTVSPropertyOp6
 70
     1
102
RTVSPropertyOp7
 70
     1
102
RTVSPropertyOp8
 70
     1
102
RTVSPropertyOp9
 70
     1
102
RTVSPropertyOp10
 70
     1
102
RTVSPropertyOp11
 70
     1
102
RTVSPropertyOp12
 70
     1
102
RTVSPropertyOp13
 70
     1
102
RTVSPropertyOp14
 70
     1
102
RTVSPropertyOp15
 70
     1
102
RTVSPropertyOp16
 70
     1
102
RTVSPropertyOp17
 70
     1
102
RTVSPropertyOp18
 70
     1
102
RTVSPropertyOp19
 70
     1
102
RTVSPropertyOp20
 70
     1
102
RTVSPropertyOp21
 70
     1
102
RTVSPropertyOp22
 70
     1
102
RTVSPropertyOp23
 70
     1
102
RTVSPropertyOp24
 70
     1
102
RTVSPropertyOp25
 70
     1
102
RTVSPropertyOp26
 70
     1
102
RTVSPropertyOp27
 70
     1
102
RTVSPropertyOp28
 70
     1
102
RTVSPropertyOp29
 70
     1
102
RTVSPropertyOp30
 70
     1
102
RTVSPropertyOp31
 70
     1
102
RTVSPropertyOp32
 70
     1
  0
XRECORD
  5
223
102
{ACAD_REACTORS
330
222
102
}
330
222
100
AcDbXrecord
280
     1
102
RTVSPropertyOp0
 70
     1
102
RTVSPropertyOp1
 70
     1
102
RTVSPropertyOp2
 70
     1
102
RTVSPropertyOp3
 70
     1
102
RTVSPropertyOp4
 70
     1
102
RTVSPropertyOp5
 70
     1
102
RTVSPropertyOp6
 70
     1
102
RTVSPropertyOp7
 70
     1
102
RTVSPropertyOp8
 70
     1
102
RTVSPropertyOp9
 70
     1
102
RTVSPropertyOp10
 70
     1
102
RTVSPropertyOp11
 70
     1
102
RTVSPropertyOp12
 70
     1
102
RTVSPropertyOp13
 70
     1
102
RTVSPropertyOp14
 70
     1
102
RTVSPropertyOp15
 70
     1
102
RTVSPropertyOp16
 70
     1
102
RTVSPropertyOp17
 70
     1
102
RTVSPropertyOp18
 70
     1
102
RTVSPropertyOp19
 70
     1
102
RTVSPropertyOp20
 70
     1
102
RTVSPropertyOp21
 70
     1
102
RTVSPropertyOp22
 70
     1
102
RTVSPropertyOp23
 70
     1
102
RTVSPropertyOp24
 70
     1
102
RTVSPropertyOp25
 70
     1
102
RTVSPropertyOp26
 70
     1
102
RTVSPropertyOp27
 70
     1
102
RTVSPropertyOp28
 70
     1
102
RTVSPropertyOp29
 70
     1
102
RTVSPropertyOp30
 70
     1
102
RTVSPropertyOp31
 70
     1
102
RTVSPropertyOp32
 70
     1
  0
XRECORD
  5
225
102
{ACAD_REACTORS
330
224
102
}
330
224
100
AcDbXrecord
280
     1
102
RTVSPropertyOp0
 70
     1
102
RTVSPropertyOp1
 70
     1
102
RTVSPropertyOp2
 70
     1
102
RTVSPropertyOp3
 70
     1
102
RTVSPropertyOp4
 70
     1
102
RTVSPropertyOp5
 70
     1
102
RTVSPropertyOp6
 70
     1
102
RTVSPropertyOp7
 70
     1
102
RTVSPropertyOp8
 70
     1
102
RTVSPropertyOp9
 70
     1
102
RTVSPropertyOp10
 70
     1
102
RTVSPropertyOp11
 70
     1
102
RTVSPropertyOp12
 70
     1
102
RTVSPropertyOp13
 70
     1
102
RTVSPropertyOp14
 70
     1
102
RTVSPropertyOp15
 70
     1
102
RTVSPropertyOp16
 70
     1
102
RTVSPropertyOp17
 70
     1
102
RTVSPropertyOp18
 70
     1
102
RTVSPropertyOp19
 70
     1
102
RTVSPropertyOp20
 70
     1
102
RTVSPropertyOp21
 70
     1
102
RTVSPropertyOp22
 70
     1
102
RTVSPropertyOp23
 70
     1
102
RTVSPropertyOp24
 70
     1
102
RTVSPropertyOp25
 70
     1
102
RTVSPropertyOp26
 70
     1
102
RTVSPropertyOp27
 70
     1
102
RTVSPropertyOp28
 70
     1
102
RTVSPropertyOp29
 70
     1
102
RTVSPropertyOp30
 70
     1
102
RTVSPropertyOp31
 70
     1
102
RTVSPropertyOp32
 70
     1
  0
XRECORD
  5
22D
102
{ACAD_REACTORS
330
22C
102
}
330
22C
100
AcDbXrecord
280
     1
102
RTVSPropertyOp0
 70
     1
102
RTVSPropertyOp1
 70
     1
102
RTVSPropertyOp2
 70
     1
102
RTVSPropertyOp3
 70
     1
102
RTVSPropertyOp4
 70
     1
102
RTVSPropertyOp5
 70
     1
102
RTVSPropertyOp6
 70
     1
102
RTVSPropertyOp7
 70
     1
102
RTVSPropertyOp8
 70
     1
102
RTVSPropertyOp9
 70
     1
102
RTVSPropertyOp10
 70
     1
102
RTVSPropertyOp11
 70
     1
102
RTVSPropertyOp12
 70
     1
102
RTVSPropertyOp13
 70
     1
102
RTVSPropertyOp14
 70
     1
102
RTVSPropertyOp15
 70
     1
102
RTVSPropertyOp16
 70
     1
102
RTVSPropertyOp17
 70
     1
102
RTVSPropertyOp18
 70
     1
102
RTVSPropertyOp19
 70
     1
102
RTVSPropertyOp20
 70
     1
102
RTVSPropertyOp21
 70
     1
102
RTVSPropertyOp22
 70
     1
102
RTVSPropertyOp23
 70
     1
102
RTVSPropertyOp24
 70
     1
102
RTVSPropertyOp25
 70
     1
102
RTVSPropertyOp26
 70
     1
102
RTVSPropertyOp27
 70
     1
102
RTVSPropertyOp28
 70
     1
102
RTVSPropertyOp29
 70
     1
102
RTVSPropertyOp30
 70
     1
102
RTVSPropertyOp31
 70
     1
102
RTVSPropertyOp32
 70
     1
  0
XRECORD
  5
211
102
{ACAD_REACTORS
330
210
102
}
330
210
100
AcDbXrecord
280
     1
102
RTVSPropertyOp0
 70
     1
102
RTVSPropertyOp1
 70
     1
102
RTVSPropertyOp2
 70
     1
102
RTVSPropertyOp3
 70
     1
102
RTVSPropertyOp4
 70
     1
102
RTVSPropertyOp5
 70
     1
102
RTVSPropertyOp6
 70
     1
102
RTVSPropertyOp7
 70
     1
102
RTVSPropertyOp8
 70
     1
102
RTVSPropertyOp9
 70
     1
102
RTVSPropertyOp10
 70
     1
102
RTVSPropertyOp11
 70
     1
102
RTVSPropertyOp12
 70
     1
102
RTVSPropertyOp13
 70
     1
102
RTVSPropertyOp14
 70
     1
102
RTVSPropertyOp15
 70
     1
102
RTVSPropertyOp16
 70
     1
102
RTVSPropertyOp17
 70
     1
102
RTVSPropertyOp18
 70
     1
102
RTVSPropertyOp19
 70
     1
102
RTVSPropertyOp20
 70
     1
102
RTVSPropertyOp21
 70
     1
102
RTVSPropertyOp22
 70
     1
102
RTVSPropertyOp23
 70
     1
102
RTVSPropertyOp24
 70
     1
102
RTVSPropertyOp25
 70
     1
102
RTVSPropertyOp26
 70
     1
102
RTVSPropertyOp27
 70
     1
102
RTVSPropertyOp28
 70
     1
102
RTVSPropertyOp29
 70
     1
102
RTVSPropertyOp30
 70
     1
102
RTVSPropertyOp31
 70
     1
102
RTVSPropertyOp32
 70
     1
  0
XRECORD
  5
213
102
{ACAD_REACTORS
330
212
102
}
330
212
100
AcDbXrecord
280
     1
102
RTVSPropertyOp0
 70
     1
102
RTVSPropertyOp1
 70
     1
102
RTVSPropertyOp2
 70
     1
102
RTVSPropertyOp3
 70
     1
102
RTVSPropertyOp4
 70
     1
102
RTVSPropertyOp5
 70
     1
102
RTVSPropertyOp6
 70
     1
102
RTVSPropertyOp7
 70
     1
102
RTVSPropertyOp8
 70
     1
102
RTVSPropertyOp9
 70
     1
102
RTVSPropertyOp10
 70
     1
102
RTVSPropertyOp11
 70
     1
102
RTVSPropertyOp12
 70
     1
102
RTVSPropertyOp13
 70
     1
102
RTVSPropertyOp14
 70
     1
102
RTVSPropertyOp15
 70
     1
102
RTVSPropertyOp16
 70
     1
102
RTVSPropertyOp17
 70
     1
102
RTVSPropertyOp18
 70
     1
102
RTVSPropertyOp19
 70
     1
102
RTVSPropertyOp20
 70
     1
102
RTVSPropertyOp21
 70
     1
102
RTVSPropertyOp22
 70
     1
102
RTVSPropertyOp23
 70
     1
102
RTVSPropertyOp24
 70
     1
102
RTVSPropertyOp25
 70
     1
102
RTVSPropertyOp26
 70
     1
102
RTVSPropertyOp27
 70
     1
102
RTVSPropertyOp28
 70
     1
102
RTVSPropertyOp29
 70
     1
102
RTVSPropertyOp30
 70
     1
102
RTVSPropertyOp31
 70
     1
102
RTVSPropertyOp32
 70
     1
  0
XRECORD
  5
215
102
{ACAD_REACTORS
330
214
102
}
330
214
100
AcDbXrecord
280
     1
102
RTVSPropertyOp0
 70
     1
102
RTVSPropertyOp1
 70
     1
102
RTVSPropertyOp2
 70
     1
102
RTVSPropertyOp3
 70
     1
102
RTVSPropertyOp4
 70
     1
102
RTVSPropertyOp5
 70
     1
102
RTVSPropertyOp6
 70
     1
102
RTVSPropertyOp7
 70
     1
102
RTVSPropertyOp8
 70
     1
102
RTVSPropertyOp9
 70
     1
102
RTVSPropertyOp10
 70
     1
102
RTVSPropertyOp11
 70
     1
102
RTVSPropertyOp12
 70
     1
102
RTVSPropertyOp13
 70
     1
102
RTVSPropertyOp14
 70
     1
102
RTVSPropertyOp15
 70
     1
102
RTVSPropertyOp16
 70
     1
102
RTVSPropertyOp17
 70
     1
102
RTVSPropertyOp18
 70
     1
102
RTVSPropertyOp19
 70
     1
102
RTVSPropertyOp20
 70
     1
102
RTVSPropertyOp21
 70
     1
102
RTVSPropertyOp22
 70
     1
102
RTVSPropertyOp23
 70
     1
102
RTVSPropertyOp24
 70
     1
102
RTVSPropertyOp25
 70
     1
102
RTVSPropertyOp26
 70
     1
102
RTVSPropertyOp27
 70
     1
102
RTVSPropertyOp28
 70
     1
102
RTVSPropertyOp29
 70
     1
102
RTVSPropertyOp30
 70
     1
102
RTVSPropertyOp31
 70
     1
102
RTVSPropertyOp32
 70
     1
  0
XRECORD
  5
217
102
{ACAD_REACTORS
330
216
102
}
330
216
100
AcDbXrecord
280
     1
102
RTVSPropertyOp0
 70
     1
102
RTVSPropertyOp1
 70
     1
102
RTVSPropertyOp2
 70
     1
102
RTVSPropertyOp3
 70
     1
102
RTVSPropertyOp4
 70
     1
102
RTVSPropertyOp5
 70
     1
102
RTVSPropertyOp6
 70
     1
102
RTVSPropertyOp7
 70
     1
102
RTVSPropertyOp8
 70
     1
102
RTVSPropertyOp9
 70
     1
102
RTVSPropertyOp10
 70
     1
102
RTVSPropertyOp11
 70
     1
102
RTVSPropertyOp12
 70
     1
102
RTVSPropertyOp13
 70
     1
102
RTVSPropertyOp14
 70
     1
102
RTVSPropertyOp15
 70
     1
102
RTVSPropertyOp16
 70
     1
102
RTVSPropertyOp17
 70
     1
102
RTVSPropertyOp18
 70
     1
102
RTVSPropertyOp19
 70
     1
102
RTVSPropertyOp20
 70
     1
102
RTVSPropertyOp21
 70
     1
102
RTVSPropertyOp22
 70
     1
102
RTVSPropertyOp23
 70
     1
102
RTVSPropertyOp24
 70
     1
102
RTVSPropertyOp25
 70
     1
102
RTVSPropertyOp26
 70
     1
102
RTVSPropertyOp27
 70
     1
102
RTVSPropertyOp28
 70
     1
102
RTVSPropertyOp29
 70
     1
102
RTVSPropertyOp30
 70
     1
102
RTVSPropertyOp31
 70
     1
102
RTVSPropertyOp32
 70
     1
  0
XRECORD
  5
22B
102
{ACAD_REACTORS
330
22A
102
}
330
22A
100
AcDbXrecord
280
     1
102
RTVSPropertyOp0
 70
     1
102
RTVSPropertyOp1
 70
     1
102
RTVSPropertyOp2
 70
     1
102
RTVSPropertyOp3
 70
     1
102
RTVSPropertyOp4
 70
     1
102
RTVSPropertyOp5
 70
     1
102
RTVSPropertyOp6
 70
     1
102
RTVSPropertyOp7
 70
     1
102
RTVSPropertyOp8
 70
     1
102
RTVSPropertyOp9
 70
     1
102
RTVSPropertyOp10
 70
     1
102
RTVSPropertyOp11
 70
     1
102
RTVSPropertyOp12
 70
     1
102
RTVSPropertyOp13
 70
     1
102
RTVSPropertyOp14
 70
     1
102
RTVSPropertyOp15
 70
     1
102
RTVSPropertyOp16
 70
     1
102
RTVSPropertyOp17
 70
     1
102
RTVSPropertyOp18
 70
     1
102
RTVSPropertyOp19
 70
     1
102
RTVSPropertyOp20
 70
     1
102
RTVSPropertyOp21
 70
     1
102
RTVSPropertyOp22
 70
     1
102
RTVSPropertyOp23
 70
     1
102
RTVSPropertyOp24
 70
     1
102
RTVSPropertyOp25
 70
     1
102
RTVSPropertyOp26
 70
     1
102
RTVSPropertyOp27
 70
     1
102
RTVSPropertyOp28
 70
     1
102
RTVSPropertyOp29
 70
     1
102
RTVSPropertyOp30
 70
     1
102
RTVSPropertyOp31
 70
     1
102
RTVSPropertyOp32
 70
     1
  0
XRECORD
  5
221
102
{ACAD_REACTORS
330
220
102
}
330
220
100
AcDbXrecord
280
     1
102
RTVSPropertyOp0
 70
     1
102
RTVSPropertyOp1
 70
     1
102
RTVSPropertyOp2
 70
     1
102
RTVSPropertyOp3
 70
     1
102
RTVSPropertyOp4
 70
     1
102
RTVSPropertyOp5
 70
     1
102
RTVSPropertyOp6
 70
     1
102
RTVSPropertyOp7
 70
     1
102
RTVSPropertyOp8
 70
     1
102
RTVSPropertyOp9
 70
     1
102
RTVSPropertyOp10
 70
     1
102
RTVSPropertyOp11
 70
     1
102
RTVSPropertyOp12
 70
     1
102
RTVSPropertyOp13
 70
     1
102
RTVSPropertyOp14
 70
     1
102
RTVSPropertyOp15
 70
     1
102
RTVSPropertyOp16
 70
     1
102
RTVSPropertyOp17
 70
     1
102
RTVSPropertyOp18
 70
     1
102
RTVSPropertyOp19
 70
     1
102
RTVSPropertyOp20
 70
     1
102
RTVSPropertyOp21
 70
     1
102
RTVSPropertyOp22
 70
     1
102
RTVSPropertyOp23
 70
     1
102
RTVSPropertyOp24
 70
     1
102
RTVSPropertyOp25
 70
     1
102
RTVSPropertyOp26
 70
     1
102
RTVSPropertyOp27
 70
     1
102
RTVSPropertyOp28
 70
     1
102
RTVSPropertyOp29
 70
     1
102
RTVSPropertyOp30
 70
     1
102
RTVSPropertyOp31
 70
     1
102
RTVSPropertyOp32
 70
     1
  0
XRECORD
  5
229
102
{ACAD_REACTORS
330
228
102
}
330
228
100
AcDbXrecord
280
     1
102
RTVSPropertyOp0
 70
     1
102
RTVSPropertyOp1
 70
     1
102
RTVSPropertyOp2
 70
     1
102
RTVSPropertyOp3
 70
     1
102
RTVSPropertyOp4
 70
     1
102
RTVSPropertyOp5
 70
     1
102
RTVSPropertyOp6
 70
     1
102
RTVSPropertyOp7
 70
     1
102
RTVSPropertyOp8
 70
     1
102
RTVSPropertyOp9
 70
     1
102
RTVSPropertyOp10
 70
     1
102
RTVSPropertyOp11
 70
     1
102
RTVSPropertyOp12
 70
     1
102
RTVSPropertyOp13
 70
     1
102
RTVSPropertyOp14
 70
     1
102
RTVSPropertyOp15
 70
     1
102
RTVSPropertyOp16
 70
     1
102
RTVSPropertyOp17
 70
     1
102
RTVSPropertyOp18
 70
     1
102
RTVSPropertyOp19
 70
     1
102
RTVSPropertyOp20
 70
     1
102
RTVSPropertyOp21
 70
     1
102
RTVSPropertyOp22
 70
     1
102
RTVSPropertyOp23
 70
     1
102
RTVSPropertyOp24
 70
     1
102
RTVSPropertyOp25
 70
     1
102
RTVSPropertyOp26
 70
     1
102
RTVSPropertyOp27
 70
     1
102
RTVSPropertyOp28
 70
     1
102
RTVSPropertyOp29
 70
     1
102
RTVSPropertyOp30
 70
     1
102
RTVSPropertyOp31
 70
     1
102
RTVSPropertyOp32
 70
     1
  0
ENDSEC
  0
EOF
