  0
SECTION
  2
HEADER
  9
$ACADVER
  1
AC1012
  9
$DWGCODEPAGE
  3
ansi_932
  9
$INSBASE
 10
591.720957
 20
8.11036
 30
0.0
  9
$EXTMIN
 10
591.720957
 20
8.11036
 30
0.0
  9
$EXTMAX
 10
962.970964
 20
270.610366
 30
0.0
  9
$LIMMIN
 10
591.720957
 20
8.11036
  9
$LIMMAX
 10
962.970964
 20
270.610366
  9
$ORTHOMODE
 70
     0
  9
$REGENMODE
 70
     1
  9
$FILLMODE
 70
     1
  9
$QTEXTMODE
 70
     0
  9
$MIRRTEXT
 70
     1
  9
$DRAGMODE
 70
     2
  9
$LTSCALE
 40
1.0
  9
$OSMODE
 70
    37
  9
$ATTMODE
 70
     1
  9
$TEXTSIZE
 40
0.2
  9
$TRACEWID
 40
0.05
  9
$TEXTSTYLE
  7
STYLE1
  9
$CLAYER
  8
0
  9
$CELTYPE
  6
BYLAYER
  9
$CECOLOR
 62
   256
  9
$CELTSCALE
 40
1.0
  9
$DELOBJ
 70
     1
  9
$DISPSILH
 70
     0
  9
$DIMSCALE
 40
1.0
  9
$DIMASZ
 40
2.0
  9
$DIMEXO
 40
2.0
  9
$DIMDLI
 40
7.0
  9
$DIMRND
 40
0.0
  9
$DIMDLE
 40
6.0
  9
$DIMEXE
 40
1.0
  9
$DIMTP
 40
0.0
  9
$DIMTM
 40
0.0
  9
$DIMTXT
 40
3.5
  9
$DIMCEN
 40
2.5
  9
$DIMTSZ
 40
0.0
  9
$DIMTOL
 70
     0
  9
$DIMLIM
 70
     0
  9
$DIMTIH
 70
     0
  9
$DIMTOH
 70
     0
  9
$DIMSE1
 70
     0
  9
$DIMSE2
 70
     0
  9
$DIMTAD
 70
     1
  9
$DIMZIN
 70
     8
  9
$DIMBLK
  1

  9
$DIMASO
 70
     1
  9
$DIMSHO
 70
     1
  9
$DIMPOST
  1

  9
$DIMAPOST
  1

  9
$DIMALT
 70
     0
  9
$DIMALTD
 70
     3
  9
$DIMALTF
 40
0.03937
  9
$DIMLFAC
 40
1.0
  9
$DIMTOFL
 70
     1
  9
$DIMTVP
 40
0.0
  9
$DIMTIX
 70
     0
  9
$DIMSOXD
 70
     0
  9
$DIMSAH
 70
     1
  9
$DIMBLK1
  1
FXTIP_ARROW_S
  9
$DIMBLK2
  1
FXTIP_ARROW_E
  9
$DIMSTYLE
  2
FXDIMINFO
  9
$DIMCLRD
 70
     7
  9
$DIMCLRE
 70
     7
  9
$DIMCLRT
 70
     7
  9
$DIMTFAC
 40
1.0
  9
$DIMGAP
 40
1.0
  9
$DIMJUST
 70
     0
  9
$DIMSD1
 70
     0
  9
$DIMSD2
 70
     0
  9
$DIMTOLJ
 70
     0
  9
$DIMTZIN
 70
     8
  9
$DIMALTZ
 70
     0
  9
$DIMALTTZ
 70
     0
  9
$DIMFIT
 70
     3
  9
$DIMUPT
 70
     0
  9
$DIMUNIT
 70
     2
  9
$DIMDEC
 70
     2
  9
$DIMTDEC
 70
     2
  9
$DIMALTU
 70
     2
  9
$DIMALTTD
 70
     3
  9
$DIMTXSTY
  7
STYLE1
  9
$DIMAUNIT
 70
     0
  9
$LUNITS
 70
     2
  9
$LUPREC
 70
     4
  9
$SKETCHINC
 40
0.1
  9
$FILLETRAD
 40
0.5
  9
$AUNITS
 70
     0
  9
$AUPREC
 70
     0
  9
$MENU
  1
.
  9
$ELEVATION
 40
0.0
  9
$PELEVATION
 40
0.0
  9
$THICKNESS
 40
0.0
  9
$LIMCHECK
 70
     0
  9
$CHAMFERA
 40
0.5
  9
$CHAMFERB
 40
0.5
  9
$CHAMFERC
 40
1.0
  9
$CHAMFERD
 40
0.0
  9
$SKPOLY
 70
     0
  9
$TDCREATE
 40
2455587.665524988
  9
$TDUPDATE
 40
2455587.665525
  9
$TDINDWG
 40
0.0000000116
  9
$TDUSRTIMER
 40
0.0000000116
  9
$USRTIMER
 70
     1
  9
$ANGBASE
 50
0.0
  9
$ANGDIR
 70
     0
  9
$PDMODE
 70
     0
  9
$PDSIZE
 40
0.0
  9
$PLINEWID
 40
0.0
  9
$COORDS
 70
     1
  9
$SPLFRAME
 70
     0
  9
$SPLINETYPE
 70
     6
  9
$SPLINESEGS
 70
     8
  9
$ATTDIA
 70
     0
  9
$ATTREQ
 70
     1
  9
$HANDLING
 70
     1
  9
$HANDSEED
  5
700
  9
$SURFTAB1
 70
     6
  9
$SURFTAB2
 70
     6
  9
$SURFTYPE
 70
     6
  9
$SURFU
 70
     6
  9
$SURFV
 70
     6
  9
$UCSNAME
  2

  9
$UCSORG
 10
0.0
 20
0.0
 30
0.0
  9
$UCSXDIR
 10
1.0
 20
0.0
 30
0.0
  9
$UCSYDIR
 10
0.0
 20
1.0
 30
0.0
  9
$PUCSNAME
  2

  9
$PUCSORG
 10
0.0
 20
0.0
 30
0.0
  9
$PUCSXDIR
 10
1.0
 20
0.0
 30
0.0
  9
$PUCSYDIR
 10
0.0
 20
1.0
 30
0.0
  9
$USERI1
 70
     0
  9
$USERI2
 70
     0
  9
$USERI3
 70
     0
  9
$USERI4
 70
     0
  9
$USERI5
 70
     0
  9
$USERR1
 40
0.0
  9
$USERR2
 40
0.0
  9
$USERR3
 40
0.0
  9
$USERR4
 40
0.0
  9
$USERR5
 40
0.0
  9
$WORLDVIEW
 70
     1
  9
$SHADEDGE
 70
     3
  9
$SHADEDIF
 70
    70
  9
$TILEMODE
 70
     1
  9
$MAXACTVP
 70
    64
  9
$PINSBASE
 10
0.0
 20
0.0
 30
0.0
  9
$PLIMCHECK
 70
     0
  9
$PEXTMIN
 10
1.000000E+20
 20
1.000000E+20
 30
1.000000E+20
  9
$PEXTMAX
 10
-1.000000E+20
 20
-1.000000E+20
 30
-1.000000E+20
  9
$PLIMMIN
 10
0.0
 20
0.0
  9
$PLIMMAX
 10
12.0
 20
9.0
  9
$UNITMODE
 70
     0
  9
$VISRETAIN
 70
     1
  9
$PLINEGEN
 70
     0
  9
$PSLTSCALE
 70
     1
  9
$TREEDEPTH
 70
  3020
  9
$PICKSTYLE
 70
     1
  9
$CMLSTYLE
  2
STANDARD
  9
$CMLJUST
 70
     0
  9
$CMLSCALE
 40
1.0
  9
$SAVEIMAGES
 70
     1
  0
ENDSEC
  0
SECTION
  2
CLASSES
  0
CLASS
  1
ACDBDICTIONARYWDFLT
  2
AcDbDictionaryWithDefault
  3
ObjectDBX Classes
 90
        0
280
     0
281
     0
  0
CLASS
  1
XRECORD
  2
AcDbXrecord
  3
AutoCAD 2000
 90
    32768
280
     0
281
     0
  0
CLASS
  1
LWPOLYLINE
  2
AcDbPolyline
  3
AutoCAD 2000
 90
    32768
280
     0
281
     1
  0
CLASS
  1
HATCH
  2
AcDbHatch
  3
AutoCAD 2000
 90
    32768
280
     0
281
     1
  0
CLASS
  1
ACDBPLACEHOLDER
  2
AcDbPlaceHolder
  3
ObjectDBX Classes
 90
        0
280
     0
281
     0
  0
CLASS
  1
LAYOUT
  2
AcDbLayout
  3
ObjectDBX Classes
 90
        0
280
     0
281
     0
  0
ENDSEC
  0
SECTION
  2
TABLES
  0
TABLE
  2
VPORT
  5
8
330
0
100
AcDbSymbolTable
 70
     1
  0
VPORT
  5
29
102
{ACAD_XDICTIONARY
360
6FE
102
}
330
8
100
AcDbSymbolTableRecord
100
AcDbViewportTableRecord
  2
*ACTIVE
 70
     0
 10
0.0
 20
0.0
 11
1.0
 21
1.0
 12
777.34596
 22
139.360363
 13
0.0
 23
0.0
 14
0.5
 24
0.5
 15
0.5
 25
0.5
 16
0.0
 26
0.0
 36
1.0
 17
0.0
 27
0.0
 37
0.0
 40
262.500005
 41
1.414286
 42
50.0
 43
0.0
 44
0.0
 50
0.0
 51
0.0
 71
     0
 72
   100
 73
     1
 74
     3
 75
     0
 76
     0
 77
     0
 78
     0
  0
ENDTAB
  0
TABLE
  2
LTYPE
  5
5
330
0
100
AcDbSymbolTable
 70
     6
  0
LTYPE
  5
14
330
5
100
AcDbSymbolTableRecord
100
AcDbLinetypeTableRecord
  2
BYBLOCK
 70
     0
  3

 72
    65
 73
     0
 40
0.0
  0
LTYPE
  5
15
330
5
100
AcDbSymbolTableRecord
100
AcDbLinetypeTableRecord
  2
BYLAYER
 70
     0
  3

 72
    65
 73
     0
 40
0.0
  0
LTYPE
  5
16
330
5
100
AcDbSymbolTableRecord
100
AcDbLinetypeTableRecord
  2
CONTINUOUS
 70
     0
  3
--------------------
 72
    65
 73
     0
 40
0.0
  0
LTYPE
  5
A6
330
5
100
AcDbSymbolTableRecord
100
AcDbLinetypeTableRecord
  2
極太の実線
 70
     0
  3

 72
    65
 73
     0
 40
0.0
  0
LTYPE
  5
AF
330
5
100
AcDbSymbolTableRecord
100
AcDbLinetypeTableRecord
  2
太い実線
 70
     0
  3

 72
    65
 73
     0
 40
0.0
  0
LTYPE
  5
B6
330
5
100
AcDbSymbolTableRecord
100
AcDbLinetypeTableRecord
  2
細い実線
 70
     0
  3

 72
    65
 73
     0
 40
0.0
  0
LTYPE
  5
CC
330
5
100
AcDbSymbolTableRecord
100
AcDbLinetypeTableRecord
  2
020-1-CENTER2
 70
     0
  3

 72
    65
 73
     4
 40
1.0
 49
0.7
 74
     0
 49
-0.1
 74
     0
 49
0.1
 74
     0
 49
-0.1
 74
     0
  0
LTYPE
  5
5B0
330
5
100
AcDbSymbolTableRecord
100
AcDbLinetypeTableRecord
  2
HIDDEN2
 70
     0
  3

 72
    65
 73
     2
 40
0.2
 49
0.1
 74
     0
 49
-0.1
 74
     0
  0
ENDTAB
  0
TABLE
  2
LAYER
  5
2
330
0
100
AcDbSymbolTable
 70
    19
  0
LAYER
  5
10
330
2
100
AcDbSymbolTableRecord
100
AcDbLayerTableRecord
  2
0
 70
     0
 62
     7
  6
CONTINUOUS
  0
LAYER
  5
A5
330
2
100
AcDbSymbolTableRecord
100
AcDbLayerTableRecord
  2
GR1-1
 70
     0
 62
     7
  6
CONTINUOUS
  0
ENDTAB
  0
TABLE
  2
STYLE
  5
3
330
0
100
AcDbSymbolTable
 70
     4
  0
STYLE
  5
11
330
3
100
AcDbSymbolTableRecord
100
AcDbTextStyleTableRecord
  2
STANDARD
 70
     0
 40
0.0
 41
1.0
 50
0.0
 71
     0
 42
0.2
  3
txt
  4

  0
STYLE
  5
3C
330
3
100
AcDbSymbolTableRecord
100
AcDbTextStyleTableRecord
  2
STYLE1
 70
     0
 40
0.0
 41
1.0
 50
0.0
 71
     0
 42
0.2
  3
MONOTXT.SHX
  4
extfont.shx
  0
STYLE
  5
3D
330
3
100
AcDbSymbolTableRecord
100
AcDbTextStyleTableRecord
  2
FX_VECTOR
 70
     0
 40
0.0
 41
1.0
 50
0.0
 71
     0
 42
0.2
  3
MONOTXT.SHX
  4
BIGFONT.SHX
  0
ENDTAB
  0
TABLE
  2
VIEW
  5
6
330
0
100
AcDbSymbolTable
 70
     0
  0
ENDTAB
  0
TABLE
  2
UCS
  5
7
330
0
100
AcDbSymbolTable
 70
     0
  0
ENDTAB
  0
TABLE
  2
APPID
  5
9
330
0
100
AcDbSymbolTable
 70
     1
  0
APPID
  5
12
330
9
100
AcDbSymbolTableRecord
100
AcDbRegAppTableRecord
  2
ACAD
 70
     0
  0
ENDTAB
  0
TABLE
  2
DIMSTYLE
  5
A
330
0
100
AcDbSymbolTable
 70
     2
  0
DIMSTYLE
105
27
330
A
100
AcDbSymbolTableRecord
100
AcDbDimStyleTableRecord
  2
STANDARD
 70
     0
  3

  4

  5

  6

  7

 40
1.0
 41
0.18
 42
0.0625
 43
0.38
 44
0.18
 45
0.0
 46
0.0
 47
0.0
 48
0.0
140
0.18
141
0.09
142
0.0
143
25.4
144
1.0
145
0.0
146
1.0
147
0.09
 71
     0
 72
     0
 73
     1
 74
     1
 75
     0
 76
     0
 77
     0
 78
     0
170
     0
171
     2
172
     0
173
     0
174
     0
175
     0
176
     0
177
     0
178
     0
270
     2
271
     4
272
     4
273
     2
274
     2
340
11
275
     0
280
     0
281
     0
282
     0
283
     1
284
     0
285
     0
286
     0
287
     3
288
     0
  0
DIMSTYLE
105
A4
330
A
100
AcDbSymbolTableRecord
100
AcDbDimStyleTableRecord
  2
FXDIMINFO
 70
     0
  3

  4

  5

  6
FXTIP_ARROW_S
  7
FXTIP_ARROW_E
 40
1.0
 41
2.0
 42
2.0
 43
7.0
 44
1.0
 45
0.0
 46
6.0
 47
0.0
 48
0.0
140
3.5
141
2.5
142
0.0
143
0.03937
144
1.0
145
0.0
146
1.0
147
1.0
 71
     0
 72
     0
 73
     0
 74
     0
 75
     0
 76
     0
 77
     1
 78
     8
170
     0
171
     3
172
     1
173
     1
174
     0
175
     0
176
     7
177
     7
178
     7
179
     2
270
     2
271
     2
272
     2
273
     2
274
     3
340
3C
275
     0
280
     0
281
     0
282
     0
283
     0
284
     8
285
     0
286
     0
287
     3
288
     0
  0
ENDTAB
  0
TABLE
  2
BLOCK_RECORD
  5
1
330
0
100
AcDbSymbolTable
 70
   108
  0
BLOCK_RECORD
  5
1F
330
1
100
AcDbSymbolTableRecord
100
AcDbBlockTableRecord
  2
*MODEL_SPACE
  0
BLOCK_RECORD
  5
1B
330
1
100
AcDbSymbolTableRecord
100
AcDbBlockTableRecord
  2
*PAPER_SPACE
  0
BLOCK_RECORD
  5
3E
330
1
100
AcDbSymbolTableRecord
100
AcDbBlockTableRecord
  2
FXTIP_ARROW_S
  0
BLOCK_RECORD
  5
44
330
1
100
AcDbSymbolTableRecord
100
AcDbBlockTableRecord
  2
FXTIP_ARROW_E
  0
BLOCK_RECORD
  5
4A
330
1
100
AcDbSymbolTableRecord
100
AcDbBlockTableRecord
  2
FXTIP_BLACKDOT_S
  0
BLOCK_RECORD
  5
50
330
1
100
AcDbSymbolTableRecord
100
AcDbBlockTableRecord
  2
FXTIP_BLACKDOT_E
  0
BLOCK_RECORD
  5
56
330
1
100
AcDbSymbolTableRecord
100
AcDbBlockTableRecord
  2
FXTIP_TRIANGLE_S
  0
BLOCK_RECORD
  5
5D
330
1
100
AcDbSymbolTableRecord
100
AcDbBlockTableRecord
  2
FXTIP_TRIANGLE_E
  0
BLOCK_RECORD
  5
64
330
1
100
AcDbSymbolTableRecord
100
AcDbBlockTableRecord
  2
FXTIP_ARCHITECT_S
  0
BLOCK_RECORD
  5
6A
330
1
100
AcDbSymbolTableRecord
100
AcDbBlockTableRecord
  2
FXTIP_ARCHITECT_E
  0
BLOCK_RECORD
  5
70
330
1
100
AcDbSymbolTableRecord
100
AcDbBlockTableRecord
  2
FXTIP_CIVIL_S
  0
BLOCK_RECORD
  5
76
330
1
100
AcDbSymbolTableRecord
100
AcDbBlockTableRecord
  2
FXTIP_CIVIL_E
  0
BLOCK_RECORD
  5
7C
330
1
100
AcDbSymbolTableRecord
100
AcDbBlockTableRecord
  2
FXTIP_WHITEDOT_S
  0
BLOCK_RECORD
  5
81
330
1
100
AcDbSymbolTableRecord
100
AcDbBlockTableRecord
  2
FXTIP_WHITEDOT_E
  0
BLOCK_RECORD
  5
86
330
1
100
AcDbSymbolTableRecord
100
AcDbBlockTableRecord
  2
FXTIP_UPARROW_S
  0
BLOCK_RECORD
  5
8B
330
1
100
AcDbSymbolTableRecord
100
AcDbBlockTableRecord
  2
FXTIP_UPARROW_E
  0
BLOCK_RECORD
  5
90
330
1
100
AcDbSymbolTableRecord
100
AcDbBlockTableRecord
  2
FXTIP_DOWNARROW_S
  0
BLOCK_RECORD
  5
95
330
1
100
AcDbSymbolTableRecord
100
AcDbBlockTableRecord
  2
FXTIP_DOWNARROW_E
  0
BLOCK_RECORD
  5
9A
330
1
100
AcDbSymbolTableRecord
100
AcDbBlockTableRecord
  2
FXTIP_BLACKTRIANGLE_S
  0
BLOCK_RECORD
  5
9F
330
1
100
AcDbSymbolTableRecord
100
AcDbBlockTableRecord
  2
FXTIP_BLACKTRIANGLE_E
  0
BLOCK_RECORD
  5
DC
330
1
100
AcDbSymbolTableRecord
100
AcDbBlockTableRecord
  2
BLKF021
  0
BLOCK_RECORD
  5
EB
330
1
100
AcDbSymbolTableRecord
100
AcDbBlockTableRecord
  2
BLKF022
  0
BLOCK_RECORD
  5
FE
330
1
100
AcDbSymbolTableRecord
100
AcDbBlockTableRecord
  2
BLKF023
  0
BLOCK_RECORD
  5
10D
330
1
100
AcDbSymbolTableRecord
100
AcDbBlockTableRecord
  2
BLKF024
  0
BLOCK_RECORD
  5
115
330
1
100
AcDbSymbolTableRecord
100
AcDbBlockTableRecord
  2
BLKF025
  0
BLOCK_RECORD
  5
121
330
1
100
AcDbSymbolTableRecord
100
AcDbBlockTableRecord
  2
BLKF026
  0
BLOCK_RECORD
  5
130
330
1
100
AcDbSymbolTableRecord
100
AcDbBlockTableRecord
  2
BLKF027
  0
BLOCK_RECORD
  5
13F
330
1
100
AcDbSymbolTableRecord
100
AcDbBlockTableRecord
  2
BLKF028
  0
BLOCK_RECORD
  5
14E
330
1
100
AcDbSymbolTableRecord
100
AcDbBlockTableRecord
  2
BLKF029
  0
BLOCK_RECORD
  5
15D
330
1
100
AcDbSymbolTableRecord
100
AcDbBlockTableRecord
  2
BLKF030
  0
BLOCK_RECORD
  5
16C
330
1
100
AcDbSymbolTableRecord
100
AcDbBlockTableRecord
  2
BLKF031
  0
BLOCK_RECORD
  5
17B
330
1
100
AcDbSymbolTableRecord
100
AcDbBlockTableRecord
  2
BLKF032
  0
BLOCK_RECORD
  5
18A
330
1
100
AcDbSymbolTableRecord
100
AcDbBlockTableRecord
  2
BLKF033
  0
BLOCK_RECORD
  5
198
330
1
100
AcDbSymbolTableRecord
100
AcDbBlockTableRecord
  2
BLKF034
  0
BLOCK_RECORD
  5
1A8
330
1
100
AcDbSymbolTableRecord
100
AcDbBlockTableRecord
  2
BLKF035
  0
BLOCK_RECORD
  5
1B6
330
1
100
AcDbSymbolTableRecord
100
AcDbBlockTableRecord
  2
BLKF036
  0
BLOCK_RECORD
  5
1C5
330
1
100
AcDbSymbolTableRecord
100
AcDbBlockTableRecord
  2
BLKF037
  0
BLOCK_RECORD
  5
1D4
330
1
100
AcDbSymbolTableRecord
100
AcDbBlockTableRecord
  2
BLKF038
  0
BLOCK_RECORD
  5
1E3
330
1
100
AcDbSymbolTableRecord
100
AcDbBlockTableRecord
  2
BLKF039
  0
BLOCK_RECORD
  5
1F2
330
1
100
AcDbSymbolTableRecord
100
AcDbBlockTableRecord
  2
BLKF040
  0
BLOCK_RECORD
  5
201
330
1
100
AcDbSymbolTableRecord
100
AcDbBlockTableRecord
  2
BLKF041
  0
BLOCK_RECORD
  5
210
330
1
100
AcDbSymbolTableRecord
100
AcDbBlockTableRecord
  2
BLKF042
  0
BLOCK_RECORD
  5
21E
330
1
100
AcDbSymbolTableRecord
100
AcDbBlockTableRecord
  2
BLKF043
  0
BLOCK_RECORD
  5
263
330
1
100
AcDbSymbolTableRecord
100
AcDbBlockTableRecord
  2
BLKF044
  0
BLOCK_RECORD
  5
272
330
1
100
AcDbSymbolTableRecord
100
AcDbBlockTableRecord
  2
BLKF045
  0
BLOCK_RECORD
  5
281
330
1
100
AcDbSymbolTableRecord
100
AcDbBlockTableRecord
  2
BLKF046
  0
BLOCK_RECORD
  5
290
330
1
100
AcDbSymbolTableRecord
100
AcDbBlockTableRecord
  2
BLKF047
  0
BLOCK_RECORD
  5
29F
330
1
100
AcDbSymbolTableRecord
100
AcDbBlockTableRecord
  2
BLKF048
  0
BLOCK_RECORD
  5
2AE
330
1
100
AcDbSymbolTableRecord
100
AcDbBlockTableRecord
  2
BLKF049
  0
BLOCK_RECORD
  5
2BD
330
1
100
AcDbSymbolTableRecord
100
AcDbBlockTableRecord
  2
BLKF050
  0
BLOCK_RECORD
  5
2CB
330
1
100
AcDbSymbolTableRecord
100
AcDbBlockTableRecord
  2
BLKF051
  0
BLOCK_RECORD
  5
2D9
330
1
100
AcDbSymbolTableRecord
100
AcDbBlockTableRecord
  2
BLKF052
  0
BLOCK_RECORD
  5
2E8
330
1
100
AcDbSymbolTableRecord
100
AcDbBlockTableRecord
  2
BLKF053
  0
BLOCK_RECORD
  5
2F6
330
1
100
AcDbSymbolTableRecord
100
AcDbBlockTableRecord
  2
BLKF054
  0
BLOCK_RECORD
  5
307
330
1
100
AcDbSymbolTableRecord
100
AcDbBlockTableRecord
  2
BLKF055
  0
BLOCK_RECORD
  5
32B
330
1
100
AcDbSymbolTableRecord
100
AcDbBlockTableRecord
  2
BLKF056
  0
BLOCK_RECORD
  5
33A
330
1
100
AcDbSymbolTableRecord
100
AcDbBlockTableRecord
  2
BLKF057
  0
BLOCK_RECORD
  5
348
330
1
100
AcDbSymbolTableRecord
100
AcDbBlockTableRecord
  2
BLKF058
  0
BLOCK_RECORD
  5
35B
330
1
100
AcDbSymbolTableRecord
100
AcDbBlockTableRecord
  2
BLKF059
  0
BLOCK_RECORD
  5
369
330
1
100
AcDbSymbolTableRecord
100
AcDbBlockTableRecord
  2
BLKF060
  0
BLOCK_RECORD
  5
377
330
1
100
AcDbSymbolTableRecord
100
AcDbBlockTableRecord
  2
BLKF061
  0
BLOCK_RECORD
  5
39A
330
1
100
AcDbSymbolTableRecord
100
AcDbBlockTableRecord
  2
BLKF062
  0
BLOCK_RECORD
  5
3A8
330
1
100
AcDbSymbolTableRecord
100
AcDbBlockTableRecord
  2
BLKF063
  0
BLOCK_RECORD
  5
3B7
330
1
100
AcDbSymbolTableRecord
100
AcDbBlockTableRecord
  2
BLKF064
  0
BLOCK_RECORD
  5
3C6
330
1
100
AcDbSymbolTableRecord
100
AcDbBlockTableRecord
  2
BLKF065
  0
BLOCK_RECORD
  5
3CE
330
1
100
AcDbSymbolTableRecord
100
AcDbBlockTableRecord
  2
BLKF066
  0
BLOCK_RECORD
  5
3DD
330
1
100
AcDbSymbolTableRecord
100
AcDbBlockTableRecord
  2
BLKF067
  0
BLOCK_RECORD
  5
3EB
330
1
100
AcDbSymbolTableRecord
100
AcDbBlockTableRecord
  2
BLKF068
  0
BLOCK_RECORD
  5
3FA
330
1
100
AcDbSymbolTableRecord
100
AcDbBlockTableRecord
  2
BLKF069
  0
BLOCK_RECORD
  5
408
330
1
100
AcDbSymbolTableRecord
100
AcDbBlockTableRecord
  2
BLKF070
  0
BLOCK_RECORD
  5
417
330
1
100
AcDbSymbolTableRecord
100
AcDbBlockTableRecord
  2
BLKF071
  0
BLOCK_RECORD
  5
425
330
1
100
AcDbSymbolTableRecord
100
AcDbBlockTableRecord
  2
BLKF072
  0
BLOCK_RECORD
  5
486
330
1
100
AcDbSymbolTableRecord
100
AcDbBlockTableRecord
  2
BLKF073
  0
BLOCK_RECORD
  5
495
330
1
100
AcDbSymbolTableRecord
100
AcDbBlockTableRecord
  2
BLKF074
  0
BLOCK_RECORD
  5
4A4
330
1
100
AcDbSymbolTableRecord
100
AcDbBlockTableRecord
  2
BLKF075
  0
BLOCK_RECORD
  5
4B2
330
1
100
AcDbSymbolTableRecord
100
AcDbBlockTableRecord
  2
BLKF076
  0
BLOCK_RECORD
  5
4C0
330
1
100
AcDbSymbolTableRecord
100
AcDbBlockTableRecord
  2
BLKF077
  0
BLOCK_RECORD
  5
4D1
330
1
100
AcDbSymbolTableRecord
100
AcDbBlockTableRecord
  2
BLKF078
  0
BLOCK_RECORD
  5
4DF
330
1
100
AcDbSymbolTableRecord
100
AcDbBlockTableRecord
  2
BLKF079
  0
BLOCK_RECORD
  5
4EE
330
1
100
AcDbSymbolTableRecord
100
AcDbBlockTableRecord
  2
BLKF080
  0
BLOCK_RECORD
  5
4FD
330
1
100
AcDbSymbolTableRecord
100
AcDbBlockTableRecord
  2
BLKF081
  0
BLOCK_RECORD
  5
50B
330
1
100
AcDbSymbolTableRecord
100
AcDbBlockTableRecord
  2
BLKF082
  0
BLOCK_RECORD
  5
51A
330
1
100
AcDbSymbolTableRecord
100
AcDbBlockTableRecord
  2
BLKF083
  0
BLOCK_RECORD
  5
528
330
1
100
AcDbSymbolTableRecord
100
AcDbBlockTableRecord
  2
BLKF084
  0
BLOCK_RECORD
  5
536
330
1
100
AcDbSymbolTableRecord
100
AcDbBlockTableRecord
  2
BLKF085
  0
BLOCK_RECORD
  5
545
330
1
100
AcDbSymbolTableRecord
100
AcDbBlockTableRecord
  2
BLKF086
  0
BLOCK_RECORD
  5
553
330
1
100
AcDbSymbolTableRecord
100
AcDbBlockTableRecord
  2
BLKF087
  0
BLOCK_RECORD
  5
562
330
1
100
AcDbSymbolTableRecord
100
AcDbBlockTableRecord
  2
BLKF088
  0
BLOCK_RECORD
  5
574
330
1
100
AcDbSymbolTableRecord
100
AcDbBlockTableRecord
  2
BLKF089
  0
BLOCK_RECORD
  5
583
330
1
100
AcDbSymbolTableRecord
100
AcDbBlockTableRecord
  2
BLKF090
  0
BLOCK_RECORD
  5
591
330
1
100
AcDbSymbolTableRecord
100
AcDbBlockTableRecord
  2
BLKF091
  0
BLOCK_RECORD
  5
5A0
330
1
100
AcDbSymbolTableRecord
100
AcDbBlockTableRecord
  2
BLKF092
  0
BLOCK_RECORD
  5
5B9
330
1
100
AcDbSymbolTableRecord
100
AcDbBlockTableRecord
  2
BLKF093
  0
BLOCK_RECORD
  5
5C7
330
1
100
AcDbSymbolTableRecord
100
AcDbBlockTableRecord
  2
BLKF094
  0
BLOCK_RECORD
  5
5D6
330
1
100
AcDbSymbolTableRecord
100
AcDbBlockTableRecord
  2
BLKF095
  0
BLOCK_RECORD
  5
5E4
330
1
100
AcDbSymbolTableRecord
100
AcDbBlockTableRecord
  2
BLKF096
  0
BLOCK_RECORD
  5
5F9
330
1
100
AcDbSymbolTableRecord
100
AcDbBlockTableRecord
  2
BLKF097
  0
BLOCK_RECORD
  5
60A
330
1
100
AcDbSymbolTableRecord
100
AcDbBlockTableRecord
  2
BLKF098
  0
BLOCK_RECORD
  5
621
330
1
100
AcDbSymbolTableRecord
100
AcDbBlockTableRecord
  2
BLKF099
  0
BLOCK_RECORD
  5
62F
330
1
100
AcDbSymbolTableRecord
100
AcDbBlockTableRecord
  2
BLKF100
  0
BLOCK_RECORD
  5
63D
330
1
100
AcDbSymbolTableRecord
100
AcDbBlockTableRecord
  2
BLKF101
  0
BLOCK_RECORD
  5
64B
330
1
100
AcDbSymbolTableRecord
100
AcDbBlockTableRecord
  2
BLKF102
  0
BLOCK_RECORD
  5
659
330
1
100
AcDbSymbolTableRecord
100
AcDbBlockTableRecord
  2
BLKF103
  0
BLOCK_RECORD
  5
671
330
1
100
AcDbSymbolTableRecord
100
AcDbBlockTableRecord
  2
BLKF104
  0
BLOCK_RECORD
  5
683
330
1
100
AcDbSymbolTableRecord
100
AcDbBlockTableRecord
  2
BLKF105
  0
BLOCK_RECORD
  5
6C3
330
1
100
AcDbSymbolTableRecord
100
AcDbBlockTableRecord
  2
BLKF106
  0
BLOCK_RECORD
  5
6DC
330
1
100
AcDbSymbolTableRecord
100
AcDbBlockTableRecord
  2
BLKF107
  0
BLOCK_RECORD
  5
6E6
330
1
100
AcDbSymbolTableRecord
100
AcDbBlockTableRecord
  2
BLKF108
  0
BLOCK_RECORD
  5
6EF
330
1
100
AcDbSymbolTableRecord
100
AcDbBlockTableRecord
  2
BLKF109
  0
ENDTAB
  0
ENDSEC
  0
SECTION
  2
BLOCKS
  0
BLOCK
  5
20
330
1F
100
AcDbEntity
  8
0
100
AcDbBlockBegin
  2
*MODEL_SPACE
 70
     0
 71
     0
 10
0.0
 20
0.0
 30
0.0
  3
*MODEL_SPACE
  1

  0
ENDBLK
  5
21
330
1F
100
AcDbEntity
  8
0
100
AcDbBlockEnd
  0
BLOCK
  5
1C
330
1B
100
AcDbEntity
 67
     1
  8
0
100
AcDbBlockBegin
  2
*PAPER_SPACE
 70
     0
 71
     0
 10
0.0
 20
0.0
 30
0.0
  3
*PAPER_SPACE
  1

  0
ENDBLK
  5
1D
330
1B
100
AcDbEntity
 67
     1
  8
0
100
AcDbBlockEnd
  0
BLOCK
  5
3F
330
3E
100
AcDbEntity
  8
0
100
AcDbBlockBegin
  2
FXTIP_ARROW_S
 70
     0
 71
     0
 10
0.0
 20
0.0
 30
0.0
  3
FXTIP_ARROW_S
  1

  0
LINE
  5
41
330
3E
100
AcDbEntity
  8
0
  6
CONTINUOUS
 62
     0
100
AcDbLine
 10
0.0
 20
0.0
 30
0.0
 11
-1.0
 21
0.0
 31
0.0
  0
LINE
  5
42
330
3E
100
AcDbEntity
  8
0
  6
CONTINUOUS
 62
     0
100
AcDbLine
 10
0.0
 20
0.0
 30
0.0
 11
-0.965926
 21
-0.258819
 31
0.0
  0
LINE
  5
43
330
3E
100
AcDbEntity
  8
0
  6
CONTINUOUS
 62
     0
100
AcDbLine
 10
0.0
 20
0.0
 30
0.0
 11
-0.965926
 21
0.258819
 31
0.0
  0
ENDBLK
  5
40
330
3E
100
AcDbEntity
  8
0
100
AcDbBlockEnd
  0
BLOCK
  5
45
330
44
100
AcDbEntity
  8
0
100
AcDbBlockBegin
  2
FXTIP_ARROW_E
 70
     0
 71
     0
 10
0.0
 20
0.0
 30
0.0
  3
FXTIP_ARROW_E
  1

  0
LINE
  5
47
330
44
100
AcDbEntity
  8
0
  6
CONTINUOUS
 62
     0
100
AcDbLine
 10
0.0
 20
0.0
 30
0.0
 11
-1.0
 21
0.0
 31
0.0
  0
LINE
  5
48
330
44
100
AcDbEntity
  8
0
  6
CONTINUOUS
 62
     0
100
AcDbLine
 10
0.0
 20
0.0
 30
0.0
 11
-0.965926
 21
0.258819
 31
0.0
  0
LINE
  5
49
330
44
100
AcDbEntity
  8
0
  6
CONTINUOUS
 62
     0
100
AcDbLine
 10
0.0
 20
0.0
 30
0.0
 11
-0.965926
 21
-0.258819
 31
0.0
  0
ENDBLK
  5
46
330
44
100
AcDbEntity
  8
0
100
AcDbBlockEnd
  0
BLOCK
  5
4B
330
4A
100
AcDbEntity
  8
0
100
AcDbBlockBegin
  2
FXTIP_BLACKDOT_S
 70
     0
 71
     0
 10
0.0
 20
0.0
 30
0.0
  3
FXTIP_BLACKDOT_S
  1

  0
LINE
  5
4D
330
4A
100
AcDbEntity
  8
0
  6
CONTINUOUS
 62
     0
100
AcDbLine
 10
0.0
 20
0.0
 30
0.0
 11
-1.0
 21
0.0
 31
0.0
  0
POLYLINE
  5
4E
330
4A
100
AcDbEntity
  8
0
  6
CONTINUOUS
 62
     0
100
AcDb2dPolyline
 66
     1
 10
0.0
 20
0.0
 30
0.0
 70
     1
  0
VERTEX
  5
6F9
330
4E
100
AcDbEntity
  8
0
  6
CONTINUOUS
 62
     0
100
AcDbVertex
100
AcDb2dVertex
 10
-0.25
 20
0.0
 30
0.0
 40
0.5
 41
0.5
 42
1.0
  0
VERTEX
  5
6FA
330
4E
100
AcDbEntity
  8
0
  6
CONTINUOUS
 62
     0
100
AcDbVertex
100
AcDb2dVertex
 10
0.25
 20
0.0
 30
0.0
 40
0.5
 41
0.5
 42
1.0
  0
SEQEND
  5
6F8
330
4E
100
AcDbEntity
  8
0
  6
CONTINUOUS
 62
     0
  0
CIRCLE
  5
4F
330
4A
100
AcDbEntity
  8
0
  6
CONTINUOUS
 62
     0
100
AcDbCircle
 10
0.0
 20
0.0
 30
0.0
 40
0.5
  0
ENDBLK
  5
4C
330
4A
100
AcDbEntity
  8
0
100
AcDbBlockEnd
  0
BLOCK
  5
51
330
50
100
AcDbEntity
  8
0
100
AcDbBlockBegin
  2
FXTIP_BLACKDOT_E
 70
     0
 71
     0
 10
0.0
 20
0.0
 30
0.0
  3
FXTIP_BLACKDOT_E
  1

  0
LINE
  5
53
330
50
100
AcDbEntity
  8
0
  6
CONTINUOUS
 62
     0
100
AcDbLine
 10
0.0
 20
0.0
 30
0.0
 11
-1.0
 21
0.0
 31
0.0
  0
POLYLINE
  5
54
330
50
100
AcDbEntity
  8
0
  6
CONTINUOUS
 62
     0
100
AcDb2dPolyline
 66
     1
 10
0.0
 20
0.0
 30
0.0
 70
     1
  0
VERTEX
  5
6FC
330
54
100
AcDbEntity
  8
0
  6
CONTINUOUS
 62
     0
100
AcDbVertex
100
AcDb2dVertex
 10
-0.25
 20
0.0
 30
0.0
 40
0.5
 41
0.5
 42
1.0
  0
VERTEX
  5
6FD
330
54
100
AcDbEntity
  8
0
  6
CONTINUOUS
 62
     0
100
AcDbVertex
100
AcDb2dVertex
 10
0.25
 20
0.0
 30
0.0
 40
0.5
 41
0.5
 42
1.0
  0
SEQEND
  5
6FB
330
54
100
AcDbEntity
  8
0
  6
CONTINUOUS
 62
     0
  0
CIRCLE
  5
55
330
50
100
AcDbEntity
  8
0
  6
CONTINUOUS
 62
     0
100
AcDbCircle
 10
0.0
 20
0.0
 30
0.0
 40
0.5
  0
ENDBLK
  5
52
330
50
100
AcDbEntity
  8
0
100
AcDbBlockEnd
  0
BLOCK
  5
57
330
56
100
AcDbEntity
  8
0
100
AcDbBlockBegin
  2
FXTIP_TRIANGLE_S
 70
     0
 71
     0
 10
0.0
 20
0.0
 30
0.0
  3
FXTIP_TRIANGLE_S
  1

  0
LINE
  5
59
330
56
100
AcDbEntity
  8
0
  6
CONTINUOUS
 62
     0
100
AcDbLine
 10
0.0
 20
0.0
 30
0.0
 11
-1.0
 21
0.0
 31
0.0
  0
LINE
  5
5A
330
56
100
AcDbEntity
  8
0
  6
CONTINUOUS
 62
     0
100
AcDbLine
 10
0.0
 20
0.0
 30
0.0
 11
-0.965926
 21
-0.258819
 31
0.0
  0
LINE
  5
5B
330
56
100
AcDbEntity
  8
0
  6
CONTINUOUS
 62
     0
100
AcDbLine
 10
0.0
 20
0.0
 30
0.0
 11
-0.965926
 21
0.258819
 31
0.0
  0
LINE
  5
5C
330
56
100
AcDbEntity
  8
0
  6
CONTINUOUS
 62
     0
100
AcDbLine
 10
-0.965926
 20
-0.258819
 30
0.0
 11
-0.965926
 21
0.258819
 31
0.0
  0
ENDBLK
  5
58
330
56
100
AcDbEntity
  8
0
100
AcDbBlockEnd
  0
BLOCK
  5
5E
330
5D
100
AcDbEntity
  8
0
100
AcDbBlockBegin
  2
FXTIP_TRIANGLE_E
 70
     0
 71
     0
 10
0.0
 20
0.0
 30
0.0
  3
FXTIP_TRIANGLE_E
  1

  0
LINE
  5
60
330
5D
100
AcDbEntity
  8
0
  6
CONTINUOUS
 62
     0
100
AcDbLine
 10
0.0
 20
0.0
 30
0.0
 11
-1.0
 21
0.0
 31
0.0
  0
LINE
  5
61
330
5D
100
AcDbEntity
  8
0
  6
CONTINUOUS
 62
     0
100
AcDbLine
 10
0.0
 20
0.0
 30
0.0
 11
-0.965926
 21
0.258819
 31
0.0
  0
LINE
  5
62
330
5D
100
AcDbEntity
  8
0
  6
CONTINUOUS
 62
     0
100
AcDbLine
 10
0.0
 20
0.0
 30
0.0
 11
-0.965926
 21
-0.258819
 31
0.0
  0
LINE
  5
63
330
5D
100
AcDbEntity
  8
0
  6
CONTINUOUS
 62
     0
100
AcDbLine
 10
-0.965926
 20
0.258819
 30
0.0
 11
-0.965926
 21
-0.258819
 31
0.0
  0
ENDBLK
  5
5F
330
5D
100
AcDbEntity
  8
0
100
AcDbBlockEnd
  0
BLOCK
  5
65
330
64
100
AcDbEntity
  8
0
100
AcDbBlockBegin
  2
FXTIP_ARCHITECT_S
 70
     0
 71
     0
 10
0.0
 20
0.0
 30
0.0
  3
FXTIP_ARCHITECT_S
  1

  0
LINE
  5
67
330
64
100
AcDbEntity
  8
0
  6
CONTINUOUS
 62
     0
100
AcDbLine
 10
0.0
 20
0.0
 30
0.0
 11
-1.0
 21
0.0
 31
0.0
  0
LINE
  5
68
330
64
100
AcDbEntity
  8
0
  6
CONTINUOUS
 62
     0
100
AcDbLine
 10
0.0
 20
0.0
 30
0.0
 11
-0.707107
 21
-0.707107
 31
0.0
  0
LINE
  5
69
330
64
100
AcDbEntity
  8
0
  6
CONTINUOUS
 62
     0
100
AcDbLine
 10
0.0
 20
0.0
 30
0.0
 11
0.707107
 21
0.707107
 31
0.0
  0
ENDBLK
  5
66
330
64
100
AcDbEntity
  8
0
100
AcDbBlockEnd
  0
BLOCK
  5
6B
330
6A
100
AcDbEntity
  8
0
100
AcDbBlockBegin
  2
FXTIP_ARCHITECT_E
 70
     0
 71
     0
 10
0.0
 20
0.0
 30
0.0
  3
FXTIP_ARCHITECT_E
  1

  0
LINE
  5
6D
330
6A
100
AcDbEntity
  8
0
  6
CONTINUOUS
 62
     0
100
AcDbLine
 10
0.0
 20
0.0
 30
0.0
 11
-1.0
 21
0.0
 31
0.0
  0
LINE
  5
6E
330
6A
100
AcDbEntity
  8
0
  6
CONTINUOUS
 62
     0
100
AcDbLine
 10
0.0
 20
0.0
 30
0.0
 11
0.707107
 21
0.707107
 31
0.0
  0
LINE
  5
6F
330
6A
100
AcDbEntity
  8
0
  6
CONTINUOUS
 62
     0
100
AcDbLine
 10
0.0
 20
0.0
 30
0.0
 11
-0.707107
 21
-0.707107
 31
0.0
  0
ENDBLK
  5
6C
330
6A
100
AcDbEntity
  8
0
100
AcDbBlockEnd
  0
BLOCK
  5
71
330
70
100
AcDbEntity
  8
0
100
AcDbBlockBegin
  2
FXTIP_CIVIL_S
 70
     0
 71
     0
 10
0.0
 20
0.0
 30
0.0
  3
FXTIP_CIVIL_S
  1

  0
LINE
  5
73
330
70
100
AcDbEntity
  8
0
  6
CONTINUOUS
 62
     0
100
AcDbLine
 10
0.0
 20
0.0
 30
0.0
 11
-1.0
 21
0.0
 31
0.0
  0
LINE
  5
74
330
70
100
AcDbEntity
  8
0
  6
CONTINUOUS
 62
     0
100
AcDbLine
 10
0.0
 20
-0.125
 30
0.0
 11
-1.0
 21
-0.125
 31
0.0
  0
LINE
  5
75
330
70
100
AcDbEntity
  8
0
  6
CONTINUOUS
 62
     0
100
AcDbLine
 10
0.0
 20
-0.25
 30
0.0
 11
-1.0
 21
-0.25
 31
0.0
  0
ENDBLK
  5
72
330
70
100
AcDbEntity
  8
0
100
AcDbBlockEnd
  0
BLOCK
  5
77
330
76
100
AcDbEntity
  8
0
100
AcDbBlockBegin
  2
FXTIP_CIVIL_E
 70
     0
 71
     0
 10
0.0
 20
0.0
 30
0.0
  3
FXTIP_CIVIL_E
  1

  0
LINE
  5
79
330
76
100
AcDbEntity
  8
0
  6
CONTINUOUS
 62
     0
100
AcDbLine
 10
0.0
 20
0.0
 30
0.0
 11
-1.0
 21
0.0
 31
0.0
  0
LINE
  5
7A
330
76
100
AcDbEntity
  8
0
  6
CONTINUOUS
 62
     0
100
AcDbLine
 10
0.0
 20
0.125
 30
0.0
 11
-1.0
 21
0.125
 31
0.0
  0
LINE
  5
7B
330
76
100
AcDbEntity
  8
0
  6
CONTINUOUS
 62
     0
100
AcDbLine
 10
0.0
 20
0.25
 30
0.0
 11
-1.0
 21
0.25
 31
0.0
  0
ENDBLK
  5
78
330
76
100
AcDbEntity
  8
0
100
AcDbBlockEnd
  0
BLOCK
  5
7D
330
7C
100
AcDbEntity
  8
0
100
AcDbBlockBegin
  2
FXTIP_WHITEDOT_S
 70
     0
 71
     0
 10
0.0
 20
0.0
 30
0.0
  3
FXTIP_WHITEDOT_S
  1

  0
LINE
  5
7F
330
7C
100
AcDbEntity
  8
0
  6
CONTINUOUS
 62
     0
100
AcDbLine
 10
0.0
 20
0.0
 30
0.0
 11
-1.0
 21
0.0
 31
0.0
  0
CIRCLE
  5
80
330
7C
100
AcDbEntity
  8
0
  6
CONTINUOUS
 62
     0
100
AcDbCircle
 10
0.0
 20
0.0
 30
0.0
 40
0.5
  0
ENDBLK
  5
7E
330
7C
100
AcDbEntity
  8
0
100
AcDbBlockEnd
  0
BLOCK
  5
82
330
81
100
AcDbEntity
  8
0
100
AcDbBlockBegin
  2
FXTIP_WHITEDOT_E
 70
     0
 71
     0
 10
0.0
 20
0.0
 30
0.0
  3
FXTIP_WHITEDOT_E
  1

  0
LINE
  5
84
330
81
100
AcDbEntity
  8
0
  6
CONTINUOUS
 62
     0
100
AcDbLine
 10
0.0
 20
0.0
 30
0.0
 11
-1.0
 21
0.0
 31
0.0
  0
CIRCLE
  5
85
330
81
100
AcDbEntity
  8
0
  6
CONTINUOUS
 62
     0
100
AcDbCircle
 10
0.0
 20
0.0
 30
0.0
 40
0.5
  0
ENDBLK
  5
83
330
81
100
AcDbEntity
  8
0
100
AcDbBlockEnd
  0
BLOCK
  5
87
330
86
100
AcDbEntity
  8
0
100
AcDbBlockBegin
  2
FXTIP_UPARROW_S
 70
     0
 71
     0
 10
0.0
 20
0.0
 30
0.0
  3
FXTIP_UPARROW_S
  1

  0
LINE
  5
89
330
86
100
AcDbEntity
  8
0
  6
CONTINUOUS
 62
     0
100
AcDbLine
 10
0.0
 20
0.0
 30
0.0
 11
-1.0
 21
0.0
 31
0.0
  0
LINE
  5
8A
330
86
100
AcDbEntity
  8
0
  6
CONTINUOUS
 62
     0
100
AcDbLine
 10
0.0
 20
0.0
 30
0.0
 11
-0.965926
 21
-0.258819
 31
0.0
  0
ENDBLK
  5
88
330
86
100
AcDbEntity
  8
0
100
AcDbBlockEnd
  0
BLOCK
  5
8C
330
8B
100
AcDbEntity
  8
0
100
AcDbBlockBegin
  2
FXTIP_UPARROW_E
 70
     0
 71
     0
 10
0.0
 20
0.0
 30
0.0
  3
FXTIP_UPARROW_E
  1

  0
LINE
  5
8E
330
8B
100
AcDbEntity
  8
0
  6
CONTINUOUS
 62
     0
100
AcDbLine
 10
0.0
 20
0.0
 30
0.0
 11
-1.0
 21
0.0
 31
0.0
  0
LINE
  5
8F
330
8B
100
AcDbEntity
  8
0
  6
CONTINUOUS
 62
     0
100
AcDbLine
 10
0.0
 20
0.0
 30
0.0
 11
-0.965926
 21
0.258819
 31
0.0
  0
ENDBLK
  5
8D
330
8B
100
AcDbEntity
  8
0
100
AcDbBlockEnd
  0
BLOCK
  5
91
330
90
100
AcDbEntity
  8
0
100
AcDbBlockBegin
  2
FXTIP_DOWNARROW_S
 70
     0
 71
     0
 10
0.0
 20
0.0
 30
0.0
  3
FXTIP_DOWNARROW_S
  1

  0
LINE
  5
93
330
90
100
AcDbEntity
  8
0
  6
CONTINUOUS
 62
     0
100
AcDbLine
 10
0.0
 20
0.0
 30
0.0
 11
-1.0
 21
0.0
 31
0.0
  0
LINE
  5
94
330
90
100
AcDbEntity
  8
0
  6
CONTINUOUS
 62
     0
100
AcDbLine
 10
0.0
 20
0.0
 30
0.0
 11
-0.965926
 21
0.258819
 31
0.0
  0
ENDBLK
  5
92
330
90
100
AcDbEntity
  8
0
100
AcDbBlockEnd
  0
BLOCK
  5
96
330
95
100
AcDbEntity
  8
0
100
AcDbBlockBegin
  2
FXTIP_DOWNARROW_E
 70
     0
 71
     0
 10
0.0
 20
0.0
 30
0.0
  3
FXTIP_DOWNARROW_E
  1

  0
LINE
  5
98
330
95
100
AcDbEntity
  8
0
  6
CONTINUOUS
 62
     0
100
AcDbLine
 10
0.0
 20
0.0
 30
0.0
 11
-1.0
 21
0.0
 31
0.0
  0
LINE
  5
99
330
95
100
AcDbEntity
  8
0
  6
CONTINUOUS
 62
     0
100
AcDbLine
 10
0.0
 20
0.0
 30
0.0
 11
-0.965926
 21
-0.258819
 31
0.0
  0
ENDBLK
  5
97
330
95
100
AcDbEntity
  8
0
100
AcDbBlockEnd
  0
BLOCK
  5
9B
330
9A
100
AcDbEntity
  8
0
100
AcDbBlockBegin
  2
FXTIP_BLACKTRIANGLE_S
 70
     0
 71
     0
 10
0.0
 20
0.0
 30
0.0
  3
FXTIP_BLACKTRIANGLE_S
  1

  0
LINE
  5
9D
330
9A
100
AcDbEntity
  8
0
  6
CONTINUOUS
 62
     0
100
AcDbLine
 10
0.0
 20
0.0
 30
0.0
 11
-1.0
 21
0.0
 31
0.0
  0
SOLID
  5
9E
330
9A
100
AcDbEntity
  8
0
  6
CONTINUOUS
 62
     0
100
AcDbTrace
 10
0.0
 20
0.0
 30
0.0
 11
-0.965926
 21
-0.258819
 31
0.0
 12
-0.965926
 22
0.258819
 32
0.0
 13
-0.965926
 23
0.258819
 33
0.0
  0
ENDBLK
  5
9C
330
9A
100
AcDbEntity
  8
0
100
AcDbBlockEnd
  0
BLOCK
  5
A0
330
9F
100
AcDbEntity
  8
0
100
AcDbBlockBegin
  2
FXTIP_BLACKTRIANGLE_E
 70
     0
 71
     0
 10
0.0
 20
0.0
 30
0.0
  3
FXTIP_BLACKTRIANGLE_E
  1

  0
LINE
  5
A2
330
9F
100
AcDbEntity
  8
0
  6
CONTINUOUS
 62
     0
100
AcDbLine
 10
0.0
 20
0.0
 30
0.0
 11
-1.0
 21
0.0
 31
0.0
  0
SOLID
  5
A3
330
9F
100
AcDbEntity
  8
0
  6
CONTINUOUS
 62
     0
100
AcDbTrace
 10
0.0
 20
0.0
 30
0.0
 11
-0.965926
 21
0.258819
 31
0.0
 12
-0.965926
 22
-0.258819
 32
0.0
 13
-0.965926
 23
-0.258819
 33
0.0
  0
ENDBLK
  5
A1
330
9F
100
AcDbEntity
  8
0
100
AcDbBlockEnd
  0
BLOCK
  5
DD
330
DC
100
AcDbEntity
  8
0
100
AcDbBlockBegin
  2
BLKF021
 70
     0
 71
     0
 10
0.0
 20
0.0
 30
0.0
  3
BLKF021
  1

  0
LINE
  5
E0
330
DC
100
AcDbEntity
  8
GR1-1
  6
細い実線
 62
     2
100
AcDbLine
 10
679.863387
 20
183.503677
 30
0.0
 11
679.863387
 21
188.318702
 31
0.0
  0
LINE
  5
E1
330
DC
100
AcDbEntity
  8
GR1-1
  6
細い実線
 62
     2
100
AcDbLine
 10
681.663387
 20
183.503677
 30
0.0
 11
681.663387
 21
188.318702
 31
0.0
  0
LINE
  5
E2
330
DC
100
AcDbEntity
  8
GR1-1
  6
細い実線
 62
     2
100
AcDbLine
 10
679.083387
 20
187.718702
 30
0.0
 11
678.303387
 21
187.718702
 31
0.0
  0
LINE
  5
E3
330
DC
100
AcDbEntity
  8
GR1-1
  6
細い実線
 62
     2
100
AcDbLine
 10
682.443387
 20
187.718702
 30
0.0
 11
683.223387
 21
187.718702
 31
0.0
  0
TEXT
  5
E4
330
DC
100
AcDbEntity
  8
GR1-1
  6
細い実線
 62
     4
100
AcDbText
 10
679.188359
 20
189.218711
 30
0.0
 40
1.5
  1
%%c30
 41
0.7
  7
FX_VECTOR
 72
     5
 11
682.338359
 21
189.218711
 31
0.0
100
AcDbText
  0
LINE
  5
E5
330
DC
100
AcDbEntity
  8
GR1-1
  6
細い実線
 62
     2
100
AcDbLine
 10
679.083387
 20
187.848702
 30
0.0
 11
679.083387
 21
187.588702
 31
0.0
  0
LINE
  5
E6
330
DC
100
AcDbEntity
  8
GR1-1
  6
細い実線
 62
     2
100
AcDbLine
 10
679.083387
 20
187.588702
 30
0.0
 11
679.863387
 21
187.718702
 31
0.0
  0
LINE
  5
E7
330
DC
100
AcDbEntity
  8
GR1-1
  6
細い実線
 62
     2
100
AcDbLine
 10
679.863387
 20
187.718702
 30
0.0
 11
679.083387
 21
187.848702
 31
0.0
  0
LINE
  5
E8
330
DC
100
AcDbEntity
  8
GR1-1
  6
細い実線
 62
     2
100
AcDbLine
 10
682.443387
 20
187.848702
 30
0.0
 11
682.443387
 21
187.588702
 31
0.0
  0
LINE
  5
E9
330
DC
100
AcDbEntity
  8
GR1-1
  6
細い実線
 62
     2
100
AcDbLine
 10
682.443387
 20
187.588702
 30
0.0
 11
681.663387
 21
187.718702
 31
0.0
  0
LINE
  5
EA
330
DC
100
AcDbEntity
  8
GR1-1
  6
細い実線
 62
     2
100
AcDbLine
 10
681.663387
 20
187.718702
 30
0.0
 11
682.443387
 21
187.848702
 31
0.0
  0
ENDBLK
  5
DE
330
DC
100
AcDbEntity
  8
0
100
AcDbBlockEnd
  0
BLOCK
  5
EC
330
EB
100
AcDbEntity
  8
0
100
AcDbBlockBegin
  2
BLKF022
 70
     0
 71
     0
 10
0.0
 20
0.0
 30
0.0
  3
BLKF022
  1

  0
LINE
  5
EF
330
EB
100
AcDbEntity
  8
GR1-1
  6
細い実線
 62
     2
100
AcDbLine
 10
680.388387
 20
178.703677
 30
0.0
 11
680.388387
 21
176.140071
 31
0.0
  0
LINE
  5
F0
330
EB
100
AcDbEntity
  8
GR1-1
  6
細い実線
 62
     2
100
AcDbLine
 10
681.138387
 20
178.703677
 30
0.0
 11
681.138387
 21
176.140071
 31
0.0
  0
LINE
  5
F1
330
EB
100
AcDbEntity
  8
GR1-1
  6
細い実線
 62
     2
100
AcDbLine
 10
679.608387
 20
176.740071
 30
0.0
 11
678.828387
 21
176.740071
 31
0.0
  0
LINE
  5
F2
330
EB
100
AcDbEntity
  8
GR1-1
  6
細い実線
 62
     2
100
AcDbLine
 10
681.918387
 20
176.740071
 30
0.0
 11
682.698387
 21
176.740071
 31
0.0
  0
TEXT
  5
F3
330
EB
100
AcDbEntity
  8
GR1-1
  6
細い実線
 62
     4
100
AcDbText
 10
681.239453
 20
177.285684
 30
0.0
 40
1.5
  1
%%c12.5
 41
0.7
  7
FX_VECTOR
 72
     5
 11
686.489453
 21
177.285684
 31
0.0
100
AcDbText
  0
LINE
  5
F4
330
EB
100
AcDbEntity
  8
GR1-1
  6
細い実線
 62
     2
100
AcDbLine
 10
679.608387
 20
176.870071
 30
0.0
 11
679.608387
 21
176.610071
 31
0.0
  0
LINE
  5
F5
330
EB
100
AcDbEntity
  8
GR1-1
  6
細い実線
 62
     2
100
AcDbLine
 10
679.608387
 20
176.610071
 30
0.0
 11
680.388387
 21
176.740071
 31
0.0
  0
LINE
  5
F6
330
EB
100
AcDbEntity
  8
GR1-1
  6
細い実線
 62
     2
100
AcDbLine
 10
680.388387
 20
176.740071
 30
0.0
 11
679.608387
 21
176.870071
 31
0.0
  0
LINE
  5
F7
330
EB
100
AcDbEntity
  8
GR1-1
  6
細い実線
 62
     2
100
AcDbLine
 10
681.918387
 20
176.870071
 30
0.0
 11
681.918387
 21
176.610071
 31
0.0
  0
LINE
  5
F8
330
EB
100
AcDbEntity
  8
GR1-1
  6
細い実線
 62
     2
100
AcDbLine
 10
681.918387
 20
176.610071
 30
0.0
 11
681.138387
 21
176.740071
 31
0.0
  0
LINE
  5
F9
330
EB
100
AcDbEntity
  8
GR1-1
  6
細い実線
 62
     2
100
AcDbLine
 10
681.138387
 20
176.740071
 30
0.0
 11
681.918387
 21
176.870071
 31
0.0
  0
ENDBLK
  5
ED
330
EB
100
AcDbEntity
  8
0
100
AcDbBlockEnd
  0
BLOCK
  5
FF
330
FE
100
AcDbEntity
  8
0
100
AcDbBlockBegin
  2
BLKF023
 70
     0
 71
     0
 10
0.0
 20
0.0
 30
0.0
  3
BLKF023
  1

  0
LINE
  5
102
330
FE
100
AcDbEntity
  8
GR1-1
  6
細い実線
 62
     2
100
AcDbLine
 10
697.592263
 20
186.718822
 30
0.0
 11
697.592263
 21
188.85793
 31
0.0
  0
LINE
  5
103
330
FE
100
AcDbEntity
  8
GR1-1
  6
細い実線
 62
     2
100
AcDbLine
 10
698.342263
 20
186.718822
 30
0.0
 11
698.342263
 21
188.85793
 31
0.0
  0
LINE
  5
104
330
FE
100
AcDbEntity
  8
GR1-1
  6
細い実線
 62
     2
100
AcDbLine
 10
696.812263
 20
188.25793
 30
0.0
 11
696.032263
 21
188.25793
 31
0.0
  0
LINE
  5
105
330
FE
100
AcDbEntity
  8
GR1-1
  6
細い実線
 62
     2
100
AcDbLine
 10
699.122263
 20
188.25793
 30
0.0
 11
699.902263
 21
188.25793
 31
0.0
  0
TEXT
  5
106
330
FE
100
AcDbEntity
  8
GR1-1
  6
細い実線
 62
     4
100
AcDbText
 10
695.867266
 20
189.75793
 30
0.0
 40
1.5
  1
12.5
 41
0.7
  7
FX_VECTOR
 72
     5
 11
700.067266
 21
189.75793
 31
0.0
100
AcDbText
  0
LINE
  5
107
330
FE
100
AcDbEntity
  8
GR1-1
  6
細い実線
 62
     2
100
AcDbLine
 10
696.812263
 20
188.38793
 30
0.0
 11
696.812263
 21
188.12793
 31
0.0
  0
LINE
  5
108
330
FE
100
AcDbEntity
  8
GR1-1
  6
細い実線
 62
     2
100
AcDbLine
 10
696.812263
 20
188.12793
 30
0.0
 11
697.592263
 21
188.25793
 31
0.0
  0
LINE
  5
109
330
FE
100
AcDbEntity
  8
GR1-1
  6
細い実線
 62
     2
100
AcDbLine
 10
697.592263
 20
188.25793
 30
0.0
 11
696.812263
 21
188.38793
 31
0.0
  0
LINE
  5
10A
330
FE
100
AcDbEntity
  8
GR1-1
  6
細い実線
 62
     2
100
AcDbLine
 10
699.122263
 20
188.38793
 30
0.0
 11
699.122263
 21
188.12793
 31
0.0
  0
LINE
  5
10B
330
FE
100
AcDbEntity
  8
GR1-1
  6
細い実線
 62
     2
100
AcDbLine
 10
699.122263
 20
188.12793
 30
0.0
 11
698.342263
 21
188.25793
 31
0.0
  0
LINE
  5
10C
330
FE
100
AcDbEntity
  8
GR1-1
  6
細い実線
 62
     2
100
AcDbLine
 10
698.342263
 20
188.25793
 30
0.0
 11
699.122263
 21
188.38793
 31
0.0
  0
ENDBLK
  5
100
330
FE
100
AcDbEntity
  8
0
100
AcDbBlockEnd
  0
BLOCK
  5
10E
330
10D
100
AcDbEntity
  8
0
100
AcDbBlockBegin
  2
BLKF024
 70
     0
 71
     0
 10
0.0
 20
0.0
 30
0.0
  3
BLKF024
  1

  0
LINE
  5
111
330
10D
100
AcDbEntity
  8
GR1-1
  6
細い実線
 62
     4
100
AcDbLine
 10
697.067263
 20
181.261561
 30
0.0
 11
698.867263
 21
181.261561
 31
0.0
  0
LINE
  5
112
330
10D
100
AcDbEntity
  8
GR1-1
  6
細い実線
 62
     4
100
AcDbLine
 10
698.867263
 20
181.261561
 30
0.0
 11
698.867263
 21
177.961561
 31
0.0
  0
LINE
  5
113
330
10D
100
AcDbEntity
  8
GR1-1
  6
細い実線
 62
     4
100
AcDbLine
 10
698.867263
 20
177.961561
 30
0.0
 11
697.067263
 21
177.961561
 31
0.0
  0
LINE
  5
114
330
10D
100
AcDbEntity
  8
GR1-1
  6
細い実線
 62
     4
100
AcDbLine
 10
697.067263
 20
177.961561
 30
0.0
 11
697.067263
 21
181.261561
 31
0.0
  0
ENDBLK
  5
10F
330
10D
100
AcDbEntity
  8
0
100
AcDbBlockEnd
  0
BLOCK
  5
116
330
115
100
AcDbEntity
  8
0
100
AcDbBlockBegin
  2
BLKF025
 70
     0
 71
     0
 10
0.0
 20
0.0
 30
0.0
  3
BLKF025
  1

  0
LINE
  5
119
330
115
100
AcDbEntity
  8
GR1-1
  6
細い実線
 62
     4
100
AcDbLine
 10
697.592263
 20
180.661561
 30
0.0
 11
698.342263
 21
180.661561
 31
0.0
  0
LINE
  5
11A
330
115
100
AcDbEntity
  8
GR1-1
  6
細い実線
 62
     4
100
AcDbLine
 10
698.342263
 20
180.661561
 30
0.0
 11
698.342263
 21
178.561561
 31
0.0
  0
LINE
  5
11B
330
115
100
AcDbEntity
  8
GR1-1
  6
細い実線
 62
     4
100
AcDbLine
 10
698.342263
 20
178.561561
 30
0.0
 11
697.592263
 21
178.561561
 31
0.0
  0
LINE
  5
11C
330
115
100
AcDbEntity
  8
GR1-1
  6
細い実線
 62
     4
100
AcDbLine
 10
697.592263
 20
178.561561
 30
0.0
 11
697.592263
 21
180.661561
 31
0.0
  0
ENDBLK
  5
117
330
115
100
AcDbEntity
  8
0
100
AcDbBlockEnd
  0
BLOCK
  5
122
330
121
100
AcDbEntity
  8
0
100
AcDbBlockBegin
  2
BLKF026
 70
     0
 71
     0
 10
0.0
 20
0.0
 30
0.0
  3
BLKF026
  1

  0
LINE
  5
125
330
121
100
AcDbEntity
  8
GR1-1
  6
細い実線
 62
     2
100
AcDbLine
 10
698.342263
 20
177.661561
 30
0.0
 11
698.342263
 21
172.945628
 31
0.0
  0
LINE
  5
126
330
121
100
AcDbEntity
  8
GR1-1
  6
細い実線
 62
     2
100
AcDbLine
 10
698.867263
 20
177.061561
 30
0.0
 11
698.867263
 21
172.945628
 31
0.0
  0
LINE
  5
127
330
121
100
AcDbEntity
  8
GR1-1
  6
細い実線
 62
     2
100
AcDbLine
 10
697.562263
 20
173.545628
 30
0.0
 11
696.782263
 21
173.545628
 31
0.0
  0
LINE
  5
128
330
121
100
AcDbEntity
  8
GR1-1
  6
細い実線
 62
     2
100
AcDbLine
 10
699.647263
 20
173.545628
 30
0.0
 11
700.427263
 21
173.545628
 31
0.0
  0
TEXT
  5
129
330
121
100
AcDbEntity
  8
GR1-1
  6
細い実線
 62
     4
100
AcDbText
 10
698.848438
 20
173.98041
 30
0.0
 40
1.5
  1
8.75
 41
0.7
  7
FX_VECTOR
 72
     5
 11
703.048438
 21
173.98041
 31
0.0
100
AcDbText
  0
LINE
  5
12A
330
121
100
AcDbEntity
  8
GR1-1
  6
細い実線
 62
     2
100
AcDbLine
 10
697.562263
 20
173.675628
 30
0.0
 11
697.562263
 21
173.415628
 31
0.0
  0
LINE
  5
12B
330
121
100
AcDbEntity
  8
GR1-1
  6
細い実線
 62
     2
100
AcDbLine
 10
697.562263
 20
173.415628
 30
0.0
 11
698.342263
 21
173.545628
 31
0.0
  0
LINE
  5
12C
330
121
100
AcDbEntity
  8
GR1-1
  6
細い実線
 62
     2
100
AcDbLine
 10
698.342263
 20
173.545628
 30
0.0
 11
697.562263
 21
173.675628
 31
0.0
  0
LINE
  5
12D
330
121
100
AcDbEntity
  8
GR1-1
  6
細い実線
 62
     2
100
AcDbLine
 10
699.647263
 20
173.675628
 30
0.0
 11
699.647263
 21
173.415628
 31
0.0
  0
LINE
  5
12E
330
121
100
AcDbEntity
  8
GR1-1
  6
細い実線
 62
     2
100
AcDbLine
 10
699.647263
 20
173.415628
 30
0.0
 11
698.867263
 21
173.545628
 31
0.0
  0
LINE
  5
12F
330
121
100
AcDbEntity
  8
GR1-1
  6
細い実線
 62
     2
100
AcDbLine
 10
698.867263
 20
173.545628
 30
0.0
 11
699.647263
 21
173.675628
 31
0.0
  0
ENDBLK
  5
123
330
121
100
AcDbEntity
  8
0
100
AcDbBlockEnd
  0
BLOCK
  5
131
330
130
100
AcDbEntity
  8
0
100
AcDbBlockBegin
  2
BLKF027
 70
     0
 71
     0
 10
0.0
 20
0.0
 30
0.0
  3
BLKF027
  1

  0
LINE
  5
134
330
130
100
AcDbEntity
  8
GR1-1
  6
細い実線
 62
     2
100
AcDbLine
 10
698.342263
 20
177.661561
 30
0.0
 11
698.342263
 21
172.945628
 31
0.0
  0
LINE
  5
135
330
130
100
AcDbEntity
  8
GR1-1
  6
細い実線
 62
     2
100
AcDbLine
 10
697.592263
 20
177.661561
 30
0.0
 11
697.592263
 21
172.945628
 31
0.0
  0
LINE
  5
136
330
130
100
AcDbEntity
  8
GR1-1
  6
細い実線
 62
     2
100
AcDbLine
 10
699.122263
 20
173.545628
 30
0.0
 11
699.902263
 21
173.545628
 31
0.0
  0
LINE
  5
137
330
130
100
AcDbEntity
  8
GR1-1
  6
細い実線
 62
     2
100
AcDbLine
 10
696.812263
 20
173.545628
 30
0.0
 11
696.032263
 21
173.545628
 31
0.0
  0
TEXT
  5
138
330
130
100
AcDbEntity
  8
GR1-1
  6
細い実線
 62
     4
100
AcDbText
 10
695.750313
 20
171.241387
 30
0.0
 40
1.5
  1
12.5
 41
0.7
  7
FX_VECTOR
 72
     5
 11
699.950313
 21
171.241387
 31
0.0
100
AcDbText
  0
LINE
  5
139
330
130
100
AcDbEntity
  8
GR1-1
  6
細い実線
 62
     2
100
AcDbLine
 10
699.122263
 20
173.675628
 30
0.0
 11
699.122263
 21
173.415628
 31
0.0
  0
LINE
  5
13A
330
130
100
AcDbEntity
  8
GR1-1
  6
細い実線
 62
     2
100
AcDbLine
 10
699.122263
 20
173.415628
 30
0.0
 11
698.342263
 21
173.545628
 31
0.0
  0
LINE
  5
13B
330
130
100
AcDbEntity
  8
GR1-1
  6
細い実線
 62
     2
100
AcDbLine
 10
698.342263
 20
173.545628
 30
0.0
 11
699.122263
 21
173.675628
 31
0.0
  0
LINE
  5
13C
330
130
100
AcDbEntity
  8
GR1-1
  6
細い実線
 62
     2
100
AcDbLine
 10
696.812263
 20
173.675628
 30
0.0
 11
696.812263
 21
173.415628
 31
0.0
  0
LINE
  5
13D
330
130
100
AcDbEntity
  8
GR1-1
  6
細い実線
 62
     2
100
AcDbLine
 10
696.812263
 20
173.415628
 30
0.0
 11
697.592263
 21
173.545628
 31
0.0
  0
LINE
  5
13E
330
130
100
AcDbEntity
  8
GR1-1
  6
細い実線
 62
     2
100
AcDbLine
 10
697.592263
 20
173.545628
 30
0.0
 11
696.812263
 21
173.675628
 31
0.0
  0
ENDBLK
  5
132
330
130
100
AcDbEntity
  8
0
100
AcDbBlockEnd
  0
BLOCK
  5
140
330
13F
100
AcDbEntity
  8
0
100
AcDbBlockBegin
  2
BLKF028
 70
     0
 71
     0
 10
0.0
 20
0.0
 30
0.0
  3
BLKF028
  1

  0
LINE
  5
143
330
13F
100
AcDbEntity
  8
GR1-1
  6
細い実線
 62
     2
100
AcDbLine
 10
697.592263
 20
177.661561
 30
0.0
 11
697.592263
 21
172.945628
 31
0.0
  0
LINE
  5
144
330
13F
100
AcDbEntity
  8
GR1-1
  6
細い実線
 62
     2
100
AcDbLine
 10
697.067263
 20
177.061561
 30
0.0
 11
697.067263
 21
172.945628
 31
0.0
  0
LINE
  5
145
330
13F
100
AcDbEntity
  8
GR1-1
  6
細い実線
 62
     2
100
AcDbLine
 10
698.372263
 20
173.545628
 30
0.0
 11
699.152263
 21
173.545628
 31
0.0
  0
LINE
  5
146
330
13F
100
AcDbEntity
  8
GR1-1
  6
細い実線
 62
     2
100
AcDbLine
 10
696.287263
 20
173.545628
 30
0.0
 11
695.507263
 21
173.545628
 31
0.0
  0
TEXT
  5
147
330
13F
100
AcDbEntity
  8
GR1-1
  6
細い実線
 62
     4
100
AcDbText
 10
692.964219
 20
173.869063
 30
0.0
 40
1.5
  1
8.75
 41
0.7
  7
FX_VECTOR
 72
     5
 11
697.164219
 21
173.869063
 31
0.0
100
AcDbText
  0
LINE
  5
148
330
13F
100
AcDbEntity
  8
GR1-1
  6
細い実線
 62
     2
100
AcDbLine
 10
698.372263
 20
173.675628
 30
0.0
 11
698.372263
 21
173.415628
 31
0.0
  0
LINE
  5
149
330
13F
100
AcDbEntity
  8
GR1-1
  6
細い実線
 62
     2
100
AcDbLine
 10
698.372263
 20
173.415628
 30
0.0
 11
697.592263
 21
173.545628
 31
0.0
  0
LINE
  5
14A
330
13F
100
AcDbEntity
  8
GR1-1
  6
細い実線
 62
     2
100
AcDbLine
 10
697.592263
 20
173.545628
 30
0.0
 11
698.372263
 21
173.675628
 31
0.0
  0
LINE
  5
14B
330
13F
100
AcDbEntity
  8
GR1-1
  6
細い実線
 62
     2
100
AcDbLine
 10
696.287263
 20
173.675628
 30
0.0
 11
696.287263
 21
173.415628
 31
0.0
  0
LINE
  5
14C
330
13F
100
AcDbEntity
  8
GR1-1
  6
細い実線
 62
     2
100
AcDbLine
 10
696.287263
 20
173.415628
 30
0.0
 11
697.067263
 21
173.545628
 31
0.0
  0
LINE
  5
14D
330
13F
100
AcDbEntity
  8
GR1-1
  6
細い実線
 62
     2
100
AcDbLine
 10
697.067263
 20
173.545628
 30
0.0
 11
696.287263
 21
173.675628
 31
0.0
  0
ENDBLK
  5
141
330
13F
100
AcDbEntity
  8
0
100
AcDbBlockEnd
  0
BLOCK
  5
14F
330
14E
100
AcDbEntity
  8
0
100
AcDbBlockBegin
  2
BLKF029
 70
     0
 71
     0
 10
0.0
 20
0.0
 30
0.0
  3
BLKF029
  1

  0
LINE
  5
152
330
14E
100
AcDbEntity
  8
GR1-1
  6
細い実線
 62
     2
100
AcDbLine
 10
697.067263
 20
177.061561
 30
0.0
 11
697.067263
 21
167.862866
 31
0.0
  0
LINE
  5
153
330
14E
100
AcDbEntity
  8
GR1-1
  6
細い実線
 62
     2
100
AcDbLine
 10
698.867263
 20
177.061561
 30
0.0
 11
698.867263
 21
167.862866
 31
0.0
  0
LINE
  5
154
330
14E
100
AcDbEntity
  8
GR1-1
  6
細い実線
 62
     2
100
AcDbLine
 10
696.287263
 20
168.462866
 30
0.0
 11
695.507263
 21
168.462866
 31
0.0
  0
LINE
  5
155
330
14E
100
AcDbEntity
  8
GR1-1
  6
細い実線
 62
     2
100
AcDbLine
 10
699.647263
 20
168.462866
 30
0.0
 11
700.427263
 21
168.462866
 31
0.0
  0
TEXT
  5
156
330
14E
100
AcDbEntity
  8
GR1-1
  6
細い実線
 62
     4
100
AcDbText
 10
696.917266
 20
168.975996
 30
0.0
 40
1.5
  1
30
 41
0.7
  7
FX_VECTOR
 72
     5
 11
699.017266
 21
168.975996
 31
0.0
100
AcDbText
  0
LINE
  5
157
330
14E
100
AcDbEntity
  8
GR1-1
  6
細い実線
 62
     2
100
AcDbLine
 10
696.287263
 20
168.592866
 30
0.0
 11
696.287263
 21
168.332866
 31
0.0
  0
LINE
  5
158
330
14E
100
AcDbEntity
  8
GR1-1
  6
細い実線
 62
     2
100
AcDbLine
 10
696.287263
 20
168.332866
 30
0.0
 11
697.067263
 21
168.462866
 31
0.0
  0
LINE
  5
159
330
14E
100
AcDbEntity
  8
GR1-1
  6
細い実線
 62
     2
100
AcDbLine
 10
697.067263
 20
168.462866
 30
0.0
 11
696.287263
 21
168.592866
 31
0.0
  0
LINE
  5
15A
330
14E
100
AcDbEntity
  8
GR1-1
  6
細い実線
 62
     2
100
AcDbLine
 10
699.647263
 20
168.592866
 30
0.0
 11
699.647263
 21
168.332866
 31
0.0
  0
LINE
  5
15B
330
14E
100
AcDbEntity
  8
GR1-1
  6
細い実線
 62
     2
100
AcDbLine
 10
699.647263
 20
168.332866
 30
0.0
 11
698.867263
 21
168.462866
 31
0.0
  0
LINE
  5
15C
330
14E
100
AcDbEntity
  8
GR1-1
  6
細い実線
 62
     2
100
AcDbLine
 10
698.867263
 20
168.462866
 30
0.0
 11
699.647263
 21
168.592866
 31
0.0
  0
ENDBLK
  5
150
330
14E
100
AcDbEntity
  8
0
100
AcDbBlockEnd
  0
BLOCK
  5
15E
330
15D
100
AcDbEntity
  8
0
100
AcDbBlockBegin
  2
BLKF030
 70
     0
 71
     0
 10
0.0
 20
0.0
 30
0.0
  3
BLKF030
  1

  0
LINE
  5
161
330
15D
100
AcDbEntity
  8
GR1-1
  6
細い実線
 62
     2
100
AcDbLine
 10
699.242263
 20
180.661561
 30
0.0
 11
703.673689
 21
180.661561
 31
0.0
  0
LINE
  5
162
330
15D
100
AcDbEntity
  8
GR1-1
  6
細い実線
 62
     2
100
AcDbLine
 10
699.767263
 20
181.261561
 30
0.0
 11
703.673689
 21
181.261561
 31
0.0
  0
LINE
  5
163
330
15D
100
AcDbEntity
  8
GR1-1
  6
細い実線
 62
     2
100
AcDbLine
 10
703.073689
 20
179.881561
 30
0.0
 11
703.073689
 21
179.101561
 31
0.0
  0
LINE
  5
164
330
15D
100
AcDbEntity
  8
GR1-1
  6
細い実線
 62
     2
100
AcDbLine
 10
703.073689
 20
182.041561
 30
0.0
 11
703.073689
 21
182.821561
 31
0.0
  0
TEXT
  5
165
330
15D
100
AcDbEntity
  8
GR1-1
  6
細い実線
 62
     4
100
AcDbText
 10
702.512109
 20
181.246934
 30
0.0
 40
1.5
  1
10
 50
90.0
 41
0.7
  7
FX_VECTOR
 72
     5
 11
702.512109
 21
183.346934
 31
0.0
100
AcDbText
  0
LINE
  5
166
330
15D
100
AcDbEntity
  8
GR1-1
  6
細い実線
 62
     2
100
AcDbLine
 10
702.943689
 20
179.881561
 30
0.0
 11
703.203689
 21
179.881561
 31
0.0
  0
LINE
  5
167
330
15D
100
AcDbEntity
  8
GR1-1
  6
細い実線
 62
     2
100
AcDbLine
 10
703.203689
 20
179.881561
 30
0.0
 11
703.073689
 21
180.661561
 31
0.0
  0
LINE
  5
168
330
15D
100
AcDbEntity
  8
GR1-1
  6
細い実線
 62
     2
100
AcDbLine
 10
703.073689
 20
180.661561
 30
0.0
 11
702.943689
 21
179.881561
 31
0.0
  0
LINE
  5
169
330
15D
100
AcDbEntity
  8
GR1-1
  6
細い実線
 62
     2
100
AcDbLine
 10
702.943689
 20
182.041561
 30
0.0
 11
703.203689
 21
182.041561
 31
0.0
  0
LINE
  5
16A
330
15D
100
AcDbEntity
  8
GR1-1
  6
細い実線
 62
     2
100
AcDbLine
 10
703.203689
 20
182.041561
 30
0.0
 11
703.073689
 21
181.261561
 31
0.0
  0
LINE
  5
16B
330
15D
100
AcDbEntity
  8
GR1-1
  6
細い実線
 62
     2
100
AcDbLine
 10
703.073689
 20
181.261561
 30
0.0
 11
702.943689
 21
182.041561
 31
0.0
  0
ENDBLK
  5
15F
330
15D
100
AcDbEntity
  8
0
100
AcDbBlockEnd
  0
BLOCK
  5
16D
330
16C
100
AcDbEntity
  8
0
100
AcDbBlockBegin
  2
BLKF031
 70
     0
 71
     0
 10
0.0
 20
0.0
 30
0.0
  3
BLKF031
  1

  0
LINE
  5
170
330
16C
100
AcDbEntity
  8
GR1-1
  6
細い実線
 62
     2
100
AcDbLine
 10
699.242263
 20
180.661561
 30
0.0
 11
703.673689
 21
180.661561
 31
0.0
  0
LINE
  5
171
330
16C
100
AcDbEntity
  8
GR1-1
  6
細い実線
 62
     2
100
AcDbLine
 10
699.242263
 20
178.561561
 30
0.0
 11
703.673689
 21
178.561561
 31
0.0
  0
LINE
  5
172
330
16C
100
AcDbEntity
  8
GR1-1
  6
細い実線
 62
     2
100
AcDbLine
 10
703.073689
 20
181.441561
 30
0.0
 11
703.073689
 21
182.221561
 31
0.0
  0
LINE
  5
173
330
16C
100
AcDbEntity
  8
GR1-1
  6
細い実線
 62
     2
100
AcDbLine
 10
703.073689
 20
177.781561
 30
0.0
 11
703.073689
 21
177.001561
 31
0.0
  0
TEXT
  5
174
330
16C
100
AcDbEntity
  8
GR1-1
  6
細い実線
 62
     4
100
AcDbText
 10
702.628516
 20
178.501523
 30
0.0
 40
1.5
  1
35
 50
90.0
 41
0.7
  7
FX_VECTOR
 72
     5
 11
702.628516
 21
180.601523
 31
0.0
100
AcDbText
  0
LINE
  5
175
330
16C
100
AcDbEntity
  8
GR1-1
  6
細い実線
 62
     2
100
AcDbLine
 10
702.943689
 20
181.441561
 30
0.0
 11
703.203689
 21
181.441561
 31
0.0
  0
LINE
  5
176
330
16C
100
AcDbEntity
  8
GR1-1
  6
細い実線
 62
     2
100
AcDbLine
 10
703.203689
 20
181.441561
 30
0.0
 11
703.073689
 21
180.661561
 31
0.0
  0
LINE
  5
177
330
16C
100
AcDbEntity
  8
GR1-1
  6
細い実線
 62
     2
100
AcDbLine
 10
703.073689
 20
180.661561
 30
0.0
 11
702.943689
 21
181.441561
 31
0.0
  0
LINE
  5
178
330
16C
100
AcDbEntity
  8
GR1-1
  6
細い実線
 62
     2
100
AcDbLine
 10
702.943689
 20
177.781561
 30
0.0
 11
703.203689
 21
177.781561
 31
0.0
  0
LINE
  5
179
330
16C
100
AcDbEntity
  8
GR1-1
  6
細い実線
 62
     2
100
AcDbLine
 10
703.203689
 20
177.781561
 30
0.0
 11
703.073689
 21
178.561561
 31
0.0
  0
LINE
  5
17A
330
16C
100
AcDbEntity
  8
GR1-1
  6
細い実線
 62
     2
100
AcDbLine
 10
703.073689
 20
178.561561
 30
0.0
 11
702.943689
 21
177.781561
 31
0.0
  0
ENDBLK
  5
16E
330
16C
100
AcDbEntity
  8
0
100
AcDbBlockEnd
  0
BLOCK
  5
17C
330
17B
100
AcDbEntity
  8
0
100
AcDbBlockBegin
  2
BLKF032
 70
     0
 71
     0
 10
0.0
 20
0.0
 30
0.0
  3
BLKF032
  1

  0
LINE
  5
17F
330
17B
100
AcDbEntity
  8
GR1-1
  6
細い実線
 62
     2
100
AcDbLine
 10
699.242263
 20
178.561561
 30
0.0
 11
703.673689
 21
178.561561
 31
0.0
  0
LINE
  5
180
330
17B
100
AcDbEntity
  8
GR1-1
  6
細い実線
 62
     2
100
AcDbLine
 10
699.767263
 20
177.961561
 30
0.0
 11
703.673689
 21
177.961561
 31
0.0
  0
LINE
  5
181
330
17B
100
AcDbEntity
  8
GR1-1
  6
細い実線
 62
     2
100
AcDbLine
 10
703.073689
 20
179.341561
 30
0.0
 11
703.073689
 21
180.121561
 31
0.0
  0
LINE
  5
182
330
17B
100
AcDbEntity
  8
GR1-1
  6
細い実線
 62
     2
100
AcDbLine
 10
703.073689
 20
177.181561
 30
0.0
 11
703.073689
 21
176.401561
 31
0.0
  0
TEXT
  5
183
330
17B
100
AcDbEntity
  8
GR1-1
  6
細い実線
 62
     4
100
AcDbText
 10
702.605234
 20
175.942246
 30
0.0
 40
1.5
  1
10
 50
90.0
 41
0.7
  7
FX_VECTOR
 72
     5
 11
702.605234
 21
178.042246
 31
0.0
100
AcDbText
  0
LINE
  5
184
330
17B
100
AcDbEntity
  8
GR1-1
  6
細い実線
 62
     2
100
AcDbLine
 10
702.943689
 20
179.341561
 30
0.0
 11
703.203689
 21
179.341561
 31
0.0
  0
LINE
  5
185
330
17B
100
AcDbEntity
  8
GR1-1
  6
細い実線
 62
     2
100
AcDbLine
 10
703.203689
 20
179.341561
 30
0.0
 11
703.073689
 21
178.561561
 31
0.0
  0
LINE
  5
186
330
17B
100
AcDbEntity
  8
GR1-1
  6
細い実線
 62
     2
100
AcDbLine
 10
703.073689
 20
178.561561
 30
0.0
 11
702.943689
 21
179.341561
 31
0.0
  0
LINE
  5
187
330
17B
100
AcDbEntity
  8
GR1-1
  6
細い実線
 62
     2
100
AcDbLine
 10
702.943689
 20
177.181561
 30
0.0
 11
703.203689
 21
177.181561
 31
0.0
  0
LINE
  5
188
330
17B
100
AcDbEntity
  8
GR1-1
  6
細い実線
 62
     2
100
AcDbLine
 10
703.203689
 20
177.181561
 30
0.0
 11
703.073689
 21
177.961561
 31
0.0
  0
LINE
  5
189
330
17B
100
AcDbEntity
  8
GR1-1
  6
細い実線
 62
     2
100
AcDbLine
 10
703.073689
 20
177.961561
 30
0.0
 11
702.943689
 21
177.181561
 31
0.0
  0
ENDBLK
  5
17D
330
17B
100
AcDbEntity
  8
0
100
AcDbBlockEnd
  0
BLOCK
  5
18B
330
18A
100
AcDbEntity
  8
0
100
AcDbBlockBegin
  2
BLKF033
 70
     0
 71
     0
 10
0.0
 20
0.0
 30
0.0
  3
BLKF033
  1

  0
LINE
  5
18E
330
18A
100
AcDbEntity
  8
GR1-1
  6
細い実線
 62
     2
100
AcDbLine
 10
699.767263
 20
181.261561
 30
0.0
 11
706.836621
 21
181.261561
 31
0.0
  0
LINE
  5
18F
330
18A
100
AcDbEntity
  8
GR1-1
  6
細い実線
 62
     2
100
AcDbLine
 10
699.767263
 20
177.961561
 30
0.0
 11
706.836621
 21
177.961561
 31
0.0
  0
LINE
  5
190
330
18A
100
AcDbEntity
  8
GR1-1
  6
細い実線
 62
     2
100
AcDbLine
 10
706.236621
 20
180.481561
 30
0.0
 11
706.236621
 21
178.741561
 31
0.0
  0
LINE
  5
191
330
18A
100
AcDbEntity
  8
GR1-1
  6
細い実線
 62
     2
100
AcDbLine
 10
706.106621
 20
180.481561
 30
0.0
 11
706.366621
 21
180.481561
 31
0.0
  0
LINE
  5
192
330
18A
100
AcDbEntity
  8
GR1-1
  6
細い実線
 62
     2
100
AcDbLine
 10
706.366621
 20
180.481561
 30
0.0
 11
706.236621
 21
181.261561
 31
0.0
  0
LINE
  5
193
330
18A
100
AcDbEntity
  8
GR1-1
  6
細い実線
 62
     2
100
AcDbLine
 10
706.236621
 20
181.261561
 30
0.0
 11
706.106621
 21
180.481561
 31
0.0
  0
LINE
  5
194
330
18A
100
AcDbEntity
  8
GR1-1
  6
細い実線
 62
     2
100
AcDbLine
 10
706.106621
 20
178.741561
 30
0.0
 11
706.366621
 21
178.741561
 31
0.0
  0
LINE
  5
195
330
18A
100
AcDbEntity
  8
GR1-1
  6
細い実線
 62
     2
100
AcDbLine
 10
706.366621
 20
178.741561
 30
0.0
 11
706.236621
 21
177.961561
 31
0.0
  0
LINE
  5
196
330
18A
100
AcDbEntity
  8
GR1-1
  6
細い実線
 62
     2
100
AcDbLine
 10
706.236621
 20
177.961561
 30
0.0
 11
706.106621
 21
178.741561
 31
0.0
  0
TEXT
  5
197
330
18A
100
AcDbEntity
  8
GR1-1
  6
細い実線
 62
     4
100
AcDbText
 10
705.636562
 20
178.561563
 30
0.0
 40
1.5
  1
55
 50
90.0
 41
0.7
  7
FX_VECTOR
 72
     5
 11
705.636562
 21
180.661563
 31
0.0
100
AcDbText
  0
ENDBLK
  5
18C
330
18A
100
AcDbEntity
  8
0
100
AcDbBlockEnd
  0
BLOCK
  5
199
330
198
100
AcDbEntity
  8
0
100
AcDbBlockBegin
  2
BLKF034
 70
     0
 71
     0
 10
0.0
 20
0.0
 30
0.0
  3
BLKF034
  1

  0
LINE
  5
19C
330
198
100
AcDbEntity
  8
GR1-1
  6
細い実線
 62
     2
100
AcDbLine
 10
696.692263
 20
185.818822
 30
0.0
 11
693.055547
 21
185.818822
 31
0.0
  0
LINE
  5
19D
330
198
100
AcDbEntity
  8
GR1-1
  6
細い実線
 62
     2
100
AcDbLine
 10
695.277937
 20
182.818822
 30
0.0
 11
693.055547
 21
182.818822
 31
0.0
  0
LINE
  5
19E
330
198
100
AcDbEntity
  8
GR1-1
  6
細い実線
 62
     2
100
AcDbLine
 10
693.655547
 20
185.038822
 30
0.0
 11
693.655547
 21
183.598822
 31
0.0
  0
LINE
  5
19F
330
198
100
AcDbEntity
  8
GR1-1
  6
細い実線
 62
     2
100
AcDbLine
 10
693.525547
 20
185.038822
 30
0.0
 11
693.785547
 21
185.038822
 31
0.0
  0
LINE
  5
1A0
330
198
100
AcDbEntity
  8
GR1-1
  6
細い実線
 62
     2
100
AcDbLine
 10
693.785547
 20
185.038822
 30
0.0
 11
693.655547
 21
185.818822
 31
0.0
  0
LINE
  5
1A1
330
198
100
AcDbEntity
  8
GR1-1
  6
細い実線
 62
     2
100
AcDbLine
 10
693.655547
 20
185.818822
 30
0.0
 11
693.525547
 21
185.038822
 31
0.0
  0
LINE
  5
1A2
330
198
100
AcDbEntity
  8
GR1-1
  6
細い実線
 62
     2
100
AcDbLine
 10
693.525547
 20
183.598822
 30
0.0
 11
693.785547
 21
183.598822
 31
0.0
  0
LINE
  5
1A3
330
198
100
AcDbEntity
  8
GR1-1
  6
細い実線
 62
     2
100
AcDbLine
 10
693.785547
 20
183.598822
 30
0.0
 11
693.655547
 21
182.818822
 31
0.0
  0
LINE
  5
1A4
330
198
100
AcDbEntity
  8
GR1-1
  6
細い実線
 62
     2
100
AcDbLine
 10
693.655547
 20
182.818822
 30
0.0
 11
693.525547
 21
183.598822
 31
0.0
  0
TEXT
  5
1A5
330
198
100
AcDbEntity
  8
GR1-1
  6
細い実線
 62
     4
100
AcDbText
 10
693.055547
 20
183.268828
 30
0.0
 40
1.5
  1
50
 50
90.0
 41
0.7
  7
FX_VECTOR
 72
     5
 11
693.055547
 21
185.368828
 31
0.0
100
AcDbText
  0
ENDBLK
  5
19A
330
198
100
AcDbEntity
  8
0
100
AcDbBlockEnd
  0
BLOCK
  5
1A9
330
1A8
100
AcDbEntity
  8
0
100
AcDbBlockBegin
  2
BLKF035
 70
     0
 71
     0
 10
0.0
 20
0.0
 30
0.0
  3
BLKF035
  1

  0
LINE
  5
1AC
330
1A8
100
AcDbEntity
  8
GR1-1
  6
細い実線
 62
     2
100
AcDbLine
 10
683.452713
 20
182.603677
 30
0.0
 11
686.427091
 21
182.603677
 31
0.0
  0
LINE
  5
1AD
330
1A8
100
AcDbEntity
  8
GR1-1
  6
細い実線
 62
     2
100
AcDbLine
 10
682.038387
 20
179.603677
 30
0.0
 11
686.427091
 21
179.603677
 31
0.0
  0
LINE
  5
1AE
330
1A8
100
AcDbEntity
  8
GR1-1
  6
細い実線
 62
     2
100
AcDbLine
 10
685.827091
 20
181.823677
 30
0.0
 11
685.827091
 21
180.383677
 31
0.0
  0
LINE
  5
1AF
330
1A8
100
AcDbEntity
  8
GR1-1
  6
細い実線
 62
     2
100
AcDbLine
 10
685.697091
 20
181.823677
 30
0.0
 11
685.957091
 21
181.823677
 31
0.0
  0
LINE
  5
1B0
330
1A8
100
AcDbEntity
  8
GR1-1
  6
細い実線
 62
     2
100
AcDbLine
 10
685.957091
 20
181.823677
 30
0.0
 11
685.827091
 21
182.603677
 31
0.0
  0
LINE
  5
1B1
330
1A8
100
AcDbEntity
  8
GR1-1
  6
細い実線
 62
     2
100
AcDbLine
 10
685.827091
 20
182.603677
 30
0.0
 11
685.697091
 21
181.823677
 31
0.0
  0
LINE
  5
1B2
330
1A8
100
AcDbEntity
  8
GR1-1
  6
細い実線
 62
     2
100
AcDbLine
 10
685.697091
 20
180.383677
 30
0.0
 11
685.957091
 21
180.383677
 31
0.0
  0
LINE
  5
1B3
330
1A8
100
AcDbEntity
  8
GR1-1
  6
細い実線
 62
     2
100
AcDbLine
 10
685.957091
 20
180.383677
 30
0.0
 11
685.827091
 21
179.603677
 31
0.0
  0
LINE
  5
1B4
330
1A8
100
AcDbEntity
  8
GR1-1
  6
細い実線
 62
     2
100
AcDbLine
 10
685.827091
 20
179.603677
 30
0.0
 11
685.697091
 21
180.383677
 31
0.0
  0
TEXT
  5
1B5
330
1A8
100
AcDbEntity
  8
GR1-1
  6
細い実線
 62
     4
100
AcDbText
 10
685.227031
 20
180.053672
 30
0.0
 40
1.5
  1
50
 50
90.0
 41
0.7
  7
FX_VECTOR
 72
     5
 11
685.227031
 21
182.153672
 31
0.0
100
AcDbText
  0
ENDBLK
  5
1AA
330
1A8
100
AcDbEntity
  8
0
100
AcDbBlockEnd
  0
BLOCK
  5
1B7
330
1B6
100
AcDbEntity
  8
0
100
AcDbBlockBegin
  2
BLKF036
 70
     0
 71
     0
 10
0.0
 20
0.0
 30
0.0
  3
BLKF036
  1

  0
LINE
  5
1BA
330
1B6
100
AcDbEntity
  8
GR1-1
  6
細い実線
 62
     2
100
AcDbLine
 10
693.501493
 20
212.140298
 30
0.0
 11
693.501493
 21
208.171677
 31
0.0
  0
LINE
  5
1BB
330
1B6
100
AcDbEntity
  8
GR1-1
  6
細い実線
 62
     2
100
AcDbLine
 10
693.201493
 20
211.420298
 30
0.0
 11
693.201493
 21
208.171677
 31
0.0
  0
LINE
  5
1BC
330
1B6
100
AcDbEntity
  8
GR1-1
  6
細い実線
 62
     2
100
AcDbLine
 10
694.281493
 20
208.771677
 30
0.0
 11
695.061493
 21
208.771677
 31
0.0
  0
LINE
  5
1BD
330
1B6
100
AcDbEntity
  8
GR1-1
  6
細い実線
 62
     2
100
AcDbLine
 10
692.421493
 20
208.771677
 30
0.0
 11
691.641493
 21
208.771677
 31
0.0
  0
TEXT
  5
1BE
330
1B6
100
AcDbEntity
  8
GR1-1
  6
細い実線
 62
     4
100
AcDbText
 10
691.75
 20
209.1375
 30
0.0
 40
1.5
  1
5
 41
0.7
  7
FX_VECTOR
 72
     5
 11
692.8
 21
209.1375
 31
0.0
100
AcDbText
  0
LINE
  5
1BF
330
1B6
100
AcDbEntity
  8
GR1-1
  6
細い実線
 62
     2
100
AcDbLine
 10
694.281493
 20
208.901677
 30
0.0
 11
694.281493
 21
208.641677
 31
0.0
  0
LINE
  5
1C0
330
1B6
100
AcDbEntity
  8
GR1-1
  6
細い実線
 62
     2
100
AcDbLine
 10
694.281493
 20
208.641677
 30
0.0
 11
693.501493
 21
208.771677
 31
0.0
  0
LINE
  5
1C1
330
1B6
100
AcDbEntity
  8
GR1-1
  6
細い実線
 62
     2
100
AcDbLine
 10
693.501493
 20
208.771677
 30
0.0
 11
694.281493
 21
208.901677
 31
0.0
  0
LINE
  5
1C2
330
1B6
100
AcDbEntity
  8
GR1-1
  6
細い実線
 62
     2
100
AcDbLine
 10
692.421493
 20
208.901677
 30
0.0
 11
692.421493
 21
208.641677
 31
0.0
  0
LINE
  5
1C3
330
1B6
100
AcDbEntity
  8
GR1-1
  6
細い実線
 62
     2
100
AcDbLine
 10
692.421493
 20
208.641677
 30
0.0
 11
693.201493
 21
208.771677
 31
0.0
  0
LINE
  5
1C4
330
1B6
100
AcDbEntity
  8
GR1-1
  6
細い実線
 62
     2
100
AcDbLine
 10
693.201493
 20
208.771677
 30
0.0
 11
692.421493
 21
208.901677
 31
0.0
  0
ENDBLK
  5
1B8
330
1B6
100
AcDbEntity
  8
0
100
AcDbBlockEnd
  0
BLOCK
  5
1C6
330
1C5
100
AcDbEntity
  8
0
100
AcDbBlockBegin
  2
BLKF037
 70
     0
 71
     0
 10
0.0
 20
0.0
 30
0.0
  3
BLKF037
  1

  0
LINE
  5
1C9
330
1C5
100
AcDbEntity
  8
GR1-1
  6
細い実線
 62
     2
100
AcDbLine
 10
693.501493
 20
212.140298
 30
0.0
 11
693.501493
 21
208.171677
 31
0.0
  0
LINE
  5
1CA
330
1C5
100
AcDbEntity
  8
GR1-1
  6
細い実線
 62
     2
100
AcDbLine
 10
695.901493
 20
212.140298
 30
0.0
 11
695.901493
 21
208.171677
 31
0.0
  0
LINE
  5
1CB
330
1C5
100
AcDbEntity
  8
GR1-1
  6
細い実線
 62
     2
100
AcDbLine
 10
692.721493
 20
208.771677
 30
0.0
 11
691.941493
 21
208.771677
 31
0.0
  0
LINE
  5
1CC
330
1C5
100
AcDbEntity
  8
GR1-1
  6
細い実線
 62
     2
100
AcDbLine
 10
696.681493
 20
208.771677
 30
0.0
 11
697.461493
 21
208.771677
 31
0.0
  0
TEXT
  5
1CD
330
1C5
100
AcDbEntity
  8
GR1-1
  6
細い実線
 62
     4
100
AcDbText
 10
693.536563
 20
209.215352
 30
0.0
 40
1.5
  1
40
 41
0.7
  7
FX_VECTOR
 72
     5
 11
695.636563
 21
209.215352
 31
0.0
100
AcDbText
  0
LINE
  5
1CE
330
1C5
100
AcDbEntity
  8
GR1-1
  6
細い実線
 62
     2
100
AcDbLine
 10
692.721493
 20
208.901677
 30
0.0
 11
692.721493
 21
208.641677
 31
0.0
  0
LINE
  5
1CF
330
1C5
100
AcDbEntity
  8
GR1-1
  6
細い実線
 62
     2
100
AcDbLine
 10
692.721493
 20
208.641677
 30
0.0
 11
693.501493
 21
208.771677
 31
0.0
  0
LINE
  5
1D0
330
1C5
100
AcDbEntity
  8
GR1-1
  6
細い実線
 62
     2
100
AcDbLine
 10
693.501493
 20
208.771677
 30
0.0
 11
692.721493
 21
208.901677
 31
0.0
  0
LINE
  5
1D1
330
1C5
100
AcDbEntity
  8
GR1-1
  6
細い実線
 62
     2
100
AcDbLine
 10
696.681493
 20
208.901677
 30
0.0
 11
696.681493
 21
208.641677
 31
0.0
  0
LINE
  5
1D2
330
1C5
100
AcDbEntity
  8
GR1-1
  6
細い実線
 62
     2
100
AcDbLine
 10
696.681493
 20
208.641677
 30
0.0
 11
695.901493
 21
208.771677
 31
0.0
  0
LINE
  5
1D3
330
1C5
100
AcDbEntity
  8
GR1-1
  6
細い実線
 62
     2
100
AcDbLine
 10
695.901493
 20
208.771677
 30
0.0
 11
696.681493
 21
208.901677
 31
0.0
  0
ENDBLK
  5
1C7
330
1C5
100
AcDbEntity
  8
0
100
AcDbBlockEnd
  0
BLOCK
  5
1D5
330
1D4
100
AcDbEntity
  8
0
100
AcDbBlockBegin
  2
BLKF038
 70
     0
 71
     0
 10
0.0
 20
0.0
 30
0.0
  3
BLKF038
  1

  0
LINE
  5
1D8
330
1D4
100
AcDbEntity
  8
GR1-1
  6
細い実線
 62
     2
100
AcDbLine
 10
693.201493
 20
211.420298
 30
0.0
 11
693.201493
 21
204.528202
 31
0.0
  0
LINE
  5
1D9
330
1D4
100
AcDbEntity
  8
GR1-1
  6
細い実線
 62
     2
100
AcDbLine
 10
695.901493
 20
212.140298
 30
0.0
 11
695.901493
 21
204.528202
 31
0.0
  0
LINE
  5
1DA
330
1D4
100
AcDbEntity
  8
GR1-1
  6
細い実線
 62
     2
100
AcDbLine
 10
692.421493
 20
205.128202
 30
0.0
 11
691.641493
 21
205.128202
 31
0.0
  0
LINE
  5
1DB
330
1D4
100
AcDbEntity
  8
GR1-1
  6
細い実線
 62
     2
100
AcDbLine
 10
696.681493
 20
205.128202
 30
0.0
 11
697.461493
 21
205.128202
 31
0.0
  0
TEXT
  5
1DC
330
1D4
100
AcDbEntity
  8
GR1-1
  6
細い実線
 62
     4
100
AcDbText
 10
693.458594
 20
205.596563
 30
0.0
 40
1.5
  1
45
 41
0.7
  7
FX_VECTOR
 72
     5
 11
695.558594
 21
205.596563
 31
0.0
100
AcDbText
  0
LINE
  5
1DD
330
1D4
100
AcDbEntity
  8
GR1-1
  6
細い実線
 62
     2
100
AcDbLine
 10
692.421493
 20
205.258202
 30
0.0
 11
692.421493
 21
204.998202
 31
0.0
  0
LINE
  5
1DE
330
1D4
100
AcDbEntity
  8
GR1-1
  6
細い実線
 62
     2
100
AcDbLine
 10
692.421493
 20
204.998202
 30
0.0
 11
693.201493
 21
205.128202
 31
0.0
  0
LINE
  5
1DF
330
1D4
100
AcDbEntity
  8
GR1-1
  6
細い実線
 62
     2
100
AcDbLine
 10
693.201493
 20
205.128202
 30
0.0
 11
692.421493
 21
205.258202
 31
0.0
  0
LINE
  5
1E0
330
1D4
100
AcDbEntity
  8
GR1-1
  6
細い実線
 62
     2
100
AcDbLine
 10
696.681493
 20
205.258202
 30
0.0
 11
696.681493
 21
204.998202
 31
0.0
  0
LINE
  5
1E1
330
1D4
100
AcDbEntity
  8
GR1-1
  6
細い実線
 62
     2
100
AcDbLine
 10
696.681493
 20
204.998202
 30
0.0
 11
695.901493
 21
205.128202
 31
0.0
  0
LINE
  5
1E2
330
1D4
100
AcDbEntity
  8
GR1-1
  6
細い実線
 62
     2
100
AcDbLine
 10
695.901493
 20
205.128202
 30
0.0
 11
696.681493
 21
205.258202
 31
0.0
  0
ENDBLK
  5
1D6
330
1D4
100
AcDbEntity
  8
0
100
AcDbBlockEnd
  0
BLOCK
  5
1E4
330
1E3
100
AcDbEntity
  8
0
100
AcDbBlockBegin
  2
BLKF039
 70
     0
 71
     0
 10
0.0
 20
0.0
 30
0.0
  3
BLKF039
  1

  0
LINE
  5
1E7
330
1E3
100
AcDbEntity
  8
GR1-1
  6
細い実線
 62
     2
100
AcDbLine
 10
683.35119
 20
212.140298
 30
0.0
 11
683.35119
 21
208.171677
 31
0.0
  0
LINE
  5
1E8
330
1E3
100
AcDbEntity
  8
GR1-1
  6
細い実線
 62
     2
100
AcDbLine
 10
683.05119
 20
211.420298
 30
0.0
 11
683.05119
 21
208.171677
 31
0.0
  0
LINE
  5
1E9
330
1E3
100
AcDbEntity
  8
GR1-1
  6
細い実線
 62
     2
100
AcDbLine
 10
684.13119
 20
208.771677
 30
0.0
 11
684.91119
 21
208.771677
 31
0.0
  0
LINE
  5
1EA
330
1E3
100
AcDbEntity
  8
GR1-1
  6
細い実線
 62
     2
100
AcDbLine
 10
682.27119
 20
208.771677
 30
0.0
 11
681.49119
 21
208.771677
 31
0.0
  0
TEXT
  5
1EB
330
1E3
100
AcDbEntity
  8
GR1-1
  6
細い実線
 62
     4
100
AcDbText
 10
681.620625
 20
209.189395
 30
0.0
 40
1.5
  1
5
 41
0.7
  7
FX_VECTOR
 72
     5
 11
682.670625
 21
209.189395
 31
0.0
100
AcDbText
  0
LINE
  5
1EC
330
1E3
100
AcDbEntity
  8
GR1-1
  6
細い実線
 62
     2
100
AcDbLine
 10
684.13119
 20
208.901677
 30
0.0
 11
684.13119
 21
208.641677
 31
0.0
  0
LINE
  5
1ED
330
1E3
100
AcDbEntity
  8
GR1-1
  6
細い実線
 62
     2
100
AcDbLine
 10
684.13119
 20
208.641677
 30
0.0
 11
683.35119
 21
208.771677
 31
0.0
  0
LINE
  5
1EE
330
1E3
100
AcDbEntity
  8
GR1-1
  6
細い実線
 62
     2
100
AcDbLine
 10
683.35119
 20
208.771677
 30
0.0
 11
684.13119
 21
208.901677
 31
0.0
  0
LINE
  5
1EF
330
1E3
100
AcDbEntity
  8
GR1-1
  6
細い実線
 62
     2
100
AcDbLine
 10
682.27119
 20
208.901677
 30
0.0
 11
682.27119
 21
208.641677
 31
0.0
  0
LINE
  5
1F0
330
1E3
100
AcDbEntity
  8
GR1-1
  6
細い実線
 62
     2
100
AcDbLine
 10
682.27119
 20
208.641677
 30
0.0
 11
683.05119
 21
208.771677
 31
0.0
  0
LINE
  5
1F1
330
1E3
100
AcDbEntity
  8
GR1-1
  6
細い実線
 62
     2
100
AcDbLine
 10
683.05119
 20
208.771677
 30
0.0
 11
682.27119
 21
208.901677
 31
0.0
  0
ENDBLK
  5
1E5
330
1E3
100
AcDbEntity
  8
0
100
AcDbBlockEnd
  0
BLOCK
  5
1F3
330
1F2
100
AcDbEntity
  8
0
100
AcDbBlockBegin
  2
BLKF040
 70
     0
 71
     0
 10
0.0
 20
0.0
 30
0.0
  3
BLKF040
  1

  0
LINE
  5
1F6
330
1F2
100
AcDbEntity
  8
GR1-1
  6
細い実線
 62
     2
100
AcDbLine
 10
683.35119
 20
212.140298
 30
0.0
 11
683.35119
 21
208.171677
 31
0.0
  0
LINE
  5
1F7
330
1F2
100
AcDbEntity
  8
GR1-1
  6
細い実線
 62
     2
100
AcDbLine
 10
685.75119
 20
212.140298
 30
0.0
 11
685.75119
 21
208.171677
 31
0.0
  0
LINE
  5
1F8
330
1F2
100
AcDbEntity
  8
GR1-1
  6
細い実線
 62
     2
100
AcDbLine
 10
682.57119
 20
208.771677
 30
0.0
 11
681.79119
 21
208.771677
 31
0.0
  0
LINE
  5
1F9
330
1F2
100
AcDbEntity
  8
GR1-1
  6
細い実線
 62
     2
100
AcDbLine
 10
686.53119
 20
208.771677
 30
0.0
 11
687.31119
 21
208.771677
 31
0.0
  0
TEXT
  5
1FA
330
1F2
100
AcDbEntity
  8
GR1-1
  6
細い実線
 62
     4
100
AcDbText
 10
683.277344
 20
209.215352
 30
0.0
 40
1.5
  1
40
 41
0.7
  7
FX_VECTOR
 72
     5
 11
685.377344
 21
209.215352
 31
0.0
100
AcDbText
  0
LINE
  5
1FB
330
1F2
100
AcDbEntity
  8
GR1-1
  6
細い実線
 62
     2
100
AcDbLine
 10
682.57119
 20
208.901677
 30
0.0
 11
682.57119
 21
208.641677
 31
0.0
  0
LINE
  5
1FC
330
1F2
100
AcDbEntity
  8
GR1-1
  6
細い実線
 62
     2
100
AcDbLine
 10
682.57119
 20
208.641677
 30
0.0
 11
683.35119
 21
208.771677
 31
0.0
  0
LINE
  5
1FD
330
1F2
100
AcDbEntity
  8
GR1-1
  6
細い実線
 62
     2
100
AcDbLine
 10
683.35119
 20
208.771677
 30
0.0
 11
682.57119
 21
208.901677
 31
0.0
  0
LINE
  5
1FE
330
1F2
100
AcDbEntity
  8
GR1-1
  6
細い実線
 62
     2
100
AcDbLine
 10
686.53119
 20
208.901677
 30
0.0
 11
686.53119
 21
208.641677
 31
0.0
  0
LINE
  5
1FF
330
1F2
100
AcDbEntity
  8
GR1-1
  6
細い実線
 62
     2
100
AcDbLine
 10
686.53119
 20
208.641677
 30
0.0
 11
685.75119
 21
208.771677
 31
0.0
  0
LINE
  5
200
330
1F2
100
AcDbEntity
  8
GR1-1
  6
細い実線
 62
     2
100
AcDbLine
 10
685.75119
 20
208.771677
 30
0.0
 11
686.53119
 21
208.901677
 31
0.0
  0
ENDBLK
  5
1F4
330
1F2
100
AcDbEntity
  8
0
100
AcDbBlockEnd
  0
BLOCK
  5
202
330
201
100
AcDbEntity
  8
0
100
AcDbBlockBegin
  2
BLKF041
 70
     0
 71
     0
 10
0.0
 20
0.0
 30
0.0
  3
BLKF041
  1

  0
LINE
  5
205
330
201
100
AcDbEntity
  8
GR1-1
  6
細い実線
 62
     2
100
AcDbLine
 10
685.75119
 20
212.140298
 30
0.0
 11
685.75119
 21
208.171677
 31
0.0
  0
LINE
  5
206
330
201
100
AcDbEntity
  8
GR1-1
  6
細い実線
 62
     2
100
AcDbLine
 10
686.05119
 20
211.420298
 30
0.0
 11
686.05119
 21
208.171677
 31
0.0
  0
LINE
  5
207
330
201
100
AcDbEntity
  8
GR1-1
  6
細い実線
 62
     2
100
AcDbLine
 10
684.97119
 20
208.771677
 30
0.0
 11
684.19119
 21
208.771677
 31
0.0
  0
LINE
  5
208
330
201
100
AcDbEntity
  8
GR1-1
  6
細い実線
 62
     2
100
AcDbLine
 10
686.83119
 20
208.771677
 30
0.0
 11
687.61119
 21
208.771677
 31
0.0
  0
TEXT
  5
209
330
201
100
AcDbEntity
  8
GR1-1
  6
細い実線
 62
     4
100
AcDbText
 10
686.217813
 20
209.215352
 30
0.0
 40
1.5
  1
5
 41
0.7
  7
FX_VECTOR
 72
     5
 11
687.267812
 21
209.215352
 31
0.0
100
AcDbText
  0
LINE
  5
20A
330
201
100
AcDbEntity
  8
GR1-1
  6
細い実線
 62
     2
100
AcDbLine
 10
684.97119
 20
208.901677
 30
0.0
 11
684.97119
 21
208.641677
 31
0.0
  0
LINE
  5
20B
330
201
100
AcDbEntity
  8
GR1-1
  6
細い実線
 62
     2
100
AcDbLine
 10
684.97119
 20
208.641677
 30
0.0
 11
685.75119
 21
208.771677
 31
0.0
  0
LINE
  5
20C
330
201
100
AcDbEntity
  8
GR1-1
  6
細い実線
 62
     2
100
AcDbLine
 10
685.75119
 20
208.771677
 30
0.0
 11
684.97119
 21
208.901677
 31
0.0
  0
LINE
  5
20D
330
201
100
AcDbEntity
  8
GR1-1
  6
細い実線
 62
     2
100
AcDbLine
 10
686.83119
 20
208.901677
 30
0.0
 11
686.83119
 21
208.641677
 31
0.0
  0
LINE
  5
20E
330
201
100
AcDbEntity
  8
GR1-1
  6
細い実線
 62
     2
100
AcDbLine
 10
686.83119
 20
208.641677
 30
0.0
 11
686.05119
 21
208.771677
 31
0.0
  0
LINE
  5
20F
330
201
100
AcDbEntity
  8
GR1-1
  6
細い実線
 62
     2
100
AcDbLine
 10
686.05119
 20
208.771677
 30
0.0
 11
686.83119
 21
208.901677
 31
0.0
  0
ENDBLK
  5
203
330
201
100
AcDbEntity
  8
0
100
AcDbBlockEnd
  0
BLOCK
  5
211
330
210
100
AcDbEntity
  8
0
100
AcDbBlockBegin
  2
BLKF042
 70
     0
 71
     0
 10
0.0
 20
0.0
 30
0.0
  3
BLKF042
  1

  0
LINE
  5
214
330
210
100
AcDbEntity
  8
GR1-1
  6
細い実線
 62
     2
100
AcDbLine
 10
683.05119
 20
211.420298
 30
0.0
 11
683.05119
 21
204.528202
 31
0.0
  0
LINE
  5
215
330
210
100
AcDbEntity
  8
GR1-1
  6
細い実線
 62
     2
100
AcDbLine
 10
686.05119
 20
211.420298
 30
0.0
 11
686.05119
 21
204.528202
 31
0.0
  0
LINE
  5
216
330
210
100
AcDbEntity
  8
GR1-1
  6
細い実線
 62
     2
100
AcDbLine
 10
683.83119
 20
205.128202
 30
0.0
 11
685.27119
 21
205.128202
 31
0.0
  0
LINE
  5
217
330
210
100
AcDbEntity
  8
GR1-1
  6
細い実線
 62
     2
100
AcDbLine
 10
683.83119
 20
205.258202
 30
0.0
 11
683.83119
 21
204.998202
 31
0.0
  0
LINE
  5
218
330
210
100
AcDbEntity
  8
GR1-1
  6
細い実線
 62
     2
100
AcDbLine
 10
683.83119
 20
204.998202
 30
0.0
 11
683.05119
 21
205.128202
 31
0.0
  0
LINE
  5
219
330
210
100
AcDbEntity
  8
GR1-1
  6
細い実線
 62
     2
100
AcDbLine
 10
683.05119
 20
205.128202
 30
0.0
 11
683.83119
 21
205.258202
 31
0.0
  0
LINE
  5
21A
330
210
100
AcDbEntity
  8
GR1-1
  6
細い実線
 62
     2
100
AcDbLine
 10
685.27119
 20
205.258202
 30
0.0
 11
685.27119
 21
204.998202
 31
0.0
  0
LINE
  5
21B
330
210
100
AcDbEntity
  8
GR1-1
  6
細い実線
 62
     2
100
AcDbLine
 10
685.27119
 20
204.998202
 30
0.0
 11
686.05119
 21
205.128202
 31
0.0
  0
LINE
  5
21C
330
210
100
AcDbEntity
  8
GR1-1
  6
細い実線
 62
     2
100
AcDbLine
 10
686.05119
 20
205.128202
 30
0.0
 11
685.27119
 21
205.258202
 31
0.0
  0
TEXT
  5
21D
330
210
100
AcDbEntity
  8
GR1-1
  6
細い実線
 62
     4
100
AcDbText
 10
683.501172
 20
205.728203
 30
0.0
 40
1.5
  1
50
 41
0.7
  7
FX_VECTOR
 72
     5
 11
685.601172
 21
205.728203
 31
0.0
100
AcDbText
  0
ENDBLK
  5
212
330
210
100
AcDbEntity
  8
0
100
AcDbBlockEnd
  0
BLOCK
  5
21F
330
21E
100
AcDbEntity
  8
0
100
AcDbBlockBegin
  2
BLKF043
 70
     0
 71
     0
 10
0.0
 20
0.0
 30
0.0
  3
BLKF043
  1

  0
LINE
  5
222
330
21E
100
AcDbEntity
  8
GR1-1
  6
細い実線
 62
     2
100
AcDbLine
 10
692.301493
 20
212.320298
 30
0.0
 11
688.649178
 21
212.320298
 31
0.0
  0
LINE
  5
223
330
21E
100
AcDbEntity
  8
GR1-1
  6
細い実線
 62
     2
100
AcDbLine
 10
692.601493
 20
213.040298
 30
0.0
 11
688.649178
 21
213.040298
 31
0.0
  0
LINE
  5
224
330
21E
100
AcDbEntity
  8
GR1-1
  6
細い実線
 62
     2
100
AcDbLine
 10
689.249178
 20
211.540298
 30
0.0
 11
689.249178
 21
210.760298
 31
0.0
  0
LINE
  5
225
330
21E
100
AcDbEntity
  8
GR1-1
  6
細い実線
 62
     2
100
AcDbLine
 10
689.249178
 20
213.820298
 30
0.0
 11
689.249178
 21
214.600298
 31
0.0
  0
TEXT
  5
226
330
21E
100
AcDbEntity
  8
GR1-1
  6
細い実線
 62
     4
100
AcDbText
 10
688.700547
 20
213.391562
 30
0.0
 40
1.5
  1
12
 50
90.0
 41
0.7
  7
FX_VECTOR
 72
     5
 11
688.700547
 21
215.491563
 31
0.0
100
AcDbText
  0
LINE
  5
227
330
21E
100
AcDbEntity
  8
GR1-1
  6
細い実線
 62
     2
100
AcDbLine
 10
689.119178
 20
211.540298
 30
0.0
 11
689.379178
 21
211.540298
 31
0.0
  0
LINE
  5
228
330
21E
100
AcDbEntity
  8
GR1-1
  6
細い実線
 62
     2
100
AcDbLine
 10
689.379178
 20
211.540298
 30
0.0
 11
689.249178
 21
212.320298
 31
0.0
  0
LINE
  5
229
330
21E
100
AcDbEntity
  8
GR1-1
  6
細い実線
 62
     2
100
AcDbLine
 10
689.249178
 20
212.320298
 30
0.0
 11
689.119178
 21
211.540298
 31
0.0
  0
LINE
  5
22A
330
21E
100
AcDbEntity
  8
GR1-1
  6
細い実線
 62
     2
100
AcDbLine
 10
689.119178
 20
213.820298
 30
0.0
 11
689.379178
 21
213.820298
 31
0.0
  0
LINE
  5
22B
330
21E
100
AcDbEntity
  8
GR1-1
  6
細い実線
 62
     2
100
AcDbLine
 10
689.379178
 20
213.820298
 30
0.0
 11
689.249178
 21
213.040298
 31
0.0
  0
LINE
  5
22C
330
21E
100
AcDbEntity
  8
GR1-1
  6
細い実線
 62
     2
100
AcDbLine
 10
689.249178
 20
213.040298
 30
0.0
 11
689.119178
 21
213.820298
 31
0.0
  0
ENDBLK
  5
220
330
21E
100
AcDbEntity
  8
0
100
AcDbBlockEnd
  0
BLOCK
  5
264
330
263
100
AcDbEntity
  8
0
100
AcDbBlockBegin
  2
BLKF044
 70
     0
 71
     0
 10
0.0
 20
0.0
 30
0.0
  3
BLKF044
  1

  0
LINE
  5
267
330
263
100
AcDbEntity
  8
GR1-1
  6
CONTINUOUS
 62
     2
100
AcDbLine
 10
789.734944
 20
129.787721
 30
0.0
 11
787.223348
 21
124.764529
 31
0.0
  0
LINE
  5
268
330
263
100
AcDbEntity
  8
GR1-1
  6
CONTINUOUS
 62
     2
100
AcDbLine
 10
790.092715
 20
129.608835
 30
0.0
 11
787.581119
 21
124.585644
 31
0.0
  0
LINE
  5
269
330
263
100
AcDbEntity
  8
GR1-1
  6
CONTINUOUS
 62
     2
100
AcDbLine
 10
786.794023
 20
125.650012
 30
0.0
 11
786.09637
 21
125.998839
 31
0.0
  0
LINE
  5
26A
330
263
100
AcDbEntity
  8
GR1-1
  6
CONTINUOUS
 62
     2
100
AcDbLine
 10
788.5471
 20
124.773474
 30
0.0
 11
789.244754
 21
124.424647
 31
0.0
  0
TEXT
  5
26B
330
263
100
AcDbEntity
  8
GR1-1
  6
CONTINUOUS
 62
     4
100
AcDbText
 10
788.345937
 20
125.532051
 30
0.0
 40
1.5
  1
20
 50
333.434937
 41
0.7
  7
FX_VECTOR
 72
     5
 11
790.224234
 21
124.592902
 31
0.0
100
AcDbText
  0
LINE
  5
26C
330
263
100
AcDbEntity
  8
GR1-1
  6
CONTINUOUS
 62
     2
100
AcDbLine
 10
786.852161
 20
125.766288
 30
0.0
 11
786.735885
 21
125.533737
 31
0.0
  0
LINE
  5
26D
330
263
100
AcDbEntity
  8
GR1-1
  6
CONTINUOUS
 62
     2
100
AcDbLine
 10
786.735885
 20
125.533737
 30
0.0
 11
787.491676
 21
125.301186
 31
0.0
  0
LINE
  5
26E
330
263
100
AcDbEntity
  8
GR1-1
  6
CONTINUOUS
 62
     2
100
AcDbLine
 10
787.491676
 20
125.301186
 30
0.0
 11
786.852161
 21
125.766288
 31
0.0
  0
LINE
  5
26F
330
263
100
AcDbEntity
  8
GR1-1
  6
CONTINUOUS
 62
     2
100
AcDbLine
 10
788.605238
 20
124.889749
 30
0.0
 11
788.488963
 21
124.657198
 31
0.0
  0
LINE
  5
270
330
263
100
AcDbEntity
  8
GR1-1
  6
CONTINUOUS
 62
     2
100
AcDbLine
 10
788.488963
 20
124.657198
 30
0.0
 11
787.849447
 21
125.1223
 31
0.0
  0
LINE
  5
271
330
263
100
AcDbEntity
  8
GR1-1
  6
CONTINUOUS
 62
     2
100
AcDbLine
 10
787.849447
 20
125.1223
 30
0.0
 11
788.605238
 21
124.889749
 31
0.0
  0
ENDBLK
  5
265
330
263
100
AcDbEntity
  8
0
100
AcDbBlockEnd
  0
BLOCK
  5
273
330
272
100
AcDbEntity
  8
0
100
AcDbBlockBegin
  2
BLKF045
 70
     0
 71
     0
 10
0.0
 20
0.0
 30
0.0
  3
BLKF045
  1

  0
LINE
  5
276
330
272
100
AcDbEntity
  8
GR1-1
  6
CONTINUOUS
 62
     2
100
AcDbLine
 10
789.734944
 20
129.787721
 30
0.0
 11
787.223348
 21
124.764529
 31
0.0
  0
LINE
  5
277
330
272
100
AcDbEntity
  8
GR1-1
  6
CONTINUOUS
 62
     2
100
AcDbLine
 10
788.840517
 20
130.234935
 30
0.0
 11
786.328921
 21
125.211743
 31
0.0
  0
LINE
  5
278
330
272
100
AcDbEntity
  8
GR1-1
  6
CONTINUOUS
 62
     2
100
AcDbLine
 10
788.18933
 20
124.952359
 30
0.0
 11
788.886983
 21
124.603533
 31
0.0
  0
LINE
  5
279
330
272
100
AcDbEntity
  8
GR1-1
  6
CONTINUOUS
 62
     2
100
AcDbLine
 10
785.899596
 20
126.097226
 30
0.0
 11
785.201943
 21
126.446053
 31
0.0
  0
TEXT
  5
27A
330
272
100
AcDbEntity
  8
GR1-1
  6
CONTINUOUS
 62
     4
100
AcDbText
 10
786.253047
 20
126.557012
 30
0.0
 40
1.5
  1
50
 50
333.434937
 41
0.7
  7
FX_VECTOR
 72
     5
 11
788.131344
 21
125.617863
 31
0.0
100
AcDbText
  0
LINE
  5
27B
330
272
100
AcDbEntity
  8
GR1-1
  6
CONTINUOUS
 62
     2
100
AcDbLine
 10
788.247467
 20
125.068635
 30
0.0
 11
788.131192
 21
124.836084
 31
0.0
  0
LINE
  5
27C
330
272
100
AcDbEntity
  8
GR1-1
  6
CONTINUOUS
 62
     2
100
AcDbLine
 10
788.131192
 20
124.836084
 30
0.0
 11
787.491676
 21
125.301186
 31
0.0
  0
LINE
  5
27D
330
272
100
AcDbEntity
  8
GR1-1
  6
CONTINUOUS
 62
     2
100
AcDbLine
 10
787.491676
 20
125.301186
 30
0.0
 11
788.247467
 21
125.068635
 31
0.0
  0
LINE
  5
27E
330
272
100
AcDbEntity
  8
GR1-1
  6
CONTINUOUS
 62
     2
100
AcDbLine
 10
785.957734
 20
126.213502
 30
0.0
 11
785.841458
 21
125.98095
 31
0.0
  0
LINE
  5
27F
330
272
100
AcDbEntity
  8
GR1-1
  6
CONTINUOUS
 62
     2
100
AcDbLine
 10
785.841458
 20
125.98095
 30
0.0
 11
786.597249
 21
125.748399
 31
0.0
  0
LINE
  5
280
330
272
100
AcDbEntity
  8
GR1-1
  6
CONTINUOUS
 62
     2
100
AcDbLine
 10
786.597249
 20
125.748399
 30
0.0
 11
785.957734
 21
126.213502
 31
0.0
  0
ENDBLK
  5
274
330
272
100
AcDbEntity
  8
0
100
AcDbBlockEnd
  0
BLOCK
  5
282
330
281
100
AcDbEntity
  8
0
100
AcDbBlockBegin
  2
BLKF046
 70
     0
 71
     0
 10
0.0
 20
0.0
 30
0.0
  3
BLKF046
  1

  0
LINE
  5
285
330
281
100
AcDbEntity
  8
GR1-1
  6
CONTINUOUS
 62
     2
100
AcDbLine
 10
787.677761
 20
130.816312
 30
0.0
 11
783.385884
 21
122.232558
 31
0.0
  0
LINE
  5
286
330
281
100
AcDbEntity
  8
GR1-1
  6
CONTINUOUS
 62
     2
100
AcDbLine
 10
788.840517
 20
130.234935
 30
0.0
 11
784.54864
 21
121.65118
 31
0.0
  0
LINE
  5
287
330
281
100
AcDbEntity
  8
GR1-1
  6
CONTINUOUS
 62
     2
100
AcDbLine
 10
782.956559
 20
123.118041
 30
0.0
 11
782.258906
 21
123.466868
 31
0.0
  0
LINE
  5
288
330
281
100
AcDbEntity
  8
GR1-1
  6
CONTINUOUS
 62
     2
100
AcDbLine
 10
785.514621
 20
121.83901
 30
0.0
 11
786.212274
 21
121.490184
 31
0.0
  0
TEXT
  5
289
330
281
100
AcDbEntity
  8
GR1-1
  6
CONTINUOUS
 62
     4
100
AcDbText
 10
781.800469
 20
124.445605
 30
0.0
 40
1.5
  1
65
 50
333.434937
 41
0.7
  7
FX_VECTOR
 72
     5
 11
783.678766
 21
123.506457
 31
0.0
100
AcDbText
  0
LINE
  5
28A
330
281
100
AcDbEntity
  8
GR1-1
  6
CONTINUOUS
 62
     2
100
AcDbLine
 10
783.014697
 20
123.234317
 30
0.0
 11
782.898422
 21
123.001766
 31
0.0
  0
LINE
  5
28B
330
281
100
AcDbEntity
  8
GR1-1
  6
CONTINUOUS
 62
     2
100
AcDbLine
 10
782.898422
 20
123.001766
 30
0.0
 11
783.654213
 21
122.769214
 31
0.0
  0
LINE
  5
28C
330
281
100
AcDbEntity
  8
GR1-1
  6
CONTINUOUS
 62
     2
100
AcDbLine
 10
783.654213
 20
122.769214
 30
0.0
 11
783.014697
 21
123.234317
 31
0.0
  0
LINE
  5
28D
330
281
100
AcDbEntity
  8
GR1-1
  6
CONTINUOUS
 62
     2
100
AcDbLine
 10
785.572759
 20
121.955286
 30
0.0
 11
785.456483
 21
121.722735
 31
0.0
  0
LINE
  5
28E
330
281
100
AcDbEntity
  8
GR1-1
  6
CONTINUOUS
 62
     2
100
AcDbLine
 10
785.456483
 20
121.722735
 30
0.0
 11
784.816968
 21
122.187837
 31
0.0
  0
LINE
  5
28F
330
281
100
AcDbEntity
  8
GR1-1
  6
CONTINUOUS
 62
     2
100
AcDbLine
 10
784.816968
 20
122.187837
 30
0.0
 11
785.572759
 21
121.955286
 31
0.0
  0
ENDBLK
  5
283
330
281
100
AcDbEntity
  8
0
100
AcDbBlockEnd
  0
BLOCK
  5
291
330
290
100
AcDbEntity
  8
0
100
AcDbBlockBegin
  2
BLKF047
 70
     0
 71
     0
 10
0.0
 20
0.0
 30
0.0
  3
BLKF047
  1

  0
LINE
  5
294
330
290
100
AcDbEntity
  8
GR1-1
  6
CONTINUOUS
 62
     2
100
AcDbLine
 10
803.509123
 20
122.900632
 30
0.0
 11
800.997527
 21
117.87744
 31
0.0
  0
LINE
  5
295
330
290
100
AcDbEntity
  8
GR1-1
  6
CONTINUOUS
 62
     2
100
AcDbLine
 10
803.151352
 20
123.079517
 30
0.0
 11
800.639756
 21
118.056326
 31
0.0
  0
LINE
  5
296
330
290
100
AcDbEntity
  8
GR1-1
  6
CONTINUOUS
 62
     2
100
AcDbLine
 10
801.963508
 20
118.06527
 30
0.0
 11
802.661162
 21
117.716443
 31
0.0
  0
LINE
  5
297
330
290
100
AcDbEntity
  8
GR1-1
  6
CONTINUOUS
 62
     2
100
AcDbLine
 10
800.210431
 20
118.941808
 30
0.0
 11
799.512778
 21
119.290635
 31
0.0
  0
TEXT
  5
298
330
290
100
AcDbEntity
  8
GR1-1
  6
CONTINUOUS
 62
     4
100
AcDbText
 10
799.059766
 20
120.175176
 30
0.0
 40
1.5
  1
20
 50
333.434937
 41
0.7
  7
FX_VECTOR
 72
     5
 11
800.938063
 21
119.236027
 31
0.0
100
AcDbText
  0
LINE
  5
299
330
290
100
AcDbEntity
  8
GR1-1
  6
CONTINUOUS
 62
     2
100
AcDbLine
 10
802.021646
 20
118.181545
 30
0.0
 11
801.905371
 21
117.948994
 31
0.0
  0
LINE
  5
29A
330
290
100
AcDbEntity
  8
GR1-1
  6
CONTINUOUS
 62
     2
100
AcDbLine
 10
801.905371
 20
117.948994
 30
0.0
 11
801.265855
 21
118.414096
 31
0.0
  0
LINE
  5
29B
330
290
100
AcDbEntity
  8
GR1-1
  6
CONTINUOUS
 62
     2
100
AcDbLine
 10
801.265855
 20
118.414096
 30
0.0
 11
802.021646
 21
118.181545
 31
0.0
  0
LINE
  5
29C
330
290
100
AcDbEntity
  8
GR1-1
  6
CONTINUOUS
 62
     2
100
AcDbLine
 10
800.268569
 20
119.058084
 30
0.0
 11
800.152293
 21
118.825533
 31
0.0
  0
LINE
  5
29D
330
290
100
AcDbEntity
  8
GR1-1
  6
CONTINUOUS
 62
     2
100
AcDbLine
 10
800.152293
 20
118.825533
 30
0.0
 11
800.908084
 21
118.592982
 31
0.0
  0
LINE
  5
29E
330
290
100
AcDbEntity
  8
GR1-1
  6
CONTINUOUS
 62
     2
100
AcDbLine
 10
800.908084
 20
118.592982
 30
0.0
 11
800.268569
 21
119.058084
 31
0.0
  0
ENDBLK
  5
292
330
290
100
AcDbEntity
  8
0
100
AcDbBlockEnd
  0
BLOCK
  5
2A0
330
29F
100
AcDbEntity
  8
0
100
AcDbBlockBegin
  2
BLKF048
 70
     0
 71
     0
 10
0.0
 20
0.0
 30
0.0
  3
BLKF048
  1

  0
LINE
  5
2A3
330
29F
100
AcDbEntity
  8
GR1-1
  6
CONTINUOUS
 62
     2
100
AcDbLine
 10
805.566305
 20
121.87204
 30
0.0
 11
801.274428
 21
113.288286
 31
0.0
  0
LINE
  5
2A4
330
29F
100
AcDbEntity
  8
GR1-1
  6
CONTINUOUS
 62
     2
100
AcDbLine
 10
804.40355
 20
122.453418
 30
0.0
 11
800.111673
 21
113.869664
 31
0.0
  0
LINE
  5
2A5
330
29F
100
AcDbEntity
  8
GR1-1
  6
CONTINUOUS
 62
     2
100
AcDbLine
 10
802.24041
 20
113.476116
 30
0.0
 11
802.938063
 21
113.127289
 31
0.0
  0
LINE
  5
2A6
330
29F
100
AcDbEntity
  8
GR1-1
  6
CONTINUOUS
 62
     2
100
AcDbLine
 10
799.682348
 20
114.755147
 30
0.0
 11
798.984695
 21
115.103973
 31
0.0
  0
TEXT
  5
2A7
330
29F
100
AcDbEntity
  8
GR1-1
  6
CONTINUOUS
 62
     4
100
AcDbText
 10
802.117891
 20
114.286934
 30
0.0
 40
1.5
  1
65
 50
333.434937
 41
0.7
  7
FX_VECTOR
 72
     5
 11
803.996188
 21
113.347785
 31
0.0
100
AcDbText
  0
LINE
  5
2A8
330
29F
100
AcDbEntity
  8
GR1-1
  6
CONTINUOUS
 62
     2
100
AcDbLine
 10
802.298547
 20
113.592392
 30
0.0
 11
802.182272
 21
113.35984
 31
0.0
  0
LINE
  5
2A9
330
29F
100
AcDbEntity
  8
GR1-1
  6
CONTINUOUS
 62
     2
100
AcDbLine
 10
802.182272
 20
113.35984
 30
0.0
 11
801.542756
 21
113.824943
 31
0.0
  0
LINE
  5
2AA
330
29F
100
AcDbEntity
  8
GR1-1
  6
CONTINUOUS
 62
     2
100
AcDbLine
 10
801.542756
 20
113.824943
 30
0.0
 11
802.298547
 21
113.592392
 31
0.0
  0
LINE
  5
2AB
330
29F
100
AcDbEntity
  8
GR1-1
  6
CONTINUOUS
 62
     2
100
AcDbLine
 10
799.740486
 20
114.871422
 30
0.0
 11
799.62421
 21
114.638871
 31
0.0
  0
LINE
  5
2AC
330
29F
100
AcDbEntity
  8
GR1-1
  6
CONTINUOUS
 62
     2
100
AcDbLine
 10
799.62421
 20
114.638871
 30
0.0
 11
800.380001
 21
114.40632
 31
0.0
  0
LINE
  5
2AD
330
29F
100
AcDbEntity
  8
GR1-1
  6
CONTINUOUS
 62
     2
100
AcDbLine
 10
800.380001
 20
114.40632
 30
0.0
 11
799.740486
 21
114.871422
 31
0.0
  0
ENDBLK
  5
2A1
330
29F
100
AcDbEntity
  8
0
100
AcDbBlockEnd
  0
BLOCK
  5
2AF
330
2AE
100
AcDbEntity
  8
0
100
AcDbBlockBegin
  2
BLKF049
 70
     0
 71
     0
 10
0.0
 20
0.0
 30
0.0
  3
BLKF049
  1

  0
LINE
  5
2B2
330
2AE
100
AcDbEntity
  8
GR1-1
  6
CONTINUOUS
 62
     2
100
AcDbLine
 10
803.509123
 20
122.900632
 30
0.0
 11
800.997527
 21
117.87744
 31
0.0
  0
LINE
  5
2B3
330
2AE
100
AcDbEntity
  8
GR1-1
  6
CONTINUOUS
 62
     2
100
AcDbLine
 10
804.40355
 20
122.453418
 30
0.0
 11
801.891954
 21
117.430227
 31
0.0
  0
LINE
  5
2B4
330
2AE
100
AcDbEntity
  8
GR1-1
  6
CONTINUOUS
 62
     2
100
AcDbLine
 10
800.568202
 20
118.762923
 30
0.0
 11
799.870549
 21
119.11175
 31
0.0
  0
LINE
  5
2B5
330
2AE
100
AcDbEntity
  8
GR1-1
  6
CONTINUOUS
 62
     2
100
AcDbLine
 10
802.857935
 20
117.618056
 30
0.0
 11
803.555589
 21
117.26923
 31
0.0
  0
TEXT
  5
2B6
330
2AE
100
AcDbEntity
  8
GR1-1
  6
CONTINUOUS
 62
     4
100
AcDbText
 10
801.135469
 20
119.115801
 30
0.0
 40
1.5
  1
50
 50
333.434937
 41
0.7
  7
FX_VECTOR
 72
     5
 11
803.013766
 21
118.176652
 31
0.0
100
AcDbText
  0
LINE
  5
2B7
330
2AE
100
AcDbEntity
  8
GR1-1
  6
CONTINUOUS
 62
     2
100
AcDbLine
 10
800.62634
 20
118.879199
 30
0.0
 11
800.510064
 21
118.646647
 31
0.0
  0
LINE
  5
2B8
330
2AE
100
AcDbEntity
  8
GR1-1
  6
CONTINUOUS
 62
     2
100
AcDbLine
 10
800.510064
 20
118.646647
 30
0.0
 11
801.265855
 21
118.414096
 31
0.0
  0
LINE
  5
2B9
330
2AE
100
AcDbEntity
  8
GR1-1
  6
CONTINUOUS
 62
     2
100
AcDbLine
 10
801.265855
 20
118.414096
 30
0.0
 11
800.62634
 21
118.879199
 31
0.0
  0
LINE
  5
2BA
330
2AE
100
AcDbEntity
  8
GR1-1
  6
CONTINUOUS
 62
     2
100
AcDbLine
 10
802.916073
 20
117.734332
 30
0.0
 11
802.799798
 21
117.501781
 31
0.0
  0
LINE
  5
2BB
330
2AE
100
AcDbEntity
  8
GR1-1
  6
CONTINUOUS
 62
     2
100
AcDbLine
 10
802.799798
 20
117.501781
 30
0.0
 11
802.160282
 21
117.966883
 31
0.0
  0
LINE
  5
2BC
330
2AE
100
AcDbEntity
  8
GR1-1
  6
CONTINUOUS
 62
     2
100
AcDbLine
 10
802.160282
 20
117.966883
 30
0.0
 11
802.916073
 21
117.734332
 31
0.0
  0
ENDBLK
  5
2B0
330
2AE
100
AcDbEntity
  8
0
100
AcDbBlockEnd
  0
BLOCK
  5
2BE
330
2BD
100
AcDbEntity
  8
0
100
AcDbBlockBegin
  2
BLKF050
 70
     0
 71
     0
 10
0.0
 20
0.0
 30
0.0
  3
BLKF050
  1

  0
LINE
  5
2C1
330
2BD
100
AcDbEntity
  8
GR1-1
  6
CONTINUOUS
 62
     2
100
AcDbLine
 10
788.840517
 20
130.234935
 30
0.0
 11
784.54864
 21
121.65118
 31
0.0
  0
LINE
  5
2C2
330
2BD
100
AcDbEntity
  8
GR1-1
  6
CONTINUOUS
 62
     2
100
AcDbLine
 10
804.40355
 20
122.453418
 30
0.0
 11
800.111673
 21
113.869664
 31
0.0
  0
LINE
  5
2C3
330
2BD
100
AcDbEntity
  8
GR1-1
  6
CONTINUOUS
 62
     2
100
AcDbLine
 10
785.514621
 20
121.83901
 30
0.0
 11
799.682348
 21
114.755147
 31
0.0
  0
LINE
  5
2C4
330
2BD
100
AcDbEntity
  8
GR1-1
  6
CONTINUOUS
 62
     2
100
AcDbLine
 10
785.572759
 20
121.955286
 30
0.0
 11
785.456483
 21
121.722735
 31
0.0
  0
LINE
  5
2C5
330
2BD
100
AcDbEntity
  8
GR1-1
  6
CONTINUOUS
 62
     2
100
AcDbLine
 10
785.456483
 20
121.722735
 30
0.0
 11
784.816968
 21
122.187837
 31
0.0
  0
LINE
  5
2C6
330
2BD
100
AcDbEntity
  8
GR1-1
  6
CONTINUOUS
 62
     2
100
AcDbLine
 10
784.816968
 20
122.187837
 30
0.0
 11
785.572759
 21
121.955286
 31
0.0
  0
LINE
  5
2C7
330
2BD
100
AcDbEntity
  8
GR1-1
  6
CONTINUOUS
 62
     2
100
AcDbLine
 10
799.740486
 20
114.871422
 30
0.0
 11
799.62421
 21
114.638871
 31
0.0
  0
LINE
  5
2C8
330
2BD
100
AcDbEntity
  8
GR1-1
  6
CONTINUOUS
 62
     2
100
AcDbLine
 10
799.62421
 20
114.638871
 30
0.0
 11
800.380001
 21
114.40632
 31
0.0
  0
LINE
  5
2C9
330
2BD
100
AcDbEntity
  8
GR1-1
  6
CONTINUOUS
 62
     2
100
AcDbLine
 10
800.380001
 20
114.40632
 30
0.0
 11
799.740486
 21
114.871422
 31
0.0
  0
TEXT
  5
2CA
330
2BD
100
AcDbEntity
  8
GR1-1
  6
CONTINUOUS
 62
     4
100
AcDbText
 10
791.458125
 20
119.538105
 30
0.0
 40
1.5
  1
870
 50
333.434937
 41
0.7
  7
FX_VECTOR
 72
     5
 11
794.27557
 21
118.129382
 31
0.0
100
AcDbText
  0
ENDBLK
  5
2BF
330
2BD
100
AcDbEntity
  8
0
100
AcDbBlockEnd
  0
BLOCK
  5
2CC
330
2CB
100
AcDbEntity
  8
0
100
AcDbBlockBegin
  2
BLKF051
 70
     0
 71
     0
 10
0.0
 20
0.0
 30
0.0
  3
BLKF051
  1

  0
LINE
  5
2CF
330
2CB
100
AcDbEntity
  8
GR1-1
  6
CONTINUOUS
 62
     2
100
AcDbLine
 10
787.677761
 20
130.816312
 30
0.0
 11
781.803778
 21
119.068346
 31
0.0
  0
LINE
  5
2D0
330
2CB
100
AcDbEntity
  8
GR1-1
  6
CONTINUOUS
 62
     2
100
AcDbLine
 10
805.566305
 20
121.87204
 30
0.0
 11
799.692322
 21
110.124074
 31
0.0
  0
LINE
  5
2D1
330
2CB
100
AcDbEntity
  8
GR1-1
  6
CONTINUOUS
 62
     2
100
AcDbLine
 10
782.76976
 20
119.256175
 30
0.0
 11
799.262997
 21
111.009557
 31
0.0
  0
LINE
  5
2D2
330
2CB
100
AcDbEntity
  8
GR1-1
  6
CONTINUOUS
 62
     2
100
AcDbLine
 10
782.827897
 20
119.372451
 30
0.0
 11
782.711622
 21
119.1399
 31
0.0
  0
LINE
  5
2D3
330
2CB
100
AcDbEntity
  8
GR1-1
  6
CONTINUOUS
 62
     2
100
AcDbLine
 10
782.711622
 20
119.1399
 30
0.0
 11
782.072106
 21
119.605002
 31
0.0
  0
LINE
  5
2D4
330
2CB
100
AcDbEntity
  8
GR1-1
  6
CONTINUOUS
 62
     2
100
AcDbLine
 10
782.072106
 20
119.605002
 30
0.0
 11
782.827897
 21
119.372451
 31
0.0
  0
LINE
  5
2D5
330
2CB
100
AcDbEntity
  8
GR1-1
  6
CONTINUOUS
 62
     2
100
AcDbLine
 10
799.321135
 20
111.125832
 30
0.0
 11
799.204859
 21
110.893281
 31
0.0
  0
LINE
  5
2D6
330
2CB
100
AcDbEntity
  8
GR1-1
  6
CONTINUOUS
 62
     2
100
AcDbLine
 10
799.204859
 20
110.893281
 30
0.0
 11
799.96065
 21
110.66073
 31
0.0
  0
LINE
  5
2D7
330
2CB
100
AcDbEntity
  8
GR1-1
  6
CONTINUOUS
 62
     2
100
AcDbLine
 10
799.96065
 20
110.66073
 30
0.0
 11
799.321135
 21
111.125832
 31
0.0
  0
TEXT
  5
2D8
330
2CB
100
AcDbEntity
  8
GR1-1
  6
CONTINUOUS
 62
     4
100
AcDbText
 10
789.406406
 20
116.608672
 30
0.0
 40
1.5
  1
1000
 50
333.434937
 41
0.7
  7
FX_VECTOR
 72
     5
 11
793.163
 21
114.730374
 31
0.0
100
AcDbText
  0
ENDBLK
  5
2CD
330
2CB
100
AcDbEntity
  8
0
100
AcDbBlockEnd
  0
BLOCK
  5
2DA
330
2D9
100
AcDbEntity
  8
0
100
AcDbBlockBegin
  2
BLKF052
 70
     0
 71
     0
 10
0.0
 20
0.0
 30
0.0
  3
BLKF052
  1

  0
LINE
  5
2DD
330
2D9
100
AcDbEntity
  8
GR1-1
  6
CONTINUOUS
 62
     2
100
AcDbLine
 10
787.677761
 20
130.816312
 30
0.0
 11
781.803778
 21
119.068346
 31
0.0
  0
LINE
  5
2DE
330
2D9
100
AcDbEntity
  8
GR1-1
  6
CONTINUOUS
 62
     2
100
AcDbLine
 10
787.051662
 20
131.129362
 30
0.0
 11
781.177679
 21
119.381395
 31
0.0
  0
LINE
  5
2DF
330
2D9
100
AcDbEntity
  8
GR1-1
  6
CONTINUOUS
 62
     2
100
AcDbLine
 10
782.76976
 20
119.256175
 30
0.0
 11
783.467413
 21
118.907349
 31
0.0
  0
LINE
  5
2E0
330
2D9
100
AcDbEntity
  8
GR1-1
  6
CONTINUOUS
 62
     2
100
AcDbLine
 10
780.748354
 20
120.266878
 30
0.0
 11
780.050701
 21
120.615705
 31
0.0
  0
TEXT
  5
2E1
330
2D9
100
AcDbEntity
  8
GR1-1
  6
CONTINUOUS
 62
     4
100
AcDbText
 10
778.435391
 20
122.298223
 30
0.0
 40
1.5
  1
35
 50
333.434937
 41
0.7
  7
FX_VECTOR
 72
     5
 11
780.313688
 21
121.359074
 31
0.0
100
AcDbText
  0
LINE
  5
2E2
330
2D9
100
AcDbEntity
  8
GR1-1
  6
CONTINUOUS
 62
     2
100
AcDbLine
 10
782.827897
 20
119.372451
 30
0.0
 11
782.711622
 21
119.1399
 31
0.0
  0
LINE
  5
2E3
330
2D9
100
AcDbEntity
  8
GR1-1
  6
CONTINUOUS
 62
     2
100
AcDbLine
 10
782.711622
 20
119.1399
 30
0.0
 11
782.072106
 21
119.605002
 31
0.0
  0
LINE
  5
2E4
330
2D9
100
AcDbEntity
  8
GR1-1
  6
CONTINUOUS
 62
     2
100
AcDbLine
 10
782.072106
 20
119.605002
 30
0.0
 11
782.827897
 21
119.372451
 31
0.0
  0
LINE
  5
2E5
330
2D9
100
AcDbEntity
  8
GR1-1
  6
CONTINUOUS
 62
     2
100
AcDbLine
 10
780.806492
 20
120.383154
 30
0.0
 11
780.690216
 21
120.150603
 31
0.0
  0
LINE
  5
2E6
330
2D9
100
AcDbEntity
  8
GR1-1
  6
CONTINUOUS
 62
     2
100
AcDbLine
 10
780.690216
 20
120.150603
 30
0.0
 11
781.446007
 21
119.918052
 31
0.0
  0
LINE
  5
2E7
330
2D9
100
AcDbEntity
  8
GR1-1
  6
CONTINUOUS
 62
     2
100
AcDbLine
 10
781.446007
 20
119.918052
 30
0.0
 11
780.806492
 21
120.383154
 31
0.0
  0
ENDBLK
  5
2DB
330
2D9
100
AcDbEntity
  8
0
100
AcDbBlockEnd
  0
BLOCK
  5
2E9
330
2E8
100
AcDbEntity
  8
0
100
AcDbBlockBegin
  2
BLKF053
 70
     0
 71
     0
 10
0.0
 20
0.0
 30
0.0
  3
BLKF053
  1

  0
LINE
  5
2EC
330
2E8
100
AcDbEntity
  8
GR1-1
  6
CONTINUOUS
 62
     2
100
AcDbLine
 10
689.361474
 20
130.177891
 30
0.0
 11
691.582832
 21
125.735177
 31
0.0
  0
LINE
  5
2ED
330
2E8
100
AcDbEntity
  8
GR1-1
  6
CONTINUOUS
 62
     2
100
AcDbLine
 10
707.250018
 20
139.122163
 30
0.0
 11
709.471375
 21
134.679449
 31
0.0
  0
LINE
  5
2EE
330
2E8
100
AcDbEntity
  8
GR1-1
  6
CONTINUOUS
 62
     2
100
AcDbLine
 10
692.012157
 20
126.62066
 30
0.0
 11
708.505394
 21
134.867278
 31
0.0
  0
LINE
  5
2EF
330
2E8
100
AcDbEntity
  8
GR1-1
  6
CONTINUOUS
 62
     2
100
AcDbLine
 10
691.954019
 20
126.736935
 30
0.0
 11
692.070294
 21
126.504384
 31
0.0
  0
LINE
  5
2F0
330
2E8
100
AcDbEntity
  8
GR1-1
  6
CONTINUOUS
 62
     2
100
AcDbLine
 10
692.070294
 20
126.504384
 30
0.0
 11
691.314503
 21
126.271833
 31
0.0
  0
LINE
  5
2F1
330
2E8
100
AcDbEntity
  8
GR1-1
  6
CONTINUOUS
 62
     2
100
AcDbLine
 10
691.314503
 20
126.271833
 30
0.0
 11
691.954019
 21
126.736935
 31
0.0
  0
LINE
  5
2F2
330
2E8
100
AcDbEntity
  8
GR1-1
  6
CONTINUOUS
 62
     2
100
AcDbLine
 10
708.447256
 20
134.983554
 30
0.0
 11
708.563532
 21
134.751003
 31
0.0
  0
LINE
  5
2F3
330
2E8
100
AcDbEntity
  8
GR1-1
  6
CONTINUOUS
 62
     2
100
AcDbLine
 10
708.563532
 20
134.751003
 30
0.0
 11
709.203047
 21
135.216105
 31
0.0
  0
LINE
  5
2F4
330
2E8
100
AcDbEntity
  8
GR1-1
  6
CONTINUOUS
 62
     2
100
AcDbLine
 10
709.203047
 20
135.216105
 30
0.0
 11
708.447256
 21
134.983554
 31
0.0
  0
TEXT
  5
2F5
330
2E8
100
AcDbEntity
  8
GR1-1
  6
CONTINUOUS
 62
     4
100
AcDbText
 10
698.112188
 20
130.341484
 30
0.0
 40
1.5
  1
1000
 50
26.565052
 41
0.7
  7
FX_VECTOR
 72
     5
 11
701.868782
 21
132.219782
 31
0.0
100
AcDbText
  0
ENDBLK
  5
2EA
330
2E8
100
AcDbEntity
  8
0
100
AcDbBlockEnd
  0
BLOCK
  5
2F7
330
2F6
100
AcDbEntity
  8
0
100
AcDbBlockBegin
  2
BLKF054
 70
     0
 71
     0
 10
0.0
 20
0.0
 30
0.0
  3
BLKF054
  1

  0
LINE
  5
2FA
330
2F6
100
AcDbEntity
  8
GR1-1
  6
CONTINUOUS
 62
     2
100
AcDbLine
 10
704.650018
 20
144.322163
 30
0.0
 11
706.837743
 21
139.946714
 31
0.0
  0
LINE
  5
2FB
330
2F6
100
AcDbEntity
  8
GR1-1
  6
CONTINUOUS
 62
     2
100
AcDbLine
 10
705.276117
 20
144.635212
 30
0.0
 11
707.463842
 21
140.259763
 31
0.0
  0
LINE
  5
2FC
330
2F6
100
AcDbEntity
  8
GR1-1
  6
CONTINUOUS
 62
     2
100
AcDbLine
 10
705.871762
 20
140.134543
 30
0.0
 11
705.174108
 21
139.785717
 31
0.0
  0
LINE
  5
2FD
330
2F6
100
AcDbEntity
  8
GR1-1
  6
CONTINUOUS
 62
     2
100
AcDbLine
 10
707.893167
 20
141.145246
 30
0.0
 11
708.59082
 21
141.494073
 31
0.0
  0
TEXT
  5
2FE
330
2F6
100
AcDbEntity
  8
GR1-1
  6
CONTINUOUS
 62
     4
100
AcDbText
 10
708.098203
 20
141.874473
 30
0.0
 40
1.5
  1
35
 50
26.565052
 41
0.7
  7
FX_VECTOR
 72
     5
 11
709.9765
 21
142.813621
 31
0.0
100
AcDbText
  0
LINE
  5
2FF
330
2F6
100
AcDbEntity
  8
GR1-1
  6
CONTINUOUS
 62
     2
100
AcDbLine
 10
705.813624
 20
140.250819
 30
0.0
 11
705.929899
 21
140.018268
 31
0.0
  0
LINE
  5
300
330
2F6
100
AcDbEntity
  8
GR1-1
  6
CONTINUOUS
 62
     2
100
AcDbLine
 10
705.929899
 20
140.018268
 30
0.0
 11
706.569415
 21
140.48337
 31
0.0
  0
LINE
  5
301
330
2F6
100
AcDbEntity
  8
GR1-1
  6
CONTINUOUS
 62
     2
100
AcDbLine
 10
706.569415
 20
140.48337
 30
0.0
 11
705.813624
 21
140.250819
 31
0.0
  0
LINE
  5
302
330
2F6
100
AcDbEntity
  8
GR1-1
  6
CONTINUOUS
 62
     2
100
AcDbLine
 10
707.835029
 20
141.261522
 30
0.0
 11
707.951305
 21
141.02897
 31
0.0
  0
LINE
  5
303
330
2F6
100
AcDbEntity
  8
GR1-1
  6
CONTINUOUS
 62
     2
100
AcDbLine
 10
707.951305
 20
141.02897
 30
0.0
 11
707.195514
 21
140.796419
 31
0.0
  0
LINE
  5
304
330
2F6
100
AcDbEntity
  8
GR1-1
  6
CONTINUOUS
 62
     2
100
AcDbLine
 10
707.195514
 20
140.796419
 30
0.0
 11
707.835029
 21
141.261522
 31
0.0
  0
ENDBLK
  5
2F8
330
2F6
100
AcDbEntity
  8
0
100
AcDbBlockEnd
  0
BLOCK
  5
308
330
307
100
AcDbEntity
  8
0
100
AcDbBlockBegin
  2
BLKF055
 70
     0
 71
     0
 10
0.0
 20
0.0
 30
0.0
  3
BLKF055
  1

  0
LINE
  5
30B
330
307
100
AcDbEntity
  8
GR1-1
  6
CONTINUOUS
 62
     2
100
AcDbLine
 10
794.833179
 20
146.027147
 30
0.0
 11
794.833179
 21
151.069733
 31
0.0
  0
LINE
  5
30C
330
307
100
AcDbEntity
  8
GR1-1
  6
CONTINUOUS
 62
     2
100
AcDbLine
 10
817.194199
 20
146.027147
 30
0.0
 11
817.194199
 21
151.069733
 31
0.0
  0
LINE
  5
30D
330
307
100
AcDbEntity
  8
GR1-1
  6
CONTINUOUS
 62
     2
100
AcDbLine
 10
795.613179
 20
150.469733
 30
0.0
 11
816.414199
 21
150.469733
 31
0.0
  0
LINE
  5
30E
330
307
100
AcDbEntity
  8
GR1-1
  6
CONTINUOUS
 62
     2
100
AcDbLine
 10
795.613179
 20
150.599733
 30
0.0
 11
795.613179
 21
150.339733
 31
0.0
  0
LINE
  5
30F
330
307
100
AcDbEntity
  8
GR1-1
  6
CONTINUOUS
 62
     2
100
AcDbLine
 10
795.613179
 20
150.339733
 30
0.0
 11
794.833179
 21
150.469733
 31
0.0
  0
LINE
  5
310
330
307
100
AcDbEntity
  8
GR1-1
  6
CONTINUOUS
 62
     2
100
AcDbLine
 10
794.833179
 20
150.469733
 30
0.0
 11
795.613179
 21
150.599733
 31
0.0
  0
LINE
  5
311
330
307
100
AcDbEntity
  8
GR1-1
  6
CONTINUOUS
 62
     2
100
AcDbLine
 10
816.414199
 20
150.599733
 30
0.0
 11
816.414199
 21
150.339733
 31
0.0
  0
LINE
  5
312
330
307
100
AcDbEntity
  8
GR1-1
  6
CONTINUOUS
 62
     2
100
AcDbLine
 10
816.414199
 20
150.339733
 30
0.0
 11
817.194199
 21
150.469733
 31
0.0
  0
LINE
  5
313
330
307
100
AcDbEntity
  8
GR1-1
  6
CONTINUOUS
 62
     2
100
AcDbLine
 10
817.194199
 20
150.469733
 30
0.0
 11
816.414199
 21
150.599733
 31
0.0
  0
TEXT
  5
314
330
307
100
AcDbEntity
  8
GR1-1
  6
CONTINUOUS
 62
     4
100
AcDbText
 10
803.91375
 20
151.069727
 30
0.0
 40
1.5
  1
1118
 41
0.7
  7
FX_VECTOR
 72
     5
 11
808.11375
 21
151.069727
 31
0.0
100
AcDbText
  0
ENDBLK
  5
309
330
307
100
AcDbEntity
  8
0
100
AcDbBlockEnd
  0
BLOCK
  5
32C
330
32B
100
AcDbEntity
  8
0
100
AcDbBlockBegin
  2
BLKF056
 70
     0
 71
     0
 10
0.0
 20
0.0
 30
0.0
  3
BLKF056
  1

  0
LINE
  5
32F
330
32B
100
AcDbEntity
  8
GR1-1
  6
CONTINUOUS
 62
     2
100
AcDbLine
 10
813.169276
 20
137.748123
 30
0.0
 11
813.535598
 21
138.480767
 31
0.0
  0
LINE
  5
330
330
32B
100
AcDbEntity
  8
GR1-1
  6
CONTINUOUS
 62
     2
100
AcDbLine
 10
813.437604
 20
137.613959
 30
0.0
 11
813.803926
 21
138.346603
 31
0.0
  0
LINE
  5
331
330
32B
100
AcDbEntity
  8
GR1-1
  6
CONTINUOUS
 62
     2
100
AcDbLine
 10
812.569617
 20
138.292937
 30
0.0
 11
811.871963
 21
138.641764
 31
0.0
  0
LINE
  5
332
330
32B
100
AcDbEntity
  8
GR1-1
  6
CONTINUOUS
 62
     2
100
AcDbLine
 10
814.233251
 20
137.46112
 30
0.0
 11
814.930904
 21
137.112293
 31
0.0
  0
TEXT
  5
333
330
32B
100
AcDbEntity
  8
GR1-1
  6
CONTINUOUS
 62
     4
100
AcDbText
 10
813.958672
 20
138.088164
 30
0.0
 40
1.5
  1
15
 50
333.434937
 41
0.7
  7
FX_VECTOR
 72
     5
 11
815.836969
 21
137.149015
 31
0.0
100
AcDbText
  0
LINE
  5
334
330
32B
100
AcDbEntity
  8
GR1-1
  6
CONTINUOUS
 62
     2
100
AcDbLine
 10
812.627754
 20
138.409212
 30
0.0
 11
812.511479
 21
138.176661
 31
0.0
  0
LINE
  5
335
330
32B
100
AcDbEntity
  8
GR1-1
  6
CONTINUOUS
 62
     2
100
AcDbLine
 10
812.511479
 20
138.176661
 30
0.0
 11
813.26727
 21
137.94411
 31
0.0
  0
LINE
  5
336
330
32B
100
AcDbEntity
  8
GR1-1
  6
CONTINUOUS
 62
     2
100
AcDbLine
 10
813.26727
 20
137.94411
 30
0.0
 11
812.627754
 21
138.409212
 31
0.0
  0
LINE
  5
337
330
32B
100
AcDbEntity
  8
GR1-1
  6
CONTINUOUS
 62
     2
100
AcDbLine
 10
814.291389
 20
137.577395
 30
0.0
 11
814.175113
 21
137.344844
 31
0.0
  0
LINE
  5
338
330
32B
100
AcDbEntity
  8
GR1-1
  6
CONTINUOUS
 62
     2
100
AcDbLine
 10
814.175113
 20
137.344844
 30
0.0
 11
813.535598
 21
137.809946
 31
0.0
  0
LINE
  5
339
330
32B
100
AcDbEntity
  8
GR1-1
  6
CONTINUOUS
 62
     2
100
AcDbLine
 10
813.535598
 20
137.809946
 30
0.0
 11
814.291389
 21
137.577395
 31
0.0
  0
ENDBLK
  5
32D
330
32B
100
AcDbEntity
  8
0
100
AcDbBlockEnd
  0
BLOCK
  5
33B
330
33A
100
AcDbEntity
  8
0
100
AcDbBlockBegin
  2
BLKF057
 70
     0
 71
     0
 10
0.0
 20
0.0
 30
0.0
  3
BLKF057
  1

  0
LINE
  5
33E
330
33A
100
AcDbEntity
  8
GR1-1
  6
CONTINUOUS
 62
     2
100
AcDbLine
 10
812.051242
 20
133.499594
 30
0.0
 11
815.705554
 21
131.672439
 31
0.0
  0
LINE
  5
33F
330
33A
100
AcDbEntity
  8
GR1-1
  6
CONTINUOUS
 62
     2
100
AcDbLine
 10
813.571768
 20
136.540646
 30
0.0
 11
817.22608
 21
134.713491
 31
0.0
  0
LINE
  5
340
330
33A
100
AcDbEntity
  8
GR1-1
  6
CONTINUOUS
 62
     2
100
AcDbLine
 10
815.517724
 20
132.63842
 30
0.0
 11
816.340597
 21
134.284166
 31
0.0
  0
TEXT
  5
341
330
33A
100
AcDbEntity
  8
GR1-1
  6
CONTINUOUS
 62
     4
100
AcDbText
 10
814.539531
 20
132.445215
 30
0.0
 40
1.5
  1
170
 50
63.434952
 41
0.7
  7
FX_VECTOR
 72
     5
 11
815.948254
 21
135.262661
 31
0.0
100
AcDbText
  0
LINE
  5
342
330
33A
100
AcDbEntity
  8
GR1-1
  6
CONTINUOUS
 62
     2
100
AcDbLine
 10
815.401448
 20
132.696558
 30
0.0
 11
815.633999
 21
132.580282
 31
0.0
  0
LINE
  5
343
330
33A
100
AcDbEntity
  8
GR1-1
  6
CONTINUOUS
 62
     2
100
AcDbLine
 10
815.633999
 20
132.580282
 30
0.0
 11
815.168897
 21
131.940767
 31
0.0
  0
LINE
  5
344
330
33A
100
AcDbEntity
  8
GR1-1
  6
CONTINUOUS
 62
     2
100
AcDbLine
 10
815.168897
 20
131.940767
 30
0.0
 11
815.401448
 21
132.696558
 31
0.0
  0
LINE
  5
345
330
33A
100
AcDbEntity
  8
GR1-1
  6
CONTINUOUS
 62
     2
100
AcDbLine
 10
816.224321
 20
134.342304
 30
0.0
 11
816.456872
 21
134.226028
 31
0.0
  0
LINE
  5
346
330
33A
100
AcDbEntity
  8
GR1-1
  6
CONTINUOUS
 62
     2
100
AcDbLine
 10
816.456872
 20
134.226028
 30
0.0
 11
816.689423
 21
134.981819
 31
0.0
  0
LINE
  5
347
330
33A
100
AcDbEntity
  8
GR1-1
  6
CONTINUOUS
 62
     2
100
AcDbLine
 10
816.689423
 20
134.981819
 30
0.0
 11
816.224321
 21
134.342304
 31
0.0
  0
ENDBLK
  5
33C
330
33A
100
AcDbEntity
  8
0
100
AcDbBlockEnd
  0
BLOCK
  5
349
330
348
100
AcDbEntity
  8
0
100
AcDbBlockBegin
  2
BLKF058
 70
     0
 71
     0
 10
0.0
 20
0.0
 30
0.0
  3
BLKF058
  1

  0
LINE
  5
34C
330
348
100
AcDbEntity
  8
GR1-1
  6
CONTINUOUS
 62
     2
100
AcDbLine
 10
810.843766
 20
130.41382
 30
0.0
 11
818.087187
 21
126.792109
 31
0.0
  0
LINE
  5
34D
330
348
100
AcDbEntity
  8
GR1-1
  6
CONTINUOUS
 62
     2
100
AcDbLine
 10
813.079833
 20
134.885956
 30
0.0
 11
820.323255
 21
131.264245
 31
0.0
  0
LINE
  5
34E
330
348
100
AcDbEntity
  8
GR1-1
  6
CONTINUOUS
 62
     2
100
AcDbLine
 10
817.899358
 20
127.75809
 30
0.0
 11
819.437772
 21
130.83492
 31
0.0
  0
LINE
  5
34F
330
348
100
AcDbEntity
  8
GR1-1
  6
CONTINUOUS
 62
     2
100
AcDbLine
 10
817.783082
 20
127.816228
 30
0.0
 11
818.015633
 21
127.699953
 31
0.0
  0
LINE
  5
350
330
348
100
AcDbEntity
  8
GR1-1
  6
CONTINUOUS
 62
     2
100
AcDbLine
 10
818.015633
 20
127.699953
 30
0.0
 11
817.550531
 21
127.060437
 31
0.0
  0
LINE
  5
351
330
348
100
AcDbEntity
  8
GR1-1
  6
CONTINUOUS
 62
     2
100
AcDbLine
 10
817.550531
 20
127.060437
 30
0.0
 11
817.783082
 21
127.816228
 31
0.0
  0
LINE
  5
352
330
348
100
AcDbEntity
  8
GR1-1
  6
CONTINUOUS
 62
     2
100
AcDbLine
 10
819.321497
 20
130.893058
 30
0.0
 11
819.554048
 21
130.776782
 31
0.0
  0
LINE
  5
353
330
348
100
AcDbEntity
  8
GR1-1
  6
CONTINUOUS
 62
     2
100
AcDbLine
 10
819.554048
 20
130.776782
 30
0.0
 11
819.786599
 21
131.532573
 31
0.0
  0
LINE
  5
354
330
348
100
AcDbEntity
  8
GR1-1
  6
CONTINUOUS
 62
     2
100
AcDbLine
 10
819.786599
 20
131.532573
 30
0.0
 11
819.321497
 21
130.893058
 31
0.0
  0
TEXT
  5
355
330
348
100
AcDbEntity
  8
GR1-1
  6
CONTINUOUS
 62
     4
100
AcDbText
 10
817.427578
 20
128.156113
 30
0.0
 40
1.5
  1
250
 50
63.434948
 41
0.7
  7
FX_VECTOR
 72
     5
 11
818.836301
 21
130.973559
 31
0.0
100
AcDbText
  0
ENDBLK
  5
34A
330
348
100
AcDbEntity
  8
0
100
AcDbBlockEnd
  0
BLOCK
  5
35C
330
35B
100
AcDbEntity
  8
0
100
AcDbBlockBegin
  2
BLKF059
 70
     0
 71
     0
 10
0.0
 20
0.0
 30
0.0
  3
BLKF059
  1

  0
LINE
  5
35F
330
35B
100
AcDbEntity
  8
GR1-1
  6
CONTINUOUS
 62
     2
100
AcDbLine
 10
788.683992
 20
135.288448
 30
0.0
 11
783.432786
 21
137.914051
 31
0.0
  0
LINE
  5
360
330
35B
100
AcDbEntity
  8
GR1-1
  6
CONTINUOUS
 62
     2
100
AcDbLine
 10
786.693891
 20
131.308247
 30
0.0
 11
781.442685
 21
133.93385
 31
0.0
  0
LINE
  5
361
330
35B
100
AcDbEntity
  8
GR1-1
  6
CONTINUOUS
 62
     2
100
AcDbLine
 10
783.620615
 20
136.94807
 30
0.0
 11
782.328168
 21
134.363175
 31
0.0
  0
TEXT
  5
362
330
35B
100
AcDbEntity
  8
GR1-1
  6
CONTINUOUS
 62
     4
100
AcDbText
 10
781.152891
 20
133.687285
 30
0.0
 40
1.5
  1
222.5
 50
63.434948
 41
0.7
  7
FX_VECTOR
 72
     5
 11
783.500762
 21
138.383028
 31
0.0
100
AcDbText
  0
LINE
  5
363
330
35B
100
AcDbEntity
  8
GR1-1
  6
CONTINUOUS
 62
     2
100
AcDbLine
 10
783.50434
 20
137.006208
 30
0.0
 11
783.736891
 21
136.889932
 31
0.0
  0
LINE
  5
364
330
35B
100
AcDbEntity
  8
GR1-1
  6
CONTINUOUS
 62
     2
100
AcDbLine
 10
783.736891
 20
136.889932
 30
0.0
 11
783.969442
 21
137.645723
 31
0.0
  0
LINE
  5
365
330
35B
100
AcDbEntity
  8
GR1-1
  6
CONTINUOUS
 62
     2
100
AcDbLine
 10
783.969442
 20
137.645723
 30
0.0
 11
783.50434
 21
137.006208
 31
0.0
  0
LINE
  5
366
330
35B
100
AcDbEntity
  8
GR1-1
  6
CONTINUOUS
 62
     2
100
AcDbLine
 10
782.211893
 20
134.421313
 30
0.0
 11
782.444444
 21
134.305038
 31
0.0
  0
LINE
  5
367
330
35B
100
AcDbEntity
  8
GR1-1
  6
CONTINUOUS
 62
     2
100
AcDbLine
 10
782.444444
 20
134.305038
 30
0.0
 11
781.979342
 21
133.665522
 31
0.0
  0
LINE
  5
368
330
35B
100
AcDbEntity
  8
GR1-1
  6
CONTINUOUS
 62
     2
100
AcDbLine
 10
781.979342
 20
133.665522
 30
0.0
 11
782.211893
 21
134.421313
 31
0.0
  0
ENDBLK
  5
35D
330
35B
100
AcDbEntity
  8
0
100
AcDbBlockEnd
  0
BLOCK
  5
36A
330
369
100
AcDbEntity
  8
0
100
AcDbBlockBegin
  2
BLKF060
 70
     0
 71
     0
 10
0.0
 20
0.0
 30
0.0
  3
BLKF060
  1

  0
LINE
  5
36D
330
369
100
AcDbEntity
  8
GR1-1
  6
CONTINUOUS
 62
     2
100
AcDbLine
 10
789.444255
 20
136.808974
 30
0.0
 11
786.993245
 21
138.03448
 31
0.0
  0
LINE
  5
36E
330
369
100
AcDbEntity
  8
GR1-1
  6
CONTINUOUS
 62
     2
100
AcDbLine
 10
787.923729
 20
133.767922
 30
0.0
 11
785.472719
 21
134.993427
 31
0.0
  0
LINE
  5
36F
330
369
100
AcDbEntity
  8
GR1-1
  6
CONTINUOUS
 62
     2
100
AcDbLine
 10
787.181074
 20
137.068498
 30
0.0
 11
786.358201
 21
135.422752
 31
0.0
  0
TEXT
  5
370
330
369
100
AcDbEntity
  8
GR1-1
  6
CONTINUOUS
 62
     4
100
AcDbText
 10
785.472969
 20
135.119609
 30
0.0
 40
1.5
  1
170
 50
63.434948
 41
0.7
  7
FX_VECTOR
 72
     5
 11
786.881692
 21
137.937055
 31
0.0
100
AcDbText
  0
LINE
  5
371
330
369
100
AcDbEntity
  8
GR1-1
  6
CONTINUOUS
 62
     2
100
AcDbLine
 10
787.064799
 20
137.126636
 30
0.0
 11
787.29735
 21
137.01036
 31
0.0
  0
LINE
  5
372
330
369
100
AcDbEntity
  8
GR1-1
  6
CONTINUOUS
 62
     2
100
AcDbLine
 10
787.29735
 20
137.01036
 30
0.0
 11
787.529901
 21
137.766151
 31
0.0
  0
LINE
  5
373
330
369
100
AcDbEntity
  8
GR1-1
  6
CONTINUOUS
 62
     2
100
AcDbLine
 10
787.529901
 20
137.766151
 30
0.0
 11
787.064799
 21
137.126636
 31
0.0
  0
LINE
  5
374
330
369
100
AcDbEntity
  8
GR1-1
  6
CONTINUOUS
 62
     2
100
AcDbLine
 10
786.241926
 20
135.48089
 30
0.0
 11
786.474477
 21
135.364614
 31
0.0
  0
LINE
  5
375
330
369
100
AcDbEntity
  8
GR1-1
  6
CONTINUOUS
 62
     2
100
AcDbLine
 10
786.474477
 20
135.364614
 30
0.0
 11
786.009375
 21
134.725099
 31
0.0
  0
LINE
  5
376
330
369
100
AcDbEntity
  8
GR1-1
  6
CONTINUOUS
 62
     2
100
AcDbLine
 10
786.009375
 20
134.725099
 30
0.0
 11
786.241926
 21
135.48089
 31
0.0
  0
ENDBLK
  5
36B
330
369
100
AcDbEntity
  8
0
100
AcDbBlockEnd
  0
BLOCK
  5
378
330
377
100
AcDbEntity
  8
0
100
AcDbBlockBegin
  2
BLKF061
 70
     0
 71
     0
 10
0.0
 20
0.0
 30
0.0
  3
BLKF061
  1

  0
LINE
  5
37B
330
377
100
AcDbEntity
  8
GR1-1
  6
CONTINUOUS
 62
     2
100
AcDbLine
 10
786.872777
 20
131.218804
 30
0.0
 11
778.466848
 21
135.421769
 31
0.0
  0
LINE
  5
37C
330
377
100
AcDbEntity
  8
GR1-1
  6
CONTINUOUS
 62
     2
100
AcDbLine
 10
794.028194
 20
145.529639
 30
0.0
 11
785.622266
 21
149.732604
 31
0.0
  0
LINE
  5
37D
330
377
100
AcDbEntity
  8
GR1-1
  6
CONTINUOUS
 62
     2
100
AcDbLine
 10
779.352331
 20
135.851094
 30
0.0
 11
785.810096
 21
148.766622
 31
0.0
  0
LINE
  5
37E
330
377
100
AcDbEntity
  8
GR1-1
  6
CONTINUOUS
 62
     2
100
AcDbLine
 10
779.236056
 20
135.909232
 30
0.0
 11
779.468607
 21
135.792956
 31
0.0
  0
LINE
  5
37F
330
377
100
AcDbEntity
  8
GR1-1
  6
CONTINUOUS
 62
     2
100
AcDbLine
 10
779.468607
 20
135.792956
 30
0.0
 11
779.003505
 21
135.153441
 31
0.0
  0
LINE
  5
380
330
377
100
AcDbEntity
  8
GR1-1
  6
CONTINUOUS
 62
     2
100
AcDbLine
 10
779.003505
 20
135.153441
 30
0.0
 11
779.236056
 21
135.909232
 31
0.0
  0
LINE
  5
381
330
377
100
AcDbEntity
  8
GR1-1
  6
CONTINUOUS
 62
     2
100
AcDbLine
 10
785.69382
 20
148.82476
 30
0.0
 11
785.926371
 21
148.708485
 31
0.0
  0
LINE
  5
382
330
377
100
AcDbEntity
  8
GR1-1
  6
CONTINUOUS
 62
     2
100
AcDbLine
 10
785.926371
 20
148.708485
 30
0.0
 11
786.158922
 21
149.464276
 31
0.0
  0
LINE
  5
383
330
377
100
AcDbEntity
  8
GR1-1
  6
CONTINUOUS
 62
     2
100
AcDbLine
 10
786.158922
 20
149.464276
 30
0.0
 11
785.69382
 21
148.82476
 31
0.0
  0
TEXT
  5
384
330
377
100
AcDbEntity
  8
GR1-1
  6
CONTINUOUS
 62
     4
100
AcDbText
 10
781.340234
 20
141.168457
 30
0.0
 40
1.5
  1
800
 50
63.434948
 41
0.7
  7
FX_VECTOR
 72
     5
 11
782.748957
 21
143.985903
 31
0.0
100
AcDbText
  0
ENDBLK
  5
379
330
377
100
AcDbEntity
  8
0
100
AcDbBlockEnd
  0
BLOCK
  5
39B
330
39A
100
AcDbEntity
  8
0
100
AcDbBlockBegin
  2
BLKF062
 70
     0
 71
     0
 10
0.0
 20
0.0
 30
0.0
  3
BLKF062
  1

  0
LINE
  5
39E
330
39A
100
AcDbEntity
  8
GR1-1
  6
CONTINUOUS
 62
     2
100
AcDbLine
 10
734.699509
 20
180.311451
 30
0.0
 11
734.699509
 21
177.278796
 31
0.0
  0
LINE
  5
39F
330
39A
100
AcDbEntity
  8
GR1-1
  6
CONTINUOUS
 62
     2
100
AcDbLine
 10
740.949509
 20
180.311451
 30
0.0
 11
740.949509
 21
177.278796
 31
0.0
  0
LINE
  5
3A0
330
39A
100
AcDbEntity
  8
GR1-1
  6
CONTINUOUS
 62
     2
100
AcDbLine
 10
735.479509
 20
177.878796
 30
0.0
 11
740.169509
 21
177.878796
 31
0.0
  0
TEXT
  5
3A1
330
39A
100
AcDbEntity
  8
GR1-1
  6
CONTINUOUS
 62
     4
100
AcDbText
 10
735.224531
 20
178.478809
 30
0.0
 40
1.5
  1
312.5
 41
0.7
  7
FX_VECTOR
 72
     5
 11
740.474531
 21
178.478809
 31
0.0
100
AcDbText
  0
LINE
  5
3A2
330
39A
100
AcDbEntity
  8
GR1-1
  6
CONTINUOUS
 62
     2
100
AcDbLine
 10
735.479509
 20
178.008796
 30
0.0
 11
735.479509
 21
177.748796
 31
0.0
  0
LINE
  5
3A3
330
39A
100
AcDbEntity
  8
GR1-1
  6
CONTINUOUS
 62
     2
100
AcDbLine
 10
735.479509
 20
177.748796
 30
0.0
 11
734.699509
 21
177.878796
 31
0.0
  0
LINE
  5
3A4
330
39A
100
AcDbEntity
  8
GR1-1
  6
CONTINUOUS
 62
     2
100
AcDbLine
 10
734.699509
 20
177.878796
 30
0.0
 11
735.479509
 21
178.008796
 31
0.0
  0
LINE
  5
3A5
330
39A
100
AcDbEntity
  8
GR1-1
  6
CONTINUOUS
 62
     2
100
AcDbLine
 10
740.169509
 20
178.008796
 30
0.0
 11
740.169509
 21
177.748796
 31
0.0
  0
LINE
  5
3A6
330
39A
100
AcDbEntity
  8
GR1-1
  6
CONTINUOUS
 62
     2
100
AcDbLine
 10
740.169509
 20
177.748796
 30
0.0
 11
740.949509
 21
177.878796
 31
0.0
  0
LINE
  5
3A7
330
39A
100
AcDbEntity
  8
GR1-1
  6
CONTINUOUS
 62
     2
100
AcDbLine
 10
740.949509
 20
177.878796
 30
0.0
 11
740.169509
 21
178.008796
 31
0.0
  0
ENDBLK
  5
39C
330
39A
100
AcDbEntity
  8
0
100
AcDbBlockEnd
  0
BLOCK
  5
3A9
330
3A8
100
AcDbEntity
  8
0
100
AcDbBlockBegin
  2
BLKF063
 70
     0
 71
     0
 10
0.0
 20
0.0
 30
0.0
  3
BLKF063
  1

  0
LINE
  5
3AC
330
3A8
100
AcDbEntity
  8
GR1-1
  6
CONTINUOUS
 62
     2
100
AcDbLine
 10
733.799509
 20
181.211451
 30
0.0
 11
731.200061
 21
181.211451
 31
0.0
  0
LINE
  5
3AD
330
3A8
100
AcDbEntity
  8
GR1-1
  6
CONTINUOUS
 62
     2
100
AcDbLine
 10
738.499509
 20
183.211451
 30
0.0
 11
731.200061
 21
183.211451
 31
0.0
  0
LINE
  5
3AE
330
3A8
100
AcDbEntity
  8
GR1-1
  6
CONTINUOUS
 62
     2
100
AcDbLine
 10
731.800061
 20
180.431451
 30
0.0
 11
731.800061
 21
179.651451
 31
0.0
  0
LINE
  5
3AF
330
3A8
100
AcDbEntity
  8
GR1-1
  6
CONTINUOUS
 62
     2
100
AcDbLine
 10
731.800061
 20
183.991451
 30
0.0
 11
731.800061
 21
184.771451
 31
0.0
  0
TEXT
  5
3B0
330
3A8
100
AcDbEntity
  8
GR1-1
  6
CONTINUOUS
 62
     4
100
AcDbText
 10
730.300078
 20
179.745566
 30
0.0
 40
1.5
  1
100
 50
90.0
 41
0.7
  7
FX_VECTOR
 72
     5
 11
730.300078
 21
182.895566
 31
0.0
100
AcDbText
  0
LINE
  5
3B1
330
3A8
100
AcDbEntity
  8
GR1-1
  6
CONTINUOUS
 62
     2
100
AcDbLine
 10
731.670061
 20
180.431451
 30
0.0
 11
731.930061
 21
180.431451
 31
0.0
  0
LINE
  5
3B2
330
3A8
100
AcDbEntity
  8
GR1-1
  6
CONTINUOUS
 62
     2
100
AcDbLine
 10
731.930061
 20
180.431451
 30
0.0
 11
731.800061
 21
181.211451
 31
0.0
  0
LINE
  5
3B3
330
3A8
100
AcDbEntity
  8
GR1-1
  6
CONTINUOUS
 62
     2
100
AcDbLine
 10
731.800061
 20
181.211451
 30
0.0
 11
731.670061
 21
180.431451
 31
0.0
  0
LINE
  5
3B4
330
3A8
100
AcDbEntity
  8
GR1-1
  6
CONTINUOUS
 62
     2
100
AcDbLine
 10
731.670061
 20
183.991451
 30
0.0
 11
731.930061
 21
183.991451
 31
0.0
  0
LINE
  5
3B5
330
3A8
100
AcDbEntity
  8
GR1-1
  6
CONTINUOUS
 62
     2
100
AcDbLine
 10
731.930061
 20
183.991451
 30
0.0
 11
731.800061
 21
183.211451
 31
0.0
  0
LINE
  5
3B6
330
3A8
100
AcDbEntity
  8
GR1-1
  6
CONTINUOUS
 62
     2
100
AcDbLine
 10
731.800061
 20
183.211451
 30
0.0
 11
731.670061
 21
183.991451
 31
0.0
  0
ENDBLK
  5
3AA
330
3A8
100
AcDbEntity
  8
0
100
AcDbBlockEnd
  0
BLOCK
  5
3B8
330
3B7
100
AcDbEntity
  8
0
100
AcDbBlockBegin
  2
BLKF064
 70
     0
 71
     0
 10
0.0
 20
0.0
 30
0.0
  3
BLKF064
  1

  0
LINE
  5
3BB
330
3B7
100
AcDbEntity
  8
GR1-1
  6
CONTINUOUS
 62
     2
100
AcDbLine
 10
738.499509
 20
183.211451
 30
0.0
 11
731.200061
 21
183.211451
 31
0.0
  0
LINE
  5
3BC
330
3B7
100
AcDbEntity
  8
GR1-1
  6
CONTINUOUS
 62
     2
100
AcDbLine
 10
738.499509
 20
185.211451
 30
0.0
 11
731.200061
 21
185.211451
 31
0.0
  0
LINE
  5
3BD
330
3B7
100
AcDbEntity
  8
GR1-1
  6
CONTINUOUS
 62
     2
100
AcDbLine
 10
731.800061
 20
182.431451
 30
0.0
 11
731.800061
 21
181.651451
 31
0.0
  0
LINE
  5
3BE
330
3B7
100
AcDbEntity
  8
GR1-1
  6
CONTINUOUS
 62
     2
100
AcDbLine
 10
731.800061
 20
185.991451
 30
0.0
 11
731.800061
 21
186.771451
 31
0.0
  0
TEXT
  5
3BF
330
3B7
100
AcDbEntity
  8
GR1-1
  6
CONTINUOUS
 62
     4
100
AcDbText
 10
730.300078
 20
184.030215
 30
0.0
 40
1.5
  1
100
 50
90.0
 41
0.7
  7
FX_VECTOR
 72
     5
 11
730.300078
 21
187.180215
 31
0.0
100
AcDbText
  0
LINE
  5
3C0
330
3B7
100
AcDbEntity
  8
GR1-1
  6
CONTINUOUS
 62
     2
100
AcDbLine
 10
731.670061
 20
182.431451
 30
0.0
 11
731.930061
 21
182.431451
 31
0.0
  0
LINE
  5
3C1
330
3B7
100
AcDbEntity
  8
GR1-1
  6
CONTINUOUS
 62
     2
100
AcDbLine
 10
731.930061
 20
182.431451
 30
0.0
 11
731.800061
 21
183.211451
 31
0.0
  0
LINE
  5
3C2
330
3B7
100
AcDbEntity
  8
GR1-1
  6
CONTINUOUS
 62
     2
100
AcDbLine
 10
731.800061
 20
183.211451
 30
0.0
 11
731.670061
 21
182.431451
 31
0.0
  0
LINE
  5
3C3
330
3B7
100
AcDbEntity
  8
GR1-1
  6
CONTINUOUS
 62
     2
100
AcDbLine
 10
731.670061
 20
185.991451
 30
0.0
 11
731.930061
 21
185.991451
 31
0.0
  0
LINE
  5
3C4
330
3B7
100
AcDbEntity
  8
GR1-1
  6
CONTINUOUS
 62
     2
100
AcDbLine
 10
731.930061
 20
185.991451
 30
0.0
 11
731.800061
 21
185.211451
 31
0.0
  0
LINE
  5
3C5
330
3B7
100
AcDbEntity
  8
GR1-1
  6
CONTINUOUS
 62
     2
100
AcDbLine
 10
731.800061
 20
185.211451
 30
0.0
 11
731.670061
 21
185.991451
 31
0.0
  0
ENDBLK
  5
3B9
330
3B7
100
AcDbEntity
  8
0
100
AcDbBlockEnd
  0
BLOCK
  5
3C7
330
3C6
100
AcDbEntity
  8
0
100
AcDbBlockBegin
  2
BLKF065
 70
     0
 71
     0
 10
0.0
 20
0.0
 30
0.0
  3
BLKF065
  1

  0
LINE
  5
3CA
330
3C6
100
AcDbEntity
  8
GR1-1
  6
CONTINUOUS
 62
     2
100
AcDbLine
 10
741.495398
 20
182.829946
 30
0.0
 11
749.1813
 21
177.190437
 31
0.0
  0
INSERT
  5
3CB
330
3C6
100
AcDbEntity
  8
GR1-1
  6
CONTINUOUS
 62
     2
100
AcDbBlockReference
  2
FXTIP_BLACKTRIANGLE_S
 10
741.495398
 20
182.829946
 30
0.0
 41
2.0
 42
2.0
 50
143.730747
  0
LINE
  5
3CC
330
3C6
100
AcDbEntity
  8
GR1-1
  6
CONTINUOUS
 62
     2
100
AcDbLine
 10
749.1813
 20
177.190437
 30
0.0
 11
749.9613
 21
177.190437
 31
0.0
  0
TEXT
  5
3CD
330
3C6
100
AcDbEntity
  8
GR1-1
  6
CONTINUOUS
 62
     4
100
AcDbText
 10
749.243984
 20
177.541895
 30
0.0
 40
1.5
  1
ガイドピン４号
 41
0.7
  7
FX_VECTOR
 72
     5
 11
756.593984
 21
177.541895
 31
0.0
100
AcDbText
  0
ENDBLK
  5
3C8
330
3C6
100
AcDbEntity
  8
0
100
AcDbBlockEnd
  0
BLOCK
  5
3CF
330
3CE
100
AcDbEntity
  8
0
100
AcDbBlockBegin
  2
BLKF066
 70
     0
 71
     0
 10
0.0
 20
0.0
 30
0.0
  3
BLKF066
  1

  0
LINE
  5
3D2
330
3CE
100
AcDbEntity
  8
GR1-1
  6
CONTINUOUS
 62
     2
100
AcDbLine
 10
737.665848
 20
203.572472
 30
0.0
 11
739.309257
 21
203.572472
 31
0.0
  0
LINE
  5
3D3
330
3CE
100
AcDbEntity
  8
GR1-1
  6
CONTINUOUS
 62
     2
100
AcDbLine
 10
737.973041
 20
201.572472
 30
0.0
 11
739.309257
 21
201.572472
 31
0.0
  0
LINE
  5
3D4
330
3CE
100
AcDbEntity
  8
GR1-1
  6
CONTINUOUS
 62
     2
100
AcDbLine
 10
738.709257
 20
204.352472
 30
0.0
 11
738.709257
 21
205.132472
 31
0.0
  0
LINE
  5
3D5
330
3CE
100
AcDbEntity
  8
GR1-1
  6
CONTINUOUS
 62
     2
100
AcDbLine
 10
738.709257
 20
200.792472
 30
0.0
 11
738.709257
 21
200.012472
 31
0.0
  0
TEXT
  5
3D6
330
3CE
100
AcDbEntity
  8
GR1-1
  6
CONTINUOUS
 62
     4
100
AcDbText
 10
738.504531
 20
197.145059
 30
0.0
 40
1.5
  1
100
 50
90.0
 41
0.7
  7
FX_VECTOR
 72
     5
 11
738.504531
 21
200.295059
 31
0.0
100
AcDbText
  0
LINE
  5
3D7
330
3CE
100
AcDbEntity
  8
GR1-1
  6
CONTINUOUS
 62
     2
100
AcDbLine
 10
738.579257
 20
204.352472
 30
0.0
 11
738.839257
 21
204.352472
 31
0.0
  0
LINE
  5
3D8
330
3CE
100
AcDbEntity
  8
GR1-1
  6
CONTINUOUS
 62
     2
100
AcDbLine
 10
738.839257
 20
204.352472
 30
0.0
 11
738.709257
 21
203.572472
 31
0.0
  0
LINE
  5
3D9
330
3CE
100
AcDbEntity
  8
GR1-1
  6
CONTINUOUS
 62
     2
100
AcDbLine
 10
738.709257
 20
203.572472
 30
0.0
 11
738.579257
 21
204.352472
 31
0.0
  0
LINE
  5
3DA
330
3CE
100
AcDbEntity
  8
GR1-1
  6
CONTINUOUS
 62
     2
100
AcDbLine
 10
738.579257
 20
200.792472
 30
0.0
 11
738.839257
 21
200.792472
 31
0.0
  0
LINE
  5
3DB
330
3CE
100
AcDbEntity
  8
GR1-1
  6
CONTINUOUS
 62
     2
100
AcDbLine
 10
738.839257
 20
200.792472
 30
0.0
 11
738.709257
 21
201.572472
 31
0.0
  0
LINE
  5
3DC
330
3CE
100
AcDbEntity
  8
GR1-1
  6
CONTINUOUS
 62
     2
100
AcDbLine
 10
738.709257
 20
201.572472
 30
0.0
 11
738.579257
 21
200.792472
 31
0.0
  0
ENDBLK
  5
3D0
330
3CE
100
AcDbEntity
  8
0
100
AcDbBlockEnd
  0
BLOCK
  5
3DE
330
3DD
100
AcDbEntity
  8
0
100
AcDbBlockBegin
  2
BLKF067
 70
     0
 71
     0
 10
0.0
 20
0.0
 30
0.0
  3
BLKF067
  1

  0
LINE
  5
3E1
330
3DD
100
AcDbEntity
  8
GR1-1
  6
CONTINUOUS
 62
     2
100
AcDbLine
 10
738.999509
 20
204.472472
 30
0.0
 11
738.999509
 21
206.459352
 31
0.0
  0
LINE
  5
3E2
330
3DD
100
AcDbEntity
  8
GR1-1
  6
CONTINUOUS
 62
     2
100
AcDbLine
 10
734.749509
 20
204.472472
 30
0.0
 11
734.749509
 21
206.459352
 31
0.0
  0
LINE
  5
3E3
330
3DD
100
AcDbEntity
  8
GR1-1
  6
CONTINUOUS
 62
     2
100
AcDbLine
 10
738.219509
 20
205.859352
 30
0.0
 11
735.529509
 21
205.859352
 31
0.0
  0
TEXT
  5
3E4
330
3DD
100
AcDbEntity
  8
GR1-1
  6
CONTINUOUS
 62
     4
100
AcDbText
 10
734.29375
 20
206.387012
 30
0.0
 40
1.5
  1
212.5
 41
0.7
  7
FX_VECTOR
 72
     5
 11
739.54375
 21
206.387012
 31
0.0
100
AcDbText
  0
LINE
  5
3E5
330
3DD
100
AcDbEntity
  8
GR1-1
  6
CONTINUOUS
 62
     2
100
AcDbLine
 10
738.219509
 20
205.989352
 30
0.0
 11
738.219509
 21
205.729352
 31
0.0
  0
LINE
  5
3E6
330
3DD
100
AcDbEntity
  8
GR1-1
  6
CONTINUOUS
 62
     2
100
AcDbLine
 10
738.219509
 20
205.729352
 30
0.0
 11
738.999509
 21
205.859352
 31
0.0
  0
LINE
  5
3E7
330
3DD
100
AcDbEntity
  8
GR1-1
  6
CONTINUOUS
 62
     2
100
AcDbLine
 10
738.999509
 20
205.859352
 30
0.0
 11
738.219509
 21
205.989352
 31
0.0
  0
LINE
  5
3E8
330
3DD
100
AcDbEntity
  8
GR1-1
  6
CONTINUOUS
 62
     2
100
AcDbLine
 10
735.529509
 20
205.989352
 30
0.0
 11
735.529509
 21
205.729352
 31
0.0
  0
LINE
  5
3E9
330
3DD
100
AcDbEntity
  8
GR1-1
  6
CONTINUOUS
 62
     2
100
AcDbLine
 10
735.529509
 20
205.729352
 30
0.0
 11
734.749509
 21
205.859352
 31
0.0
  0
LINE
  5
3EA
330
3DD
100
AcDbEntity
  8
GR1-1
  6
CONTINUOUS
 62
     2
100
AcDbLine
 10
734.749509
 20
205.859352
 30
0.0
 11
735.529509
 21
205.989352
 31
0.0
  0
ENDBLK
  5
3DF
330
3DD
100
AcDbEntity
  8
0
100
AcDbBlockEnd
  0
BLOCK
  5
3EC
330
3EB
100
AcDbEntity
  8
0
100
AcDbBlockBegin
  2
BLKF068
 70
     0
 71
     0
 10
0.0
 20
0.0
 30
0.0
  3
BLKF068
  1

  0
LINE
  5
3EF
330
3EB
100
AcDbEntity
  8
GR1-1
  6
CONTINUOUS
 62
     2
100
AcDbLine
 10
738.999509
 20
204.472472
 30
0.0
 11
738.999509
 21
209.425332
 31
0.0
  0
LINE
  5
3F0
330
3EB
100
AcDbEntity
  8
GR1-1
  6
CONTINUOUS
 62
     2
100
AcDbLine
 10
739.399509
 20
204.472472
 30
0.0
 11
739.399509
 21
209.425332
 31
0.0
  0
LINE
  5
3F1
330
3EB
100
AcDbEntity
  8
GR1-1
  6
CONTINUOUS
 62
     2
100
AcDbLine
 10
738.219509
 20
208.825332
 30
0.0
 11
737.439509
 21
208.825332
 31
0.0
  0
LINE
  5
3F2
330
3EB
100
AcDbEntity
  8
GR1-1
  6
CONTINUOUS
 62
     2
100
AcDbLine
 10
740.179509
 20
208.825332
 30
0.0
 11
740.959509
 21
208.825332
 31
0.0
  0
TEXT
  5
3F3
330
3EB
100
AcDbEntity
  8
GR1-1
  6
CONTINUOUS
 62
     4
100
AcDbText
 10
738.140313
 20
209.352988
 30
0.0
 40
1.5
  1
20
 41
0.7
  7
FX_VECTOR
 72
     5
 11
740.240313
 21
209.352988
 31
0.0
100
AcDbText
  0
LINE
  5
3F4
330
3EB
100
AcDbEntity
  8
GR1-1
  6
CONTINUOUS
 62
     2
100
AcDbLine
 10
738.219509
 20
208.955332
 30
0.0
 11
738.219509
 21
208.695332
 31
0.0
  0
LINE
  5
3F5
330
3EB
100
AcDbEntity
  8
GR1-1
  6
CONTINUOUS
 62
     2
100
AcDbLine
 10
738.219509
 20
208.695332
 30
0.0
 11
738.999509
 21
208.825332
 31
0.0
  0
LINE
  5
3F6
330
3EB
100
AcDbEntity
  8
GR1-1
  6
CONTINUOUS
 62
     2
100
AcDbLine
 10
738.999509
 20
208.825332
 30
0.0
 11
738.219509
 21
208.955332
 31
0.0
  0
LINE
  5
3F7
330
3EB
100
AcDbEntity
  8
GR1-1
  6
CONTINUOUS
 62
     2
100
AcDbLine
 10
740.179509
 20
208.955332
 30
0.0
 11
740.179509
 21
208.695332
 31
0.0
  0
LINE
  5
3F8
330
3EB
100
AcDbEntity
  8
GR1-1
  6
CONTINUOUS
 62
     2
100
AcDbLine
 10
740.179509
 20
208.695332
 30
0.0
 11
739.399509
 21
208.825332
 31
0.0
  0
LINE
  5
3F9
330
3EB
100
AcDbEntity
  8
GR1-1
  6
CONTINUOUS
 62
     2
100
AcDbLine
 10
739.399509
 20
208.825332
 30
0.0
 11
740.179509
 21
208.955332
 31
0.0
  0
ENDBLK
  5
3ED
330
3EB
100
AcDbEntity
  8
0
100
AcDbBlockEnd
  0
BLOCK
  5
3FB
330
3FA
100
AcDbEntity
  8
0
100
AcDbBlockBegin
  2
BLKF069
 70
     0
 71
     0
 10
0.0
 20
0.0
 30
0.0
  3
BLKF069
  1

  0
LINE
  5
3FE
330
3FA
100
AcDbEntity
  8
GR1-1
  6
CONTINUOUS
 62
     2
100
AcDbLine
 10
739.399509
 20
204.472472
 30
0.0
 11
739.399509
 21
206.459352
 31
0.0
  0
LINE
  5
3FF
330
3FA
100
AcDbEntity
  8
GR1-1
  6
CONTINUOUS
 62
     2
100
AcDbLine
 10
742.499509
 20
204.472472
 30
0.0
 11
742.499509
 21
206.459352
 31
0.0
  0
LINE
  5
400
330
3FA
100
AcDbEntity
  8
GR1-1
  6
CONTINUOUS
 62
     2
100
AcDbLine
 10
740.179509
 20
205.859352
 30
0.0
 11
741.719509
 21
205.859352
 31
0.0
  0
TEXT
  5
401
330
3FA
100
AcDbEntity
  8
GR1-1
  6
CONTINUOUS
 62
     4
100
AcDbText
 10
739.307422
 20
206.540879
 30
0.0
 40
1.5
  1
155
 41
0.7
  7
FX_VECTOR
 72
     5
 11
742.457422
 21
206.540879
 31
0.0
100
AcDbText
  0
LINE
  5
402
330
3FA
100
AcDbEntity
  8
GR1-1
  6
CONTINUOUS
 62
     2
100
AcDbLine
 10
740.179509
 20
205.989352
 30
0.0
 11
740.179509
 21
205.729352
 31
0.0
  0
LINE
  5
403
330
3FA
100
AcDbEntity
  8
GR1-1
  6
CONTINUOUS
 62
     2
100
AcDbLine
 10
740.179509
 20
205.729352
 30
0.0
 11
739.399509
 21
205.859352
 31
0.0
  0
LINE
  5
404
330
3FA
100
AcDbEntity
  8
GR1-1
  6
CONTINUOUS
 62
     2
100
AcDbLine
 10
739.399509
 20
205.859352
 30
0.0
 11
740.179509
 21
205.989352
 31
0.0
  0
LINE
  5
405
330
3FA
100
AcDbEntity
  8
GR1-1
  6
CONTINUOUS
 62
     2
100
AcDbLine
 10
741.719509
 20
205.989352
 30
0.0
 11
741.719509
 21
205.729352
 31
0.0
  0
LINE
  5
406
330
3FA
100
AcDbEntity
  8
GR1-1
  6
CONTINUOUS
 62
     2
100
AcDbLine
 10
741.719509
 20
205.729352
 30
0.0
 11
742.499509
 21
205.859352
 31
0.0
  0
LINE
  5
407
330
3FA
100
AcDbEntity
  8
GR1-1
  6
CONTINUOUS
 62
     2
100
AcDbLine
 10
742.499509
 20
205.859352
 30
0.0
 11
741.719509
 21
205.989352
 31
0.0
  0
ENDBLK
  5
3FC
330
3FA
100
AcDbEntity
  8
0
100
AcDbBlockEnd
  0
BLOCK
  5
409
330
408
100
AcDbEntity
  8
0
100
AcDbBlockBegin
  2
BLKF070
 70
     0
 71
     0
 10
0.0
 20
0.0
 30
0.0
  3
BLKF070
  1

  0
LINE
  5
40C
330
408
100
AcDbEntity
  8
GR1-1
  6
CONTINUOUS
 62
     2
100
AcDbLine
 10
742.499509
 20
204.472472
 30
0.0
 11
742.499509
 21
209.425332
 31
0.0
  0
LINE
  5
40D
330
408
100
AcDbEntity
  8
GR1-1
  6
CONTINUOUS
 62
     2
100
AcDbLine
 10
742.899509
 20
204.472472
 30
0.0
 11
742.899509
 21
209.425332
 31
0.0
  0
LINE
  5
40E
330
408
100
AcDbEntity
  8
GR1-1
  6
CONTINUOUS
 62
     2
100
AcDbLine
 10
741.719509
 20
208.825332
 30
0.0
 11
740.939509
 21
208.825332
 31
0.0
  0
LINE
  5
40F
330
408
100
AcDbEntity
  8
GR1-1
  6
CONTINUOUS
 62
     2
100
AcDbLine
 10
743.679509
 20
208.825332
 30
0.0
 11
744.459509
 21
208.825332
 31
0.0
  0
TEXT
  5
410
330
408
100
AcDbEntity
  8
GR1-1
  6
CONTINUOUS
 62
     4
100
AcDbText
 10
741.622109
 20
209.352988
 30
0.0
 40
1.5
  1
20
 41
0.7
  7
FX_VECTOR
 72
     5
 11
743.722109
 21
209.352988
 31
0.0
100
AcDbText
  0
LINE
  5
411
330
408
100
AcDbEntity
  8
GR1-1
  6
CONTINUOUS
 62
     2
100
AcDbLine
 10
741.719509
 20
208.955332
 30
0.0
 11
741.719509
 21
208.695332
 31
0.0
  0
LINE
  5
412
330
408
100
AcDbEntity
  8
GR1-1
  6
CONTINUOUS
 62
     2
100
AcDbLine
 10
741.719509
 20
208.695332
 30
0.0
 11
742.499509
 21
208.825332
 31
0.0
  0
LINE
  5
413
330
408
100
AcDbEntity
  8
GR1-1
  6
CONTINUOUS
 62
     2
100
AcDbLine
 10
742.499509
 20
208.825332
 30
0.0
 11
741.719509
 21
208.955332
 31
0.0
  0
LINE
  5
414
330
408
100
AcDbEntity
  8
GR1-1
  6
CONTINUOUS
 62
     2
100
AcDbLine
 10
743.679509
 20
208.955332
 30
0.0
 11
743.679509
 21
208.695332
 31
0.0
  0
LINE
  5
415
330
408
100
AcDbEntity
  8
GR1-1
  6
CONTINUOUS
 62
     2
100
AcDbLine
 10
743.679509
 20
208.695332
 30
0.0
 11
742.899509
 21
208.825332
 31
0.0
  0
LINE
  5
416
330
408
100
AcDbEntity
  8
GR1-1
  6
CONTINUOUS
 62
     2
100
AcDbLine
 10
742.899509
 20
208.825332
 30
0.0
 11
743.679509
 21
208.955332
 31
0.0
  0
ENDBLK
  5
40A
330
408
100
AcDbEntity
  8
0
100
AcDbBlockEnd
  0
BLOCK
  5
418
330
417
100
AcDbEntity
  8
0
100
AcDbBlockBegin
  2
BLKF071
 70
     0
 71
     0
 10
0.0
 20
0.0
 30
0.0
  3
BLKF071
  1

  0
LINE
  5
41B
330
417
100
AcDbEntity
  8
GR1-1
  6
CONTINUOUS
 62
     2
100
AcDbLine
 10
742.899509
 20
204.472472
 30
0.0
 11
742.899509
 21
206.459352
 31
0.0
  0
LINE
  5
41C
330
417
100
AcDbEntity
  8
GR1-1
  6
CONTINUOUS
 62
     2
100
AcDbLine
 10
747.149509
 20
204.472472
 30
0.0
 11
747.149509
 21
206.459352
 31
0.0
  0
LINE
  5
41D
330
417
100
AcDbEntity
  8
GR1-1
  6
CONTINUOUS
 62
     2
100
AcDbLine
 10
743.679509
 20
205.859352
 30
0.0
 11
746.369509
 21
205.859352
 31
0.0
  0
TEXT
  5
41E
330
417
100
AcDbEntity
  8
GR1-1
  6
CONTINUOUS
 62
     4
100
AcDbText
 10
742.437109
 20
206.341387
 30
0.0
 40
1.5
  1
212.5
 41
0.7
  7
FX_VECTOR
 72
     5
 11
747.687109
 21
206.341387
 31
0.0
100
AcDbText
  0
LINE
  5
41F
330
417
100
AcDbEntity
  8
GR1-1
  6
CONTINUOUS
 62
     2
100
AcDbLine
 10
743.679509
 20
205.989352
 30
0.0
 11
743.679509
 21
205.729352
 31
0.0
  0
LINE
  5
420
330
417
100
AcDbEntity
  8
GR1-1
  6
CONTINUOUS
 62
     2
100
AcDbLine
 10
743.679509
 20
205.729352
 30
0.0
 11
742.899509
 21
205.859352
 31
0.0
  0
LINE
  5
421
330
417
100
AcDbEntity
  8
GR1-1
  6
CONTINUOUS
 62
     2
100
AcDbLine
 10
742.899509
 20
205.859352
 30
0.0
 11
743.679509
 21
205.989352
 31
0.0
  0
LINE
  5
422
330
417
100
AcDbEntity
  8
GR1-1
  6
CONTINUOUS
 62
     2
100
AcDbLine
 10
746.369509
 20
205.989352
 30
0.0
 11
746.369509
 21
205.729352
 31
0.0
  0
LINE
  5
423
330
417
100
AcDbEntity
  8
GR1-1
  6
CONTINUOUS
 62
     2
100
AcDbLine
 10
746.369509
 20
205.729352
 30
0.0
 11
747.149509
 21
205.859352
 31
0.0
  0
LINE
  5
424
330
417
100
AcDbEntity
  8
GR1-1
  6
CONTINUOUS
 62
     2
100
AcDbLine
 10
747.149509
 20
205.859352
 30
0.0
 11
746.369509
 21
205.989352
 31
0.0
  0
ENDBLK
  5
419
330
417
100
AcDbEntity
  8
0
100
AcDbBlockEnd
  0
BLOCK
  5
426
330
425
100
AcDbEntity
  8
0
100
AcDbBlockBegin
  2
BLKF072
 70
     0
 71
     0
 10
0.0
 20
0.0
 30
0.0
  3
BLKF072
  1

  0
LINE
  5
429
330
425
100
AcDbEntity
  8
GR1-1
  6
CONTINUOUS
 62
     2
100
AcDbLine
 10
734.749509
 20
204.472472
 30
0.0
 11
734.749509
 21
211.935008
 31
0.0
  0
LINE
  5
42A
330
425
100
AcDbEntity
  8
GR1-1
  6
CONTINUOUS
 62
     2
100
AcDbLine
 10
747.149509
 20
204.472472
 30
0.0
 11
747.149509
 21
211.935008
 31
0.0
  0
LINE
  5
42B
330
425
100
AcDbEntity
  8
GR1-1
  6
CONTINUOUS
 62
     2
100
AcDbLine
 10
735.529509
 20
211.335008
 30
0.0
 11
746.369509
 21
211.335008
 31
0.0
  0
LINE
  5
42C
330
425
100
AcDbEntity
  8
GR1-1
  6
CONTINUOUS
 62
     2
100
AcDbLine
 10
735.529509
 20
211.465008
 30
0.0
 11
735.529509
 21
211.205008
 31
0.0
  0
LINE
  5
42D
330
425
100
AcDbEntity
  8
GR1-1
  6
CONTINUOUS
 62
     2
100
AcDbLine
 10
735.529509
 20
211.205008
 30
0.0
 11
734.749509
 21
211.335008
 31
0.0
  0
LINE
  5
42E
330
425
100
AcDbEntity
  8
GR1-1
  6
CONTINUOUS
 62
     2
100
AcDbLine
 10
734.749509
 20
211.335008
 30
0.0
 11
735.529509
 21
211.465008
 31
0.0
  0
LINE
  5
42F
330
425
100
AcDbEntity
  8
GR1-1
  6
CONTINUOUS
 62
     2
100
AcDbLine
 10
746.369509
 20
211.465008
 30
0.0
 11
746.369509
 21
211.205008
 31
0.0
  0
LINE
  5
430
330
425
100
AcDbEntity
  8
GR1-1
  6
CONTINUOUS
 62
     2
100
AcDbLine
 10
746.369509
 20
211.205008
 30
0.0
 11
747.149509
 21
211.335008
 31
0.0
  0
LINE
  5
431
330
425
100
AcDbEntity
  8
GR1-1
  6
CONTINUOUS
 62
     2
100
AcDbLine
 10
747.149509
 20
211.335008
 30
0.0
 11
746.369509
 21
211.465008
 31
0.0
  0
TEXT
  5
432
330
425
100
AcDbEntity
  8
GR1-1
  6
CONTINUOUS
 62
     4
100
AcDbText
 10
739.374531
 20
211.93502
 30
0.0
 40
1.5
  1
620
 41
0.7
  7
FX_VECTOR
 72
     5
 11
742.524531
 21
211.93502
 31
0.0
100
AcDbText
  0
ENDBLK
  5
427
330
425
100
AcDbEntity
  8
0
100
AcDbBlockEnd
  0
BLOCK
  5
487
330
486
100
AcDbEntity
  8
0
100
AcDbBlockBegin
  2
BLKF073
 70
     0
 71
     0
 10
0.0
 20
0.0
 30
0.0
  3
BLKF073
  1

  0
LINE
  5
48A
330
486
100
AcDbEntity
  8
GR1-1
  6
CONTINUOUS
 62
     2
100
AcDbLine
 10
704.247526
 20
146.027147
 30
0.0
 11
704.247526
 21
147.693396
 31
0.0
  0
LINE
  5
48B
330
486
100
AcDbEntity
  8
GR1-1
  6
CONTINUOUS
 62
     2
100
AcDbLine
 10
702.247526
 20
144.461733
 30
0.0
 11
702.247526
 21
147.693396
 31
0.0
  0
LINE
  5
48C
330
486
100
AcDbEntity
  8
GR1-1
  6
CONTINUOUS
 62
     2
100
AcDbLine
 10
705.027526
 20
147.093396
 30
0.0
 11
705.807526
 21
147.093396
 31
0.0
  0
LINE
  5
48D
330
486
100
AcDbEntity
  8
GR1-1
  6
CONTINUOUS
 62
     2
100
AcDbLine
 10
701.467526
 20
147.093396
 30
0.0
 11
700.687526
 21
147.093396
 31
0.0
  0
TEXT
  5
48E
330
486
100
AcDbEntity
  8
GR1-1
  6
CONTINUOUS
 62
     4
100
AcDbText
 10
701.672578
 20
148.593398
 30
0.0
 40
1.5
  1
100
 41
0.7
  7
FX_VECTOR
 72
     5
 11
704.822578
 21
148.593398
 31
0.0
100
AcDbText
  0
LINE
  5
48F
330
486
100
AcDbEntity
  8
GR1-1
  6
CONTINUOUS
 62
     2
100
AcDbLine
 10
705.027526
 20
147.223396
 30
0.0
 11
705.027526
 21
146.963396
 31
0.0
  0
LINE
  5
490
330
486
100
AcDbEntity
  8
GR1-1
  6
CONTINUOUS
 62
     2
100
AcDbLine
 10
705.027526
 20
146.963396
 30
0.0
 11
704.247526
 21
147.093396
 31
0.0
  0
LINE
  5
491
330
486
100
AcDbEntity
  8
GR1-1
  6
CONTINUOUS
 62
     2
100
AcDbLine
 10
704.247526
 20
147.093396
 30
0.0
 11
705.027526
 21
147.223396
 31
0.0
  0
LINE
  5
492
330
486
100
AcDbEntity
  8
GR1-1
  6
CONTINUOUS
 62
     2
100
AcDbLine
 10
701.467526
 20
147.223396
 30
0.0
 11
701.467526
 21
146.963396
 31
0.0
  0
LINE
  5
493
330
486
100
AcDbEntity
  8
GR1-1
  6
CONTINUOUS
 62
     2
100
AcDbLine
 10
701.467526
 20
146.963396
 30
0.0
 11
702.247526
 21
147.093396
 31
0.0
  0
LINE
  5
494
330
486
100
AcDbEntity
  8
GR1-1
  6
CONTINUOUS
 62
     2
100
AcDbLine
 10
702.247526
 20
147.093396
 30
0.0
 11
701.467526
 21
147.223396
 31
0.0
  0
ENDBLK
  5
488
330
486
100
AcDbEntity
  8
0
100
AcDbBlockEnd
  0
BLOCK
  5
496
330
495
100
AcDbEntity
  8
0
100
AcDbBlockBegin
  2
BLKF074
 70
     0
 71
     0
 10
0.0
 20
0.0
 30
0.0
  3
BLKF074
  1

  0
LINE
  5
499
330
495
100
AcDbEntity
  8
GR1-1
  6
CONTINUOUS
 62
     2
100
AcDbLine
 10
709.402944
 20
131.387976
 30
0.0
 11
709.402944
 21
126.969893
 31
0.0
  0
LINE
  5
49A
330
495
100
AcDbEntity
  8
GR1-1
  6
CONTINUOUS
 62
     2
100
AcDbLine
 10
711.402944
 20
129.916312
 30
0.0
 11
711.402944
 21
126.969893
 31
0.0
  0
LINE
  5
49B
330
495
100
AcDbEntity
  8
GR1-1
  6
CONTINUOUS
 62
     2
100
AcDbLine
 10
708.622944
 20
127.569893
 30
0.0
 11
707.842944
 21
127.569893
 31
0.0
  0
LINE
  5
49C
330
495
100
AcDbEntity
  8
GR1-1
  6
CONTINUOUS
 62
     2
100
AcDbLine
 10
712.182944
 20
127.569893
 30
0.0
 11
712.962944
 21
127.569893
 31
0.0
  0
TEXT
  5
49D
330
495
100
AcDbEntity
  8
GR1-1
  6
CONTINUOUS
 62
     4
100
AcDbText
 10
708.827969
 20
128.054316
 30
0.0
 40
1.5
  1
100
 41
0.7
  7
FX_VECTOR
 72
     5
 11
711.977969
 21
128.054316
 31
0.0
100
AcDbText
  0
LINE
  5
49E
330
495
100
AcDbEntity
  8
GR1-1
  6
CONTINUOUS
 62
     2
100
AcDbLine
 10
708.622944
 20
127.699893
 30
0.0
 11
708.622944
 21
127.439893
 31
0.0
  0
LINE
  5
49F
330
495
100
AcDbEntity
  8
GR1-1
  6
CONTINUOUS
 62
     2
100
AcDbLine
 10
708.622944
 20
127.439893
 30
0.0
 11
709.402944
 21
127.569893
 31
0.0
  0
LINE
  5
4A0
330
495
100
AcDbEntity
  8
GR1-1
  6
CONTINUOUS
 62
     2
100
AcDbLine
 10
709.402944
 20
127.569893
 30
0.0
 11
708.622944
 21
127.699893
 31
0.0
  0
LINE
  5
4A1
330
495
100
AcDbEntity
  8
GR1-1
  6
CONTINUOUS
 62
     2
100
AcDbLine
 10
712.182944
 20
127.699893
 30
0.0
 11
712.182944
 21
127.439893
 31
0.0
  0
LINE
  5
4A2
330
495
100
AcDbEntity
  8
GR1-1
  6
CONTINUOUS
 62
     2
100
AcDbLine
 10
712.182944
 20
127.439893
 30
0.0
 11
711.402944
 21
127.569893
 31
0.0
  0
LINE
  5
4A3
330
495
100
AcDbEntity
  8
GR1-1
  6
CONTINUOUS
 62
     2
100
AcDbLine
 10
711.402944
 20
127.569893
 30
0.0
 11
712.182944
 21
127.699893
 31
0.0
  0
ENDBLK
  5
497
330
495
100
AcDbEntity
  8
0
100
AcDbBlockEnd
  0
BLOCK
  5
4A5
330
4A4
100
AcDbEntity
  8
0
100
AcDbBlockBegin
  2
BLKF075
 70
     0
 71
     0
 10
0.0
 20
0.0
 30
0.0
  3
BLKF075
  1

  0
LINE
  5
4A8
330
4A4
100
AcDbEntity
  8
GR1-1
  6
CONTINUOUS
 62
     2
100
AcDbLine
 10
711.402944
 20
129.916312
 30
0.0
 11
711.402944
 21
122.135384
 31
0.0
  0
LINE
  5
4A9
330
4A4
100
AcDbEntity
  8
GR1-1
  6
CONTINUOUS
 62
     2
100
AcDbLine
 10
706.002944
 20
129.916312
 30
0.0
 11
706.002944
 21
122.135384
 31
0.0
  0
LINE
  5
4AA
330
4A4
100
AcDbEntity
  8
GR1-1
  6
CONTINUOUS
 62
     2
100
AcDbLine
 10
710.622944
 20
122.735384
 30
0.0
 11
706.782944
 21
122.735384
 31
0.0
  0
LINE
  5
4AB
330
4A4
100
AcDbEntity
  8
GR1-1
  6
CONTINUOUS
 62
     2
100
AcDbLine
 10
710.622944
 20
122.865384
 30
0.0
 11
710.622944
 21
122.605384
 31
0.0
  0
LINE
  5
4AC
330
4A4
100
AcDbEntity
  8
GR1-1
  6
CONTINUOUS
 62
     2
100
AcDbLine
 10
710.622944
 20
122.605384
 30
0.0
 11
711.402944
 21
122.735384
 31
0.0
  0
LINE
  5
4AD
330
4A4
100
AcDbEntity
  8
GR1-1
  6
CONTINUOUS
 62
     2
100
AcDbLine
 10
711.402944
 20
122.735384
 30
0.0
 11
710.622944
 21
122.865384
 31
0.0
  0
LINE
  5
4AE
330
4A4
100
AcDbEntity
  8
GR1-1
  6
CONTINUOUS
 62
     2
100
AcDbLine
 10
706.782944
 20
122.865384
 30
0.0
 11
706.782944
 21
122.605384
 31
0.0
  0
LINE
  5
4AF
330
4A4
100
AcDbEntity
  8
GR1-1
  6
CONTINUOUS
 62
     2
100
AcDbLine
 10
706.782944
 20
122.605384
 30
0.0
 11
706.002944
 21
122.735384
 31
0.0
  0
LINE
  5
4B0
330
4A4
100
AcDbEntity
  8
GR1-1
  6
CONTINUOUS
 62
     2
100
AcDbLine
 10
706.002944
 20
122.735384
 30
0.0
 11
706.782944
 21
122.865384
 31
0.0
  0
TEXT
  5
4B1
330
4A4
100
AcDbEntity
  8
GR1-1
  6
CONTINUOUS
 62
     4
100
AcDbText
 10
707.127969
 20
123.335391
 30
0.0
 40
1.5
  1
270
 41
0.7
  7
FX_VECTOR
 72
     5
 11
710.277969
 21
123.335391
 31
0.0
100
AcDbText
  0
ENDBLK
  5
4A6
330
4A4
100
AcDbEntity
  8
0
100
AcDbBlockEnd
  0
BLOCK
  5
4B3
330
4B2
100
AcDbEntity
  8
0
100
AcDbBlockBegin
  2
BLKF076
 70
     0
 71
     0
 10
0.0
 20
0.0
 30
0.0
  3
BLKF076
  1

  0
LINE
  5
4B6
330
4B2
100
AcDbEntity
  8
GR1-1
  6
CONTINUOUS
 62
     2
100
AcDbLine
 10
693.242264
 20
129.916312
 30
0.0
 11
693.242264
 21
122.135384
 31
0.0
  0
LINE
  5
4B7
330
4B2
100
AcDbEntity
  8
GR1-1
  6
CONTINUOUS
 62
     2
100
AcDbLine
 10
689.042264
 20
129.916312
 30
0.0
 11
689.042264
 21
122.135384
 31
0.0
  0
LINE
  5
4B8
330
4B2
100
AcDbEntity
  8
GR1-1
  6
CONTINUOUS
 62
     2
100
AcDbLine
 10
692.462264
 20
122.735384
 30
0.0
 11
689.822264
 21
122.735384
 31
0.0
  0
LINE
  5
4B9
330
4B2
100
AcDbEntity
  8
GR1-1
  6
CONTINUOUS
 62
     2
100
AcDbLine
 10
692.462264
 20
122.865384
 30
0.0
 11
692.462264
 21
122.605384
 31
0.0
  0
LINE
  5
4BA
330
4B2
100
AcDbEntity
  8
GR1-1
  6
CONTINUOUS
 62
     2
100
AcDbLine
 10
692.462264
 20
122.605384
 30
0.0
 11
693.242264
 21
122.735384
 31
0.0
  0
LINE
  5
4BB
330
4B2
100
AcDbEntity
  8
GR1-1
  6
CONTINUOUS
 62
     2
100
AcDbLine
 10
693.242264
 20
122.735384
 30
0.0
 11
692.462264
 21
122.865384
 31
0.0
  0
LINE
  5
4BC
330
4B2
100
AcDbEntity
  8
GR1-1
  6
CONTINUOUS
 62
     2
100
AcDbLine
 10
689.822264
 20
122.865384
 30
0.0
 11
689.822264
 21
122.605384
 31
0.0
  0
LINE
  5
4BD
330
4B2
100
AcDbEntity
  8
GR1-1
  6
CONTINUOUS
 62
     2
100
AcDbLine
 10
689.822264
 20
122.605384
 30
0.0
 11
689.042264
 21
122.735384
 31
0.0
  0
LINE
  5
4BE
330
4B2
100
AcDbEntity
  8
GR1-1
  6
CONTINUOUS
 62
     2
100
AcDbLine
 10
689.042264
 20
122.735384
 30
0.0
 11
689.822264
 21
122.865384
 31
0.0
  0
TEXT
  5
4BF
330
4B2
100
AcDbEntity
  8
GR1-1
  6
CONTINUOUS
 62
     4
100
AcDbText
 10
689.567266
 20
123.335391
 30
0.0
 40
1.5
  1
210
 41
0.7
  7
FX_VECTOR
 72
     5
 11
692.717266
 21
123.335391
 31
0.0
100
AcDbText
  0
ENDBLK
  5
4B4
330
4B2
100
AcDbEntity
  8
0
100
AcDbBlockEnd
  0
BLOCK
  5
4C1
330
4C0
100
AcDbEntity
  8
0
100
AcDbBlockBegin
  2
BLKF077
 70
     0
 71
     0
 10
0.0
 20
0.0
 30
0.0
  3
BLKF077
  1

  0
LINE
  5
4C4
330
4C0
100
AcDbEntity
  8
GR1-1
  6
CONTINUOUS
 62
     2
100
AcDbLine
 10
689.334813
 20
131.243328
 30
0.0
 11
696.093713
 21
136.972953
 31
0.0
  0
INSERT
  5
4C5
330
4C0
100
AcDbEntity
  8
GR1-1
  6
CONTINUOUS
 62
     2
100
AcDbBlockReference
  2
FXTIP_ARROW_S
 10
689.334813
 20
131.243328
 30
0.0
 41
2.0
 42
2.0
 50
220.288466
  0
LINE
  5
4C6
330
4C0
100
AcDbEntity
  8
GR1-1
  6
CONTINUOUS
 62
     2
100
AcDbLine
 10
696.093713
 20
136.972953
 30
0.0
 11
695.774548
 21
136.972953
 31
0.0
  0
LINE
  5
4C7
330
4C0
100
AcDbEntity
  8
GR1-1
  6
CONTINUOUS
 62
     2
100
AcDbLine
 10
695.774548
 20
136.972953
 30
0.0
 11
703.834548
 21
136.972953
 31
0.0
  0
TEXT
  5
4C8
330
4C0
100
AcDbEntity
  8
GR1-1
  6
CONTINUOUS
 62
     4
100
AcDbText
 10
697.154609
 20
137.572949
 30
0.0
 40
1.5
  1
バール挿入孔
 41
0.7
  7
FX_VECTOR
 72
     5
 11
703.454609
 21
137.572949
 31
0.0
100
AcDbText
  0
ENDBLK
  5
4C2
330
4C0
100
AcDbEntity
  8
0
100
AcDbBlockEnd
  0
BLOCK
  5
4D2
330
4D1
100
AcDbEntity
  8
0
100
AcDbBlockBegin
  2
BLKF078
 70
     0
 71
     0
 10
0.0
 20
0.0
 30
0.0
  3
BLKF078
  1

  0
LINE
  5
4D5
330
4D1
100
AcDbEntity
  8
GR1-1
  6
CONTINUOUS
 62
     2
100
AcDbLine
 10
734.699509
 20
173.156034
 30
0.0
 11
734.699509
 21
166.105698
 31
0.0
  0
LINE
  5
4D6
330
4D1
100
AcDbEntity
  8
GR1-1
  6
CONTINUOUS
 62
     2
100
AcDbLine
 10
747.199509
 20
173.156034
 30
0.0
 11
747.199509
 21
166.105698
 31
0.0
  0
LINE
  5
4D7
330
4D1
100
AcDbEntity
  8
GR1-1
  6
CONTINUOUS
 62
     2
100
AcDbLine
 10
735.479509
 20
166.705698
 30
0.0
 11
746.419509
 21
166.705698
 31
0.0
  0
LINE
  5
4D8
330
4D1
100
AcDbEntity
  8
GR1-1
  6
CONTINUOUS
 62
     2
100
AcDbLine
 10
735.479509
 20
166.835698
 30
0.0
 11
735.479509
 21
166.575698
 31
0.0
  0
LINE
  5
4D9
330
4D1
100
AcDbEntity
  8
GR1-1
  6
CONTINUOUS
 62
     2
100
AcDbLine
 10
735.479509
 20
166.575698
 30
0.0
 11
734.699509
 21
166.705698
 31
0.0
  0
LINE
  5
4DA
330
4D1
100
AcDbEntity
  8
GR1-1
  6
CONTINUOUS
 62
     2
100
AcDbLine
 10
734.699509
 20
166.705698
 30
0.0
 11
735.479509
 21
166.835698
 31
0.0
  0
LINE
  5
4DB
330
4D1
100
AcDbEntity
  8
GR1-1
  6
CONTINUOUS
 62
     2
100
AcDbLine
 10
746.419509
 20
166.835698
 30
0.0
 11
746.419509
 21
166.575698
 31
0.0
  0
LINE
  5
4DC
330
4D1
100
AcDbEntity
  8
GR1-1
  6
CONTINUOUS
 62
     2
100
AcDbLine
 10
746.419509
 20
166.575698
 30
0.0
 11
747.199509
 21
166.705698
 31
0.0
  0
LINE
  5
4DD
330
4D1
100
AcDbEntity
  8
GR1-1
  6
CONTINUOUS
 62
     2
100
AcDbLine
 10
747.199509
 20
166.705698
 30
0.0
 11
746.419509
 21
166.835698
 31
0.0
  0
TEXT
  5
4DE
330
4D1
100
AcDbEntity
  8
GR1-1
  6
CONTINUOUS
 62
     4
100
AcDbText
 10
739.374531
 20
167.305684
 30
0.0
 40
1.5
  1
625
 41
0.7
  7
FX_VECTOR
 72
     5
 11
742.524531
 21
167.305684
 31
0.0
100
AcDbText
  0
ENDBLK
  5
4D3
330
4D1
100
AcDbEntity
  8
0
100
AcDbBlockEnd
  0
BLOCK
  5
4E0
330
4DF
100
AcDbEntity
  8
0
100
AcDbBlockBegin
  2
BLKF079
 70
     0
 71
     0
 10
0.0
 20
0.0
 30
0.0
  3
BLKF079
  1

  0
LINE
  5
4E3
330
4DF
100
AcDbEntity
  8
GR1-1
  6
CONTINUOUS
 62
     2
100
AcDbLine
 10
747.149509
 20
204.472472
 30
0.0
 11
747.149509
 21
211.935008
 31
0.0
  0
LINE
  5
4E4
330
4DF
100
AcDbEntity
  8
GR1-1
  6
CONTINUOUS
 62
     2
100
AcDbLine
 10
747.199509
 20
186.77063
 30
0.0
 11
747.199509
 21
211.935008
 31
0.0
  0
LINE
  5
4E5
330
4DF
100
AcDbEntity
  8
GR1-1
  6
CONTINUOUS
 62
     2
100
AcDbLine
 10
746.369509
 20
211.335008
 30
0.0
 11
745.589509
 21
211.335008
 31
0.0
  0
LINE
  5
4E6
330
4DF
100
AcDbEntity
  8
GR1-1
  6
CONTINUOUS
 62
     2
100
AcDbLine
 10
747.979509
 20
211.335008
 30
0.0
 11
748.759509
 21
211.335008
 31
0.0
  0
TEXT
  5
4E7
330
4DF
100
AcDbEntity
  8
GR1-1
  6
CONTINUOUS
 62
     4
100
AcDbText
 10
747.31
 20
211.95459
 30
0.0
 40
1.5
  1
2.5
 41
0.7
  7
FX_VECTOR
 72
     5
 11
750.46
 21
211.95459
 31
0.0
100
AcDbText
  0
LINE
  5
4E8
330
4DF
100
AcDbEntity
  8
GR1-1
  6
CONTINUOUS
 62
     2
100
AcDbLine
 10
746.369509
 20
211.465008
 30
0.0
 11
746.369509
 21
211.205008
 31
0.0
  0
LINE
  5
4E9
330
4DF
100
AcDbEntity
  8
GR1-1
  6
CONTINUOUS
 62
     2
100
AcDbLine
 10
746.369509
 20
211.205008
 30
0.0
 11
747.149509
 21
211.335008
 31
0.0
  0
LINE
  5
4EA
330
4DF
100
AcDbEntity
  8
GR1-1
  6
CONTINUOUS
 62
     2
100
AcDbLine
 10
747.149509
 20
211.335008
 30
0.0
 11
746.369509
 21
211.465008
 31
0.0
  0
LINE
  5
4EB
330
4DF
100
AcDbEntity
  8
GR1-1
  6
CONTINUOUS
 62
     2
100
AcDbLine
 10
747.979509
 20
211.465008
 30
0.0
 11
747.979509
 21
211.205008
 31
0.0
  0
LINE
  5
4EC
330
4DF
100
AcDbEntity
  8
GR1-1
  6
CONTINUOUS
 62
     2
100
AcDbLine
 10
747.979509
 20
211.205008
 30
0.0
 11
747.199509
 21
211.335008
 31
0.0
  0
LINE
  5
4ED
330
4DF
100
AcDbEntity
  8
GR1-1
  6
CONTINUOUS
 62
     2
100
AcDbLine
 10
747.199509
 20
211.335008
 30
0.0
 11
747.979509
 21
211.465008
 31
0.0
  0
ENDBLK
  5
4E1
330
4DF
100
AcDbEntity
  8
0
100
AcDbBlockEnd
  0
BLOCK
  5
4EF
330
4EE
100
AcDbEntity
  8
0
100
AcDbBlockBegin
  2
BLKF080
 70
     0
 71
     0
 10
0.0
 20
0.0
 30
0.0
  3
BLKF080
  1

  0
LINE
  5
4F2
330
4EE
100
AcDbEntity
  8
GR1-1
  6
CONTINUOUS
 62
     2
100
AcDbLine
 10
734.749509
 20
204.472472
 30
0.0
 11
734.749509
 21
211.935008
 31
0.0
  0
LINE
  5
4F3
330
4EE
100
AcDbEntity
  8
GR1-1
  6
CONTINUOUS
 62
     2
100
AcDbLine
 10
734.699509
 20
186.77063
 30
0.0
 11
734.699509
 21
211.935008
 31
0.0
  0
LINE
  5
4F4
330
4EE
100
AcDbEntity
  8
GR1-1
  6
CONTINUOUS
 62
     2
100
AcDbLine
 10
735.529509
 20
211.335008
 30
0.0
 11
736.309509
 21
211.335008
 31
0.0
  0
LINE
  5
4F5
330
4EE
100
AcDbEntity
  8
GR1-1
  6
CONTINUOUS
 62
     2
100
AcDbLine
 10
733.919509
 20
211.335008
 30
0.0
 11
733.139509
 21
211.335008
 31
0.0
  0
TEXT
  5
4F6
330
4EE
100
AcDbEntity
  8
GR1-1
  6
CONTINUOUS
 62
     4
100
AcDbText
 10
731.46625
 20
211.845488
 30
0.0
 40
1.5
  1
2.5
 41
0.7
  7
FX_VECTOR
 72
     5
 11
734.61625
 21
211.845488
 31
0.0
100
AcDbText
  0
LINE
  5
4F7
330
4EE
100
AcDbEntity
  8
GR1-1
  6
CONTINUOUS
 62
     2
100
AcDbLine
 10
735.529509
 20
211.465008
 30
0.0
 11
735.529509
 21
211.205008
 31
0.0
  0
LINE
  5
4F8
330
4EE
100
AcDbEntity
  8
GR1-1
  6
CONTINUOUS
 62
     2
100
AcDbLine
 10
735.529509
 20
211.205008
 30
0.0
 11
734.749509
 21
211.335008
 31
0.0
  0
LINE
  5
4F9
330
4EE
100
AcDbEntity
  8
GR1-1
  6
CONTINUOUS
 62
     2
100
AcDbLine
 10
734.749509
 20
211.335008
 30
0.0
 11
735.529509
 21
211.465008
 31
0.0
  0
LINE
  5
4FA
330
4EE
100
AcDbEntity
  8
GR1-1
  6
CONTINUOUS
 62
     2
100
AcDbLine
 10
733.919509
 20
211.465008
 30
0.0
 11
733.919509
 21
211.205008
 31
0.0
  0
LINE
  5
4FB
330
4EE
100
AcDbEntity
  8
GR1-1
  6
CONTINUOUS
 62
     2
100
AcDbLine
 10
733.919509
 20
211.205008
 30
0.0
 11
734.699509
 21
211.335008
 31
0.0
  0
LINE
  5
4FC
330
4EE
100
AcDbEntity
  8
GR1-1
  6
CONTINUOUS
 62
     2
100
AcDbLine
 10
734.699509
 20
211.335008
 30
0.0
 11
733.919509
 21
211.465008
 31
0.0
  0
ENDBLK
  5
4F0
330
4EE
100
AcDbEntity
  8
0
100
AcDbBlockEnd
  0
BLOCK
  5
4FE
330
4FD
100
AcDbEntity
  8
0
100
AcDbBlockBegin
  2
BLKF081
 70
     0
 71
     0
 10
0.0
 20
0.0
 30
0.0
  3
BLKF081
  1

  0
LINE
  5
501
330
4FD
100
AcDbEntity
  8
GR1-1
  6
CONTINUOUS
 62
     2
100
AcDbLine
 10
816.31649
 20
141.57173
 30
0.0
 11
823.831064
 21
141.57173
 31
0.0
  0
LINE
  5
502
330
4FD
100
AcDbEntity
  8
GR1-1
  6
CONTINUOUS
 62
     2
100
AcDbLine
 10
818.094199
 20
145.127147
 30
0.0
 11
823.831064
 21
145.127147
 31
0.0
  0
LINE
  5
503
330
4FD
100
AcDbEntity
  8
GR1-1
  6
CONTINUOUS
 62
     2
100
AcDbLine
 10
823.231064
 20
142.35173
 30
0.0
 11
823.231064
 21
144.347147
 31
0.0
  0
TEXT
  5
504
330
4FD
100
AcDbEntity
  8
GR1-1
  6
CONTINUOUS
 62
     4
100
AcDbText
 10
822.583984
 20
140.724434
 30
0.0
 40
1.5
  1
177.8
 50
90.0
 41
0.7
  7
FX_VECTOR
 72
     5
 11
822.583984
 21
145.974434
 31
0.0
100
AcDbText
  0
LINE
  5
505
330
4FD
100
AcDbEntity
  8
GR1-1
  6
CONTINUOUS
 62
     2
100
AcDbLine
 10
823.101064
 20
142.35173
 30
0.0
 11
823.361064
 21
142.35173
 31
0.0
  0
LINE
  5
506
330
4FD
100
AcDbEntity
  8
GR1-1
  6
CONTINUOUS
 62
     2
100
AcDbLine
 10
823.361064
 20
142.35173
 30
0.0
 11
823.231064
 21
141.57173
 31
0.0
  0
LINE
  5
507
330
4FD
100
AcDbEntity
  8
GR1-1
  6
CONTINUOUS
 62
     2
100
AcDbLine
 10
823.231064
 20
141.57173
 30
0.0
 11
823.101064
 21
142.35173
 31
0.0
  0
LINE
  5
508
330
4FD
100
AcDbEntity
  8
GR1-1
  6
CONTINUOUS
 62
     2
100
AcDbLine
 10
823.101064
 20
144.347147
 30
0.0
 11
823.361064
 21
144.347147
 31
0.0
  0
LINE
  5
509
330
4FD
100
AcDbEntity
  8
GR1-1
  6
CONTINUOUS
 62
     2
100
AcDbLine
 10
823.361064
 20
144.347147
 30
0.0
 11
823.231064
 21
145.127147
 31
0.0
  0
LINE
  5
50A
330
4FD
100
AcDbEntity
  8
GR1-1
  6
CONTINUOUS
 62
     2
100
AcDbLine
 10
823.231064
 20
145.127147
 30
0.0
 11
823.101064
 21
144.347147
 31
0.0
  0
ENDBLK
  5
4FF
330
4FD
100
AcDbEntity
  8
0
100
AcDbBlockEnd
  0
BLOCK
  5
50C
330
50B
100
AcDbEntity
  8
0
100
AcDbBlockBegin
  2
BLKF082
 70
     0
 71
     0
 10
0.0
 20
0.0
 30
0.0
  3
BLKF082
  1

  0
LINE
  5
50F
330
50B
100
AcDbEntity
  8
GR1-1
  6
CONTINUOUS
 62
     2
100
AcDbLine
 10
816.01649
 20
140.97173
 30
0.0
 11
823.831064
 21
140.97173
 31
0.0
  0
LINE
  5
510
330
50B
100
AcDbEntity
  8
GR1-1
  6
CONTINUOUS
 62
     2
100
AcDbLine
 10
816.31649
 20
141.57173
 30
0.0
 11
823.831064
 21
141.57173
 31
0.0
  0
LINE
  5
511
330
50B
100
AcDbEntity
  8
GR1-1
  6
CONTINUOUS
 62
     2
100
AcDbLine
 10
823.231064
 20
140.19173
 30
0.0
 11
823.231064
 21
139.41173
 31
0.0
  0
LINE
  5
512
330
50B
100
AcDbEntity
  8
GR1-1
  6
CONTINUOUS
 62
     2
100
AcDbLine
 10
823.231064
 20
142.35173
 30
0.0
 11
823.231064
 21
143.13173
 31
0.0
  0
TEXT
  5
513
330
50B
100
AcDbEntity
  8
GR1-1
  6
CONTINUOUS
 62
     4
100
AcDbText
 10
825.792188
 20
140.221719
 30
0.0
 40
1.5
  1
30
 50
90.0
 41
0.7
  7
FX_VECTOR
 72
     5
 11
825.792188
 21
142.321719
 31
0.0
100
AcDbText
  0
LINE
  5
514
330
50B
100
AcDbEntity
  8
GR1-1
  6
CONTINUOUS
 62
     2
100
AcDbLine
 10
823.101064
 20
140.19173
 30
0.0
 11
823.361064
 21
140.19173
 31
0.0
  0
LINE
  5
515
330
50B
100
AcDbEntity
  8
GR1-1
  6
CONTINUOUS
 62
     2
100
AcDbLine
 10
823.361064
 20
140.19173
 30
0.0
 11
823.231064
 21
140.97173
 31
0.0
  0
LINE
  5
516
330
50B
100
AcDbEntity
  8
GR1-1
  6
CONTINUOUS
 62
     2
100
AcDbLine
 10
823.231064
 20
140.97173
 30
0.0
 11
823.101064
 21
140.19173
 31
0.0
  0
LINE
  5
517
330
50B
100
AcDbEntity
  8
GR1-1
  6
CONTINUOUS
 62
     2
100
AcDbLine
 10
823.101064
 20
142.35173
 30
0.0
 11
823.361064
 21
142.35173
 31
0.0
  0
LINE
  5
518
330
50B
100
AcDbEntity
  8
GR1-1
  6
CONTINUOUS
 62
     2
100
AcDbLine
 10
823.361064
 20
142.35173
 30
0.0
 11
823.231064
 21
141.57173
 31
0.0
  0
LINE
  5
519
330
50B
100
AcDbEntity
  8
GR1-1
  6
CONTINUOUS
 62
     2
100
AcDbLine
 10
823.231064
 20
141.57173
 30
0.0
 11
823.101064
 21
142.35173
 31
0.0
  0
ENDBLK
  5
50D
330
50B
100
AcDbEntity
  8
0
100
AcDbBlockEnd
  0
BLOCK
  5
51B
330
51A
100
AcDbEntity
  8
0
100
AcDbBlockBegin
  2
BLKF083
 70
     0
 71
     0
 10
0.0
 20
0.0
 30
0.0
  3
BLKF083
  1

  0
LINE
  5
51E
330
51A
100
AcDbEntity
  8
GR1-1
  6
CONTINUOUS
 62
     2
100
AcDbLine
 10
813.01649
 20
134.97173
 30
0.0
 11
823.831064
 21
134.97173
 31
0.0
  0
LINE
  5
51F
330
51A
100
AcDbEntity
  8
GR1-1
  6
CONTINUOUS
 62
     2
100
AcDbLine
 10
816.01649
 20
140.97173
 30
0.0
 11
823.831064
 21
140.97173
 31
0.0
  0
LINE
  5
520
330
51A
100
AcDbEntity
  8
GR1-1
  6
CONTINUOUS
 62
     2
100
AcDbLine
 10
823.231064
 20
135.75173
 30
0.0
 11
823.231064
 21
140.19173
 31
0.0
  0
LINE
  5
521
330
51A
100
AcDbEntity
  8
GR1-1
  6
CONTINUOUS
 62
     2
100
AcDbLine
 10
823.101064
 20
135.75173
 30
0.0
 11
823.361064
 21
135.75173
 31
0.0
  0
LINE
  5
522
330
51A
100
AcDbEntity
  8
GR1-1
  6
CONTINUOUS
 62
     2
100
AcDbLine
 10
823.361064
 20
135.75173
 30
0.0
 11
823.231064
 21
134.97173
 31
0.0
  0
LINE
  5
523
330
51A
100
AcDbEntity
  8
GR1-1
  6
CONTINUOUS
 62
     2
100
AcDbLine
 10
823.231064
 20
134.97173
 30
0.0
 11
823.101064
 21
135.75173
 31
0.0
  0
LINE
  5
524
330
51A
100
AcDbEntity
  8
GR1-1
  6
CONTINUOUS
 62
     2
100
AcDbLine
 10
823.101064
 20
140.19173
 30
0.0
 11
823.361064
 21
140.19173
 31
0.0
  0
LINE
  5
525
330
51A
100
AcDbEntity
  8
GR1-1
  6
CONTINUOUS
 62
     2
100
AcDbLine
 10
823.361064
 20
140.19173
 30
0.0
 11
823.231064
 21
140.97173
 31
0.0
  0
LINE
  5
526
330
51A
100
AcDbEntity
  8
GR1-1
  6
CONTINUOUS
 62
     2
100
AcDbLine
 10
823.231064
 20
140.97173
 30
0.0
 11
823.101064
 21
140.19173
 31
0.0
  0
TEXT
  5
527
330
51A
100
AcDbEntity
  8
GR1-1
  6
CONTINUOUS
 62
     4
100
AcDbText
 10
822.631094
 20
136.396738
 30
0.0
 40
1.5
  1
300
 50
90.0
 41
0.7
  7
FX_VECTOR
 72
     5
 11
822.631094
 21
139.546738
 31
0.0
100
AcDbText
  0
ENDBLK
  5
51C
330
51A
100
AcDbEntity
  8
0
100
AcDbBlockEnd
  0
BLOCK
  5
529
330
528
100
AcDbEntity
  8
0
100
AcDbBlockBegin
  2
BLKF084
 70
     0
 71
     0
 10
0.0
 20
0.0
 30
0.0
  3
BLKF084
  1

  0
LINE
  5
52C
330
528
100
AcDbEntity
  8
GR1-1
  6
CONTINUOUS
 62
     2
100
AcDbLine
 10
810.938781
 20
130.816312
 30
0.0
 11
823.831064
 21
130.816312
 31
0.0
  0
LINE
  5
52D
330
528
100
AcDbEntity
  8
GR1-1
  6
CONTINUOUS
 62
     2
100
AcDbLine
 10
812.71649
 20
134.37173
 30
0.0
 11
823.831064
 21
134.37173
 31
0.0
  0
LINE
  5
52E
330
528
100
AcDbEntity
  8
GR1-1
  6
CONTINUOUS
 62
     2
100
AcDbLine
 10
823.231064
 20
131.596312
 30
0.0
 11
823.231064
 21
133.59173
 31
0.0
  0
TEXT
  5
52F
330
528
100
AcDbEntity
  8
GR1-1
  6
CONTINUOUS
 62
     4
100
AcDbText
 10
822.687422
 20
129.969023
 30
0.0
 40
1.5
  1
177.8
 50
90.0
 41
0.7
  7
FX_VECTOR
 72
     5
 11
822.687422
 21
135.219023
 31
0.0
100
AcDbText
  0
LINE
  5
530
330
528
100
AcDbEntity
  8
GR1-1
  6
CONTINUOUS
 62
     2
100
AcDbLine
 10
823.101064
 20
131.596312
 30
0.0
 11
823.361064
 21
131.596312
 31
0.0
  0
LINE
  5
531
330
528
100
AcDbEntity
  8
GR1-1
  6
CONTINUOUS
 62
     2
100
AcDbLine
 10
823.361064
 20
131.596312
 30
0.0
 11
823.231064
 21
130.816312
 31
0.0
  0
LINE
  5
532
330
528
100
AcDbEntity
  8
GR1-1
  6
CONTINUOUS
 62
     2
100
AcDbLine
 10
823.231064
 20
130.816312
 30
0.0
 11
823.101064
 21
131.596312
 31
0.0
  0
LINE
  5
533
330
528
100
AcDbEntity
  8
GR1-1
  6
CONTINUOUS
 62
     2
100
AcDbLine
 10
823.101064
 20
133.59173
 30
0.0
 11
823.361064
 21
133.59173
 31
0.0
  0
LINE
  5
534
330
528
100
AcDbEntity
  8
GR1-1
  6
CONTINUOUS
 62
     2
100
AcDbLine
 10
823.361064
 20
133.59173
 30
0.0
 11
823.231064
 21
134.37173
 31
0.0
  0
LINE
  5
535
330
528
100
AcDbEntity
  8
GR1-1
  6
CONTINUOUS
 62
     2
100
AcDbLine
 10
823.231064
 20
134.37173
 30
0.0
 11
823.101064
 21
133.59173
 31
0.0
  0
ENDBLK
  5
52A
330
528
100
AcDbEntity
  8
0
100
AcDbBlockEnd
  0
BLOCK
  5
537
330
536
100
AcDbEntity
  8
0
100
AcDbBlockBegin
  2
BLKF085
 70
     0
 71
     0
 10
0.0
 20
0.0
 30
0.0
  3
BLKF085
  1

  0
LINE
  5
53A
330
536
100
AcDbEntity
  8
GR1-1
  6
CONTINUOUS
 62
     2
100
AcDbLine
 10
812.71649
 20
134.37173
 30
0.0
 11
823.831064
 21
134.37173
 31
0.0
  0
LINE
  5
53B
330
536
100
AcDbEntity
  8
GR1-1
  6
CONTINUOUS
 62
     2
100
AcDbLine
 10
813.01649
 20
134.97173
 30
0.0
 11
823.831064
 21
134.97173
 31
0.0
  0
LINE
  5
53C
330
536
100
AcDbEntity
  8
GR1-1
  6
CONTINUOUS
 62
     2
100
AcDbLine
 10
823.231064
 20
133.59173
 30
0.0
 11
823.231064
 21
132.81173
 31
0.0
  0
LINE
  5
53D
330
536
100
AcDbEntity
  8
GR1-1
  6
CONTINUOUS
 62
     2
100
AcDbLine
 10
823.231064
 20
135.75173
 30
0.0
 11
823.231064
 21
136.53173
 31
0.0
  0
TEXT
  5
53E
330
536
100
AcDbEntity
  8
GR1-1
  6
CONTINUOUS
 62
     4
100
AcDbText
 10
825.740469
 20
133.621738
 30
0.0
 40
1.5
  1
30
 50
90.0
 41
0.7
  7
FX_VECTOR
 72
     5
 11
825.740469
 21
135.721738
 31
0.0
100
AcDbText
  0
LINE
  5
53F
330
536
100
AcDbEntity
  8
GR1-1
  6
CONTINUOUS
 62
     2
100
AcDbLine
 10
823.101064
 20
133.59173
 30
0.0
 11
823.361064
 21
133.59173
 31
0.0
  0
LINE
  5
540
330
536
100
AcDbEntity
  8
GR1-1
  6
CONTINUOUS
 62
     2
100
AcDbLine
 10
823.361064
 20
133.59173
 30
0.0
 11
823.231064
 21
134.37173
 31
0.0
  0
LINE
  5
541
330
536
100
AcDbEntity
  8
GR1-1
  6
CONTINUOUS
 62
     2
100
AcDbLine
 10
823.231064
 20
134.37173
 30
0.0
 11
823.101064
 21
133.59173
 31
0.0
  0
LINE
  5
542
330
536
100
AcDbEntity
  8
GR1-1
  6
CONTINUOUS
 62
     2
100
AcDbLine
 10
823.101064
 20
135.75173
 30
0.0
 11
823.361064
 21
135.75173
 31
0.0
  0
LINE
  5
543
330
536
100
AcDbEntity
  8
GR1-1
  6
CONTINUOUS
 62
     2
100
AcDbLine
 10
823.361064
 20
135.75173
 30
0.0
 11
823.231064
 21
134.97173
 31
0.0
  0
LINE
  5
544
330
536
100
AcDbEntity
  8
GR1-1
  6
CONTINUOUS
 62
     2
100
AcDbLine
 10
823.231064
 20
134.97173
 30
0.0
 11
823.101064
 21
135.75173
 31
0.0
  0
ENDBLK
  5
538
330
536
100
AcDbEntity
  8
0
100
AcDbBlockEnd
  0
BLOCK
  5
546
330
545
100
AcDbEntity
  8
0
100
AcDbBlockBegin
  2
BLKF086
 70
     0
 71
     0
 10
0.0
 20
0.0
 30
0.0
  3
BLKF086
  1

  0
LINE
  5
549
330
545
100
AcDbEntity
  8
GR1-1
  6
CONTINUOUS
 62
     2
100
AcDbLine
 10
818.094199
 20
145.127147
 30
0.0
 11
829.367872
 21
145.127147
 31
0.0
  0
LINE
  5
54A
330
545
100
AcDbEntity
  8
GR1-1
  6
CONTINUOUS
 62
     2
100
AcDbLine
 10
810.938781
 20
130.816312
 30
0.0
 11
829.367872
 21
130.816312
 31
0.0
  0
LINE
  5
54B
330
545
100
AcDbEntity
  8
GR1-1
  6
CONTINUOUS
 62
     2
100
AcDbLine
 10
828.767872
 20
144.347147
 30
0.0
 11
828.767872
 21
131.596312
 31
0.0
  0
LINE
  5
54C
330
545
100
AcDbEntity
  8
GR1-1
  6
CONTINUOUS
 62
     2
100
AcDbLine
 10
828.637872
 20
144.347147
 30
0.0
 11
828.897872
 21
144.347147
 31
0.0
  0
LINE
  5
54D
330
545
100
AcDbEntity
  8
GR1-1
  6
CONTINUOUS
 62
     2
100
AcDbLine
 10
828.897872
 20
144.347147
 30
0.0
 11
828.767872
 21
145.127147
 31
0.0
  0
LINE
  5
54E
330
545
100
AcDbEntity
  8
GR1-1
  6
CONTINUOUS
 62
     2
100
AcDbLine
 10
828.767872
 20
145.127147
 30
0.0
 11
828.637872
 21
144.347147
 31
0.0
  0
LINE
  5
54F
330
545
100
AcDbEntity
  8
GR1-1
  6
CONTINUOUS
 62
     2
100
AcDbLine
 10
828.637872
 20
131.596312
 30
0.0
 11
828.897872
 21
131.596312
 31
0.0
  0
LINE
  5
550
330
545
100
AcDbEntity
  8
GR1-1
  6
CONTINUOUS
 62
     2
100
AcDbLine
 10
828.897872
 20
131.596312
 30
0.0
 11
828.767872
 21
130.816312
 31
0.0
  0
LINE
  5
551
330
545
100
AcDbEntity
  8
GR1-1
  6
CONTINUOUS
 62
     2
100
AcDbLine
 10
828.767872
 20
130.816312
 30
0.0
 11
828.637872
 21
131.596312
 31
0.0
  0
TEXT
  5
552
330
545
100
AcDbEntity
  8
GR1-1
  6
CONTINUOUS
 62
     4
100
AcDbText
 10
828.167891
 20
135.346738
 30
0.0
 40
1.5
  1
715.5
 50
90.0
 41
0.7
  7
FX_VECTOR
 72
     5
 11
828.167891
 21
140.596738
 31
0.0
100
AcDbText
  0
ENDBLK
  5
547
330
545
100
AcDbEntity
  8
0
100
AcDbBlockEnd
  0
BLOCK
  5
554
330
553
100
AcDbEntity
  8
0
100
AcDbBlockBegin
  2
BLKF087
 70
     0
 71
     0
 10
0.0
 20
0.0
 30
0.0
  3
BLKF087
  1

  0
LINE
  5
557
330
553
100
AcDbEntity
  8
GR1-1
  6
CONTINUOUS
 62
     2
100
AcDbLine
 10
796.074162
 20
146.027147
 30
0.0
 11
796.074162
 21
148.260455
 31
0.0
  0
LINE
  5
558
330
553
100
AcDbEntity
  8
GR1-1
  6
CONTINUOUS
 62
     2
100
AcDbLine
 10
794.833179
 20
146.027147
 30
0.0
 11
794.833179
 21
148.260455
 31
0.0
  0
LINE
  5
559
330
553
100
AcDbEntity
  8
GR1-1
  6
CONTINUOUS
 62
     2
100
AcDbLine
 10
796.854162
 20
147.660455
 30
0.0
 11
797.634162
 21
147.660455
 31
0.0
  0
LINE
  5
55A
330
553
100
AcDbEntity
  8
GR1-1
  6
CONTINUOUS
 62
     2
100
AcDbLine
 10
794.053179
 20
147.660455
 30
0.0
 11
793.273179
 21
147.660455
 31
0.0
  0
TEXT
  5
55B
330
553
100
AcDbEntity
  8
GR1-1
  6
CONTINUOUS
 62
     4
100
AcDbText
 10
792.148594
 20
148.334043
 30
0.0
 40
1.5
  1
62
 41
0.7
  7
FX_VECTOR
 72
     5
 11
794.248594
 21
148.334043
 31
0.0
100
AcDbText
  0
LINE
  5
55C
330
553
100
AcDbEntity
  8
GR1-1
  6
CONTINUOUS
 62
     2
100
AcDbLine
 10
796.854162
 20
147.790455
 30
0.0
 11
796.854162
 21
147.530455
 31
0.0
  0
LINE
  5
55D
330
553
100
AcDbEntity
  8
GR1-1
  6
CONTINUOUS
 62
     2
100
AcDbLine
 10
796.854162
 20
147.530455
 30
0.0
 11
796.074162
 21
147.660455
 31
0.0
  0
LINE
  5
55E
330
553
100
AcDbEntity
  8
GR1-1
  6
CONTINUOUS
 62
     2
100
AcDbLine
 10
796.074162
 20
147.660455
 30
0.0
 11
796.854162
 21
147.790455
 31
0.0
  0
LINE
  5
55F
330
553
100
AcDbEntity
  8
GR1-1
  6
CONTINUOUS
 62
     2
100
AcDbLine
 10
794.053179
 20
147.790455
 30
0.0
 11
794.053179
 21
147.530455
 31
0.0
  0
LINE
  5
560
330
553
100
AcDbEntity
  8
GR1-1
  6
CONTINUOUS
 62
     2
100
AcDbLine
 10
794.053179
 20
147.530455
 30
0.0
 11
794.833179
 21
147.660455
 31
0.0
  0
LINE
  5
561
330
553
100
AcDbEntity
  8
GR1-1
  6
CONTINUOUS
 62
     2
100
AcDbLine
 10
794.833179
 20
147.660455
 30
0.0
 11
794.053179
 21
147.790455
 31
0.0
  0
ENDBLK
  5
555
330
553
100
AcDbEntity
  8
0
100
AcDbBlockEnd
  0
BLOCK
  5
563
330
562
100
AcDbEntity
  8
0
100
AcDbBlockBegin
  2
BLKF088
 70
     0
 71
     0
 10
0.0
 20
0.0
 30
0.0
  3
BLKF088
  1

  0
LINE
  5
566
330
562
100
AcDbEntity
  8
GR1-1
  6
CONTINUOUS
 62
     2
100
AcDbLine
 10
808.797458
 20
146.027147
 30
0.0
 11
808.797458
 21
148.260455
 31
0.0
  0
LINE
  5
567
330
562
100
AcDbEntity
  8
GR1-1
  6
CONTINUOUS
 62
     2
100
AcDbLine
 10
817.194199
 20
146.027147
 30
0.0
 11
817.194199
 21
148.260455
 31
0.0
  0
LINE
  5
568
330
562
100
AcDbEntity
  8
GR1-1
  6
CONTINUOUS
 62
     2
100
AcDbLine
 10
809.577458
 20
147.660455
 30
0.0
 11
816.414199
 21
147.660455
 31
0.0
  0
LINE
  5
569
330
562
100
AcDbEntity
  8
GR1-1
  6
CONTINUOUS
 62
     2
100
AcDbLine
 10
809.577458
 20
147.790455
 30
0.0
 11
809.577458
 21
147.530455
 31
0.0
  0
LINE
  5
56A
330
562
100
AcDbEntity
  8
GR1-1
  6
CONTINUOUS
 62
     2
100
AcDbLine
 10
809.577458
 20
147.530455
 30
0.0
 11
808.797458
 21
147.660455
 31
0.0
  0
LINE
  5
56B
330
562
100
AcDbEntity
  8
GR1-1
  6
CONTINUOUS
 62
     2
100
AcDbLine
 10
808.797458
 20
147.660455
 30
0.0
 11
809.577458
 21
147.790455
 31
0.0
  0
LINE
  5
56C
330
562
100
AcDbEntity
  8
GR1-1
  6
CONTINUOUS
 62
     2
100
AcDbLine
 10
816.414199
 20
147.790455
 30
0.0
 11
816.414199
 21
147.530455
 31
0.0
  0
LINE
  5
56D
330
562
100
AcDbEntity
  8
GR1-1
  6
CONTINUOUS
 62
     2
100
AcDbLine
 10
816.414199
 20
147.530455
 30
0.0
 11
817.194199
 21
147.660455
 31
0.0
  0
LINE
  5
56E
330
562
100
AcDbEntity
  8
GR1-1
  6
CONTINUOUS
 62
     2
100
AcDbLine
 10
817.194199
 20
147.660455
 30
0.0
 11
816.414199
 21
147.790455
 31
0.0
  0
TEXT
  5
56F
330
562
100
AcDbEntity
  8
GR1-1
  6
CONTINUOUS
 62
     4
100
AcDbText
 10
811.420859
 20
148.260449
 30
0.0
 40
1.5
  1
420
 41
0.7
  7
FX_VECTOR
 72
     5
 11
814.570859
 21
148.260449
 31
0.0
100
AcDbText
  0
ENDBLK
  5
564
330
562
100
AcDbEntity
  8
0
100
AcDbBlockEnd
  0
BLOCK
  5
575
330
574
100
AcDbEntity
  8
0
100
AcDbBlockBegin
  2
BLKF089
 70
     0
 71
     0
 10
0.0
 20
0.0
 30
0.0
  3
BLKF089
  1

  0
LINE
  5
578
330
574
100
AcDbEntity
  8
GR1-1
  6
CONTINUOUS
 62
     2
100
AcDbLine
 10
796.074162
 20
146.027147
 30
0.0
 11
796.074162
 21
148.260455
 31
0.0
  0
LINE
  5
579
330
574
100
AcDbEntity
  8
GR1-1
  6
CONTINUOUS
 62
     2
100
AcDbLine
 10
796.674162
 20
146.027147
 30
0.0
 11
796.674162
 21
148.260455
 31
0.0
  0
LINE
  5
57A
330
574
100
AcDbEntity
  8
GR1-1
  6
CONTINUOUS
 62
     2
100
AcDbLine
 10
795.294162
 20
147.660455
 30
0.0
 11
794.514162
 21
147.660455
 31
0.0
  0
LINE
  5
57B
330
574
100
AcDbEntity
  8
GR1-1
  6
CONTINUOUS
 62
     2
100
AcDbLine
 10
797.454162
 20
147.660455
 30
0.0
 11
798.234162
 21
147.660455
 31
0.0
  0
TEXT
  5
57C
330
574
100
AcDbEntity
  8
GR1-1
  6
CONTINUOUS
 62
     4
100
AcDbText
 10
795.324219
 20
148.417676
 30
0.0
 40
1.5
  1
30
 41
0.7
  7
FX_VECTOR
 72
     5
 11
797.424219
 21
148.417676
 31
0.0
100
AcDbText
  0
LINE
  5
57D
330
574
100
AcDbEntity
  8
GR1-1
  6
CONTINUOUS
 62
     2
100
AcDbLine
 10
795.294162
 20
147.790455
 30
0.0
 11
795.294162
 21
147.530455
 31
0.0
  0
LINE
  5
57E
330
574
100
AcDbEntity
  8
GR1-1
  6
CONTINUOUS
 62
     2
100
AcDbLine
 10
795.294162
 20
147.530455
 30
0.0
 11
796.074162
 21
147.660455
 31
0.0
  0
LINE
  5
57F
330
574
100
AcDbEntity
  8
GR1-1
  6
CONTINUOUS
 62
     2
100
AcDbLine
 10
796.074162
 20
147.660455
 30
0.0
 11
795.294162
 21
147.790455
 31
0.0
  0
LINE
  5
580
330
574
100
AcDbEntity
  8
GR1-1
  6
CONTINUOUS
 62
     2
100
AcDbLine
 10
797.454162
 20
147.790455
 30
0.0
 11
797.454162
 21
147.530455
 31
0.0
  0
LINE
  5
581
330
574
100
AcDbEntity
  8
GR1-1
  6
CONTINUOUS
 62
     2
100
AcDbLine
 10
797.454162
 20
147.530455
 30
0.0
 11
796.674162
 21
147.660455
 31
0.0
  0
LINE
  5
582
330
574
100
AcDbEntity
  8
GR1-1
  6
CONTINUOUS
 62
     2
100
AcDbLine
 10
796.674162
 20
147.660455
 30
0.0
 11
797.454162
 21
147.790455
 31
0.0
  0
ENDBLK
  5
576
330
574
100
AcDbEntity
  8
0
100
AcDbBlockEnd
  0
BLOCK
  5
584
330
583
100
AcDbEntity
  8
0
100
AcDbBlockBegin
  2
BLKF090
 70
     0
 71
     0
 10
0.0
 20
0.0
 30
0.0
  3
BLKF090
  1

  0
LINE
  5
587
330
583
100
AcDbEntity
  8
GR1-1
  6
CONTINUOUS
 62
     2
100
AcDbLine
 10
796.674162
 20
146.027147
 30
0.0
 11
796.674162
 21
148.260455
 31
0.0
  0
LINE
  5
588
330
583
100
AcDbEntity
  8
GR1-1
  6
CONTINUOUS
 62
     2
100
AcDbLine
 10
808.197458
 20
145.966092
 30
0.0
 11
808.197458
 21
148.260455
 31
0.0
  0
LINE
  5
589
330
583
100
AcDbEntity
  8
GR1-1
  6
CONTINUOUS
 62
     2
100
AcDbLine
 10
797.454162
 20
147.660455
 30
0.0
 11
807.417458
 21
147.660455
 31
0.0
  0
LINE
  5
58A
330
583
100
AcDbEntity
  8
GR1-1
  6
CONTINUOUS
 62
     2
100
AcDbLine
 10
797.454162
 20
147.790455
 30
0.0
 11
797.454162
 21
147.530455
 31
0.0
  0
LINE
  5
58B
330
583
100
AcDbEntity
  8
GR1-1
  6
CONTINUOUS
 62
     2
100
AcDbLine
 10
797.454162
 20
147.530455
 30
0.0
 11
796.674162
 21
147.660455
 31
0.0
  0
LINE
  5
58C
330
583
100
AcDbEntity
  8
GR1-1
  6
CONTINUOUS
 62
     2
100
AcDbLine
 10
796.674162
 20
147.660455
 30
0.0
 11
797.454162
 21
147.790455
 31
0.0
  0
LINE
  5
58D
330
583
100
AcDbEntity
  8
GR1-1
  6
CONTINUOUS
 62
     2
100
AcDbLine
 10
807.417458
 20
147.790455
 30
0.0
 11
807.417458
 21
147.530455
 31
0.0
  0
LINE
  5
58E
330
583
100
AcDbEntity
  8
GR1-1
  6
CONTINUOUS
 62
     2
100
AcDbLine
 10
807.417458
 20
147.530455
 30
0.0
 11
808.197458
 21
147.660455
 31
0.0
  0
LINE
  5
58F
330
583
100
AcDbEntity
  8
GR1-1
  6
CONTINUOUS
 62
     2
100
AcDbLine
 10
808.197458
 20
147.660455
 30
0.0
 11
807.417458
 21
147.790455
 31
0.0
  0
TEXT
  5
590
330
583
100
AcDbEntity
  8
GR1-1
  6
CONTINUOUS
 62
     4
100
AcDbText
 10
800.860859
 20
148.260449
 30
0.0
 40
1.5
  1
576
 41
0.7
  7
FX_VECTOR
 72
     5
 11
804.010859
 21
148.260449
 31
0.0
100
AcDbText
  0
ENDBLK
  5
585
330
583
100
AcDbEntity
  8
0
100
AcDbBlockEnd
  0
BLOCK
  5
592
330
591
100
AcDbEntity
  8
0
100
AcDbBlockBegin
  2
BLKF091
 70
     0
 71
     0
 10
0.0
 20
0.0
 30
0.0
  3
BLKF091
  1

  0
LINE
  5
595
330
591
100
AcDbEntity
  8
GR1-1
  6
CONTINUOUS
 62
     2
100
AcDbLine
 10
808.197458
 20
145.966092
 30
0.0
 11
808.197458
 21
148.260455
 31
0.0
  0
LINE
  5
596
330
591
100
AcDbEntity
  8
GR1-1
  6
CONTINUOUS
 62
     2
100
AcDbLine
 10
808.797458
 20
146.027147
 30
0.0
 11
808.797458
 21
148.260455
 31
0.0
  0
LINE
  5
597
330
591
100
AcDbEntity
  8
GR1-1
  6
CONTINUOUS
 62
     2
100
AcDbLine
 10
807.417458
 20
147.660455
 30
0.0
 11
806.637458
 21
147.660455
 31
0.0
  0
LINE
  5
598
330
591
100
AcDbEntity
  8
GR1-1
  6
CONTINUOUS
 62
     2
100
AcDbLine
 10
809.577458
 20
147.660455
 30
0.0
 11
810.357458
 21
147.660455
 31
0.0
  0
TEXT
  5
599
330
591
100
AcDbEntity
  8
GR1-1
  6
CONTINUOUS
 62
     4
100
AcDbText
 10
807.4475
 20
148.417676
 30
0.0
 40
1.5
  1
30
 41
0.7
  7
FX_VECTOR
 72
     5
 11
809.5475
 21
148.417676
 31
0.0
100
AcDbText
  0
LINE
  5
59A
330
591
100
AcDbEntity
  8
GR1-1
  6
CONTINUOUS
 62
     2
100
AcDbLine
 10
807.417458
 20
147.790455
 30
0.0
 11
807.417458
 21
147.530455
 31
0.0
  0
LINE
  5
59B
330
591
100
AcDbEntity
  8
GR1-1
  6
CONTINUOUS
 62
     2
100
AcDbLine
 10
807.417458
 20
147.530455
 30
0.0
 11
808.197458
 21
147.660455
 31
0.0
  0
LINE
  5
59C
330
591
100
AcDbEntity
  8
GR1-1
  6
CONTINUOUS
 62
     2
100
AcDbLine
 10
808.197458
 20
147.660455
 30
0.0
 11
807.417458
 21
147.790455
 31
0.0
  0
LINE
  5
59D
330
591
100
AcDbEntity
  8
GR1-1
  6
CONTINUOUS
 62
     2
100
AcDbLine
 10
809.577458
 20
147.790455
 30
0.0
 11
809.577458
 21
147.530455
 31
0.0
  0
LINE
  5
59E
330
591
100
AcDbEntity
  8
GR1-1
  6
CONTINUOUS
 62
     2
100
AcDbLine
 10
809.577458
 20
147.530455
 30
0.0
 11
808.797458
 21
147.660455
 31
0.0
  0
LINE
  5
59F
330
591
100
AcDbEntity
  8
GR1-1
  6
CONTINUOUS
 62
     2
100
AcDbLine
 10
808.797458
 20
147.660455
 30
0.0
 11
809.577458
 21
147.790455
 31
0.0
  0
ENDBLK
  5
593
330
591
100
AcDbEntity
  8
0
100
AcDbBlockEnd
  0
BLOCK
  5
5A1
330
5A0
100
AcDbEntity
  8
0
100
AcDbBlockBegin
  2
BLKF092
 70
     0
 71
     0
 10
0.0
 20
0.0
 30
0.0
  3
BLKF092
  1

  0
LINE
  5
5A4
330
5A0
100
AcDbEntity
  8
GR1-1
  6
CONTINUOUS
 62
     2
100
AcDbLine
 10
748.099509
 20
130.816312
 30
0.0
 11
753.929236
 21
130.816312
 31
0.0
  0
LINE
  5
5A5
330
5A0
100
AcDbEntity
  8
GR1-1
  6
CONTINUOUS
 62
     2
100
AcDbLine
 10
748.099509
 20
145.127147
 30
0.0
 11
753.929236
 21
145.127147
 31
0.0
  0
LINE
  5
5A6
330
5A0
100
AcDbEntity
  8
GR1-1
  6
CONTINUOUS
 62
     2
100
AcDbLine
 10
753.329236
 20
131.596312
 30
0.0
 11
753.329236
 21
144.347147
 31
0.0
  0
LINE
  5
5A7
330
5A0
100
AcDbEntity
  8
GR1-1
  6
CONTINUOUS
 62
     2
100
AcDbLine
 10
753.199236
 20
131.596312
 30
0.0
 11
753.459236
 21
131.596312
 31
0.0
  0
LINE
  5
5A8
330
5A0
100
AcDbEntity
  8
GR1-1
  6
CONTINUOUS
 62
     2
100
AcDbLine
 10
753.459236
 20
131.596312
 30
0.0
 11
753.329236
 21
130.816312
 31
0.0
  0
LINE
  5
5A9
330
5A0
100
AcDbEntity
  8
GR1-1
  6
CONTINUOUS
 62
     2
100
AcDbLine
 10
753.329236
 20
130.816312
 30
0.0
 11
753.199236
 21
131.596312
 31
0.0
  0
LINE
  5
5AA
330
5A0
100
AcDbEntity
  8
GR1-1
  6
CONTINUOUS
 62
     2
100
AcDbLine
 10
753.199236
 20
144.347147
 30
0.0
 11
753.459236
 21
144.347147
 31
0.0
  0
LINE
  5
5AB
330
5A0
100
AcDbEntity
  8
GR1-1
  6
CONTINUOUS
 62
     2
100
AcDbLine
 10
753.459236
 20
144.347147
 30
0.0
 11
753.329236
 21
145.127147
 31
0.0
  0
LINE
  5
5AC
330
5A0
100
AcDbEntity
  8
GR1-1
  6
CONTINUOUS
 62
     2
100
AcDbLine
 10
753.329236
 20
145.127147
 30
0.0
 11
753.199236
 21
144.347147
 31
0.0
  0
TEXT
  5
5AD
330
5A0
100
AcDbEntity
  8
GR1-1
  6
CONTINUOUS
 62
     4
100
AcDbText
 10
752.729297
 20
135.346738
 30
0.0
 40
1.5
  1
715.5
 50
90.0
 41
0.7
  7
FX_VECTOR
 72
     5
 11
752.729297
 21
140.596738
 31
0.0
100
AcDbText
  0
ENDBLK
  5
5A2
330
5A0
100
AcDbEntity
  8
0
100
AcDbBlockEnd
  0
BLOCK
  5
5BA
330
5B9
100
AcDbEntity
  8
0
100
AcDbBlockBegin
  2
BLKF093
 70
     0
 71
     0
 10
0.0
 20
0.0
 30
0.0
  3
BLKF093
  1

  0
LINE
  5
5BD
330
5B9
100
AcDbEntity
  8
GR1-1
  6
CONTINUOUS
 62
     2
100
AcDbLine
 10
734.699509
 20
81.458112
 30
0.0
 11
734.699509
 21
71.631274
 31
0.0
  0
LINE
  5
5BE
330
5B9
100
AcDbEntity
  8
GR1-1
  6
CONTINUOUS
 62
     2
100
AcDbLine
 10
747.199509
 20
81.458112
 30
0.0
 11
747.199509
 21
71.631274
 31
0.0
  0
LINE
  5
5BF
330
5B9
100
AcDbEntity
  8
GR1-1
  6
CONTINUOUS
 62
     2
100
AcDbLine
 10
735.479509
 20
72.231274
 30
0.0
 11
746.419509
 21
72.231274
 31
0.0
  0
LINE
  5
5C0
330
5B9
100
AcDbEntity
  8
GR1-1
  6
CONTINUOUS
 62
     2
100
AcDbLine
 10
735.479509
 20
72.361274
 30
0.0
 11
735.479509
 21
72.101274
 31
0.0
  0
LINE
  5
5C1
330
5B9
100
AcDbEntity
  8
GR1-1
  6
CONTINUOUS
 62
     2
100
AcDbLine
 10
735.479509
 20
72.101274
 30
0.0
 11
734.699509
 21
72.231274
 31
0.0
  0
LINE
  5
5C2
330
5B9
100
AcDbEntity
  8
GR1-1
  6
CONTINUOUS
 62
     2
100
AcDbLine
 10
734.699509
 20
72.231274
 30
0.0
 11
735.479509
 21
72.361274
 31
0.0
  0
LINE
  5
5C3
330
5B9
100
AcDbEntity
  8
GR1-1
  6
CONTINUOUS
 62
     2
100
AcDbLine
 10
746.419509
 20
72.361274
 30
0.0
 11
746.419509
 21
72.101274
 31
0.0
  0
LINE
  5
5C4
330
5B9
100
AcDbEntity
  8
GR1-1
  6
CONTINUOUS
 62
     2
100
AcDbLine
 10
746.419509
 20
72.101274
 30
0.0
 11
747.199509
 21
72.231274
 31
0.0
  0
LINE
  5
5C5
330
5B9
100
AcDbEntity
  8
GR1-1
  6
CONTINUOUS
 62
     2
100
AcDbLine
 10
747.199509
 20
72.231274
 30
0.0
 11
746.419509
 21
72.361274
 31
0.0
  0
TEXT
  5
5C6
330
5B9
100
AcDbEntity
  8
GR1-1
  6
CONTINUOUS
 62
     4
100
AcDbText
 10
739.374531
 20
72.83127
 30
0.0
 40
1.5
  1
625
 41
0.7
  7
FX_VECTOR
 72
     5
 11
742.524531
 21
72.83127
 31
0.0
100
AcDbText
  0
ENDBLK
  5
5BB
330
5B9
100
AcDbEntity
  8
0
100
AcDbBlockEnd
  0
BLOCK
  5
5C8
330
5C7
100
AcDbEntity
  8
0
100
AcDbBlockBegin
  2
BLKF094
 70
     0
 71
     0
 10
0.0
 20
0.0
 30
0.0
  3
BLKF094
  1

  0
LINE
  5
5CB
330
5C7
100
AcDbEntity
  8
GR1-1
  6
CONTINUOUS
 62
     2
100
AcDbLine
 10
742.499509
 20
81.458112
 30
0.0
 11
742.499509
 21
74.846197
 31
0.0
  0
LINE
  5
5CC
330
5C7
100
AcDbEntity
  8
GR1-1
  6
CONTINUOUS
 62
     2
100
AcDbLine
 10
747.199509
 20
81.458112
 30
0.0
 11
747.199509
 21
74.846197
 31
0.0
  0
LINE
  5
5CD
330
5C7
100
AcDbEntity
  8
GR1-1
  6
CONTINUOUS
 62
     2
100
AcDbLine
 10
743.279509
 20
75.446197
 30
0.0
 11
746.419509
 21
75.446197
 31
0.0
  0
TEXT
  5
5CE
330
5C7
100
AcDbEntity
  8
GR1-1
  6
CONTINUOUS
 62
     4
100
AcDbText
 10
743.458828
 20
76.058203
 30
0.0
 40
1.5
  1
235
 41
0.7
  7
FX_VECTOR
 72
     5
 11
746.608828
 21
76.058203
 31
0.0
100
AcDbText
  0
LINE
  5
5CF
330
5C7
100
AcDbEntity
  8
GR1-1
  6
CONTINUOUS
 62
     2
100
AcDbLine
 10
743.279509
 20
75.576197
 30
0.0
 11
743.279509
 21
75.316197
 31
0.0
  0
LINE
  5
5D0
330
5C7
100
AcDbEntity
  8
GR1-1
  6
CONTINUOUS
 62
     2
100
AcDbLine
 10
743.279509
 20
75.316197
 30
0.0
 11
742.499509
 21
75.446197
 31
0.0
  0
LINE
  5
5D1
330
5C7
100
AcDbEntity
  8
GR1-1
  6
CONTINUOUS
 62
     2
100
AcDbLine
 10
742.499509
 20
75.446197
 30
0.0
 11
743.279509
 21
75.576197
 31
0.0
  0
LINE
  5
5D2
330
5C7
100
AcDbEntity
  8
GR1-1
  6
CONTINUOUS
 62
     2
100
AcDbLine
 10
746.419509
 20
75.576197
 30
0.0
 11
746.419509
 21
75.316197
 31
0.0
  0
LINE
  5
5D3
330
5C7
100
AcDbEntity
  8
GR1-1
  6
CONTINUOUS
 62
     2
100
AcDbLine
 10
746.419509
 20
75.316197
 30
0.0
 11
747.199509
 21
75.446197
 31
0.0
  0
LINE
  5
5D4
330
5C7
100
AcDbEntity
  8
GR1-1
  6
CONTINUOUS
 62
     2
100
AcDbLine
 10
747.199509
 20
75.446197
 30
0.0
 11
746.419509
 21
75.576197
 31
0.0
  0
ENDBLK
  5
5C9
330
5C7
100
AcDbEntity
  8
0
100
AcDbBlockEnd
  0
BLOCK
  5
5D7
330
5D6
100
AcDbEntity
  8
0
100
AcDbBlockBegin
  2
BLKF095
 70
     0
 71
     0
 10
0.0
 20
0.0
 30
0.0
  3
BLKF095
  1

  0
LINE
  5
5DA
330
5D6
100
AcDbEntity
  8
GR1-1
  6
CONTINUOUS
 62
     2
100
AcDbLine
 10
739.399509
 20
81.458112
 30
0.0
 11
739.399509
 21
74.846197
 31
0.0
  0
LINE
  5
5DB
330
5D6
100
AcDbEntity
  8
GR1-1
  6
CONTINUOUS
 62
     2
100
AcDbLine
 10
734.699509
 20
81.458112
 30
0.0
 11
734.699509
 21
74.846197
 31
0.0
  0
LINE
  5
5DC
330
5D6
100
AcDbEntity
  8
GR1-1
  6
CONTINUOUS
 62
     2
100
AcDbLine
 10
738.619509
 20
75.446197
 30
0.0
 11
735.479509
 21
75.446197
 31
0.0
  0
TEXT
  5
5DD
330
5D6
100
AcDbEntity
  8
GR1-1
  6
CONTINUOUS
 62
     4
100
AcDbText
 10
735.549766
 20
76.058203
 30
0.0
 40
1.5
  1
235
 41
0.7
  7
FX_VECTOR
 72
     5
 11
738.699766
 21
76.058203
 31
0.0
100
AcDbText
  0
LINE
  5
5DE
330
5D6
100
AcDbEntity
  8
GR1-1
  6
CONTINUOUS
 62
     2
100
AcDbLine
 10
738.619509
 20
75.576197
 30
0.0
 11
738.619509
 21
75.316197
 31
0.0
  0
LINE
  5
5DF
330
5D6
100
AcDbEntity
  8
GR1-1
  6
CONTINUOUS
 62
     2
100
AcDbLine
 10
738.619509
 20
75.316197
 30
0.0
 11
739.399509
 21
75.446197
 31
0.0
  0
LINE
  5
5E0
330
5D6
100
AcDbEntity
  8
GR1-1
  6
CONTINUOUS
 62
     2
100
AcDbLine
 10
739.399509
 20
75.446197
 30
0.0
 11
738.619509
 21
75.576197
 31
0.0
  0
LINE
  5
5E1
330
5D6
100
AcDbEntity
  8
GR1-1
  6
CONTINUOUS
 62
     2
100
AcDbLine
 10
735.479509
 20
75.576197
 30
0.0
 11
735.479509
 21
75.316197
 31
0.0
  0
LINE
  5
5E2
330
5D6
100
AcDbEntity
  8
GR1-1
  6
CONTINUOUS
 62
     2
100
AcDbLine
 10
735.479509
 20
75.316197
 30
0.0
 11
734.699509
 21
75.446197
 31
0.0
  0
LINE
  5
5E3
330
5D6
100
AcDbEntity
  8
GR1-1
  6
CONTINUOUS
 62
     2
100
AcDbLine
 10
734.699509
 20
75.446197
 30
0.0
 11
735.479509
 21
75.576197
 31
0.0
  0
ENDBLK
  5
5D8
330
5D6
100
AcDbEntity
  8
0
100
AcDbBlockEnd
  0
BLOCK
  5
5E5
330
5E4
100
AcDbEntity
  8
0
100
AcDbBlockBegin
  2
BLKF096
 70
     0
 71
     0
 10
0.0
 20
0.0
 30
0.0
  3
BLKF096
  1

  0
LINE
  5
5E8
330
5E4
100
AcDbEntity
  8
GR1-1
  6
CONTINUOUS
 62
     2
100
AcDbLine
 10
742.499509
 20
81.458112
 30
0.0
 11
742.499509
 21
74.846197
 31
0.0
  0
LINE
  5
5E9
330
5E4
100
AcDbEntity
  8
GR1-1
  6
CONTINUOUS
 62
     2
100
AcDbLine
 10
739.399509
 20
81.458112
 30
0.0
 11
739.399509
 21
74.846197
 31
0.0
  0
LINE
  5
5EA
330
5E4
100
AcDbEntity
  8
GR1-1
  6
CONTINUOUS
 62
     2
100
AcDbLine
 10
741.719509
 20
75.446197
 30
0.0
 11
740.179509
 21
75.446197
 31
0.0
  0
TEXT
  5
5EB
330
5E4
100
AcDbEntity
  8
GR1-1
  6
CONTINUOUS
 62
     4
100
AcDbText
 10
739.254609
 20
76.086289
 30
0.0
 40
1.5
  1
155
 41
0.7
  7
FX_VECTOR
 72
     5
 11
742.404609
 21
76.086289
 31
0.0
100
AcDbText
  0
LINE
  5
5EC
330
5E4
100
AcDbEntity
  8
GR1-1
  6
CONTINUOUS
 62
     2
100
AcDbLine
 10
741.719509
 20
75.576197
 30
0.0
 11
741.719509
 21
75.316197
 31
0.0
  0
LINE
  5
5ED
330
5E4
100
AcDbEntity
  8
GR1-1
  6
CONTINUOUS
 62
     2
100
AcDbLine
 10
741.719509
 20
75.316197
 30
0.0
 11
742.499509
 21
75.446197
 31
0.0
  0
LINE
  5
5EE
330
5E4
100
AcDbEntity
  8
GR1-1
  6
CONTINUOUS
 62
     2
100
AcDbLine
 10
742.499509
 20
75.446197
 30
0.0
 11
741.719509
 21
75.576197
 31
0.0
  0
LINE
  5
5EF
330
5E4
100
AcDbEntity
  8
GR1-1
  6
CONTINUOUS
 62
     2
100
AcDbLine
 10
740.179509
 20
75.576197
 30
0.0
 11
740.179509
 21
75.316197
 31
0.0
  0
LINE
  5
5F0
330
5E4
100
AcDbEntity
  8
GR1-1
  6
CONTINUOUS
 62
     2
100
AcDbLine
 10
740.179509
 20
75.316197
 30
0.0
 11
739.399509
 21
75.446197
 31
0.0
  0
LINE
  5
5F1
330
5E4
100
AcDbEntity
  8
GR1-1
  6
CONTINUOUS
 62
     2
100
AcDbLine
 10
739.399509
 20
75.446197
 30
0.0
 11
740.179509
 21
75.576197
 31
0.0
  0
ENDBLK
  5
5E6
330
5E4
100
AcDbEntity
  8
0
100
AcDbBlockEnd
  0
BLOCK
  5
5FA
330
5F9
100
AcDbEntity
  8
0
100
AcDbBlockBegin
  2
BLKF097
 70
     0
 71
     0
 10
0.0
 20
0.0
 30
0.0
  3
BLKF097
  1

  0
LINE
  5
5FD
330
5F9
100
AcDbEntity
  8
GR1-1
  6
CONTINUOUS
 62
     2
100
AcDbLine
 10
747.199509
 20
87.238112
 30
0.0
 11
747.199509
 21
90.505102
 31
0.0
  0
LINE
  5
5FE
330
5F9
100
AcDbEntity
  8
GR1-1
  6
CONTINUOUS
 62
     2
100
AcDbLine
 10
746.199509
 20
87.238112
 30
0.0
 11
746.199509
 21
90.505102
 31
0.0
  0
LINE
  5
5FF
330
5F9
100
AcDbEntity
  8
GR1-1
  6
CONTINUOUS
 62
     2
100
AcDbLine
 10
747.979509
 20
89.905102
 30
0.0
 11
748.759509
 21
89.905102
 31
0.0
  0
LINE
  5
600
330
5F9
100
AcDbEntity
  8
GR1-1
  6
CONTINUOUS
 62
     2
100
AcDbLine
 10
745.419509
 20
89.905102
 30
0.0
 11
744.639509
 21
89.905102
 31
0.0
  0
TEXT
  5
601
330
5F9
100
AcDbEntity
  8
GR1-1
  6
CONTINUOUS
 62
     4
100
AcDbText
 10
743.858594
 20
90.370176
 30
0.0
 40
1.5
  1
50
 41
0.7
  7
FX_VECTOR
 72
     5
 11
745.958594
 21
90.370176
 31
0.0
100
AcDbText
  0
LINE
  5
602
330
5F9
100
AcDbEntity
  8
GR1-1
  6
CONTINUOUS
 62
     2
100
AcDbLine
 10
747.979509
 20
90.035102
 30
0.0
 11
747.979509
 21
89.775102
 31
0.0
  0
LINE
  5
603
330
5F9
100
AcDbEntity
  8
GR1-1
  6
CONTINUOUS
 62
     2
100
AcDbLine
 10
747.979509
 20
89.775102
 30
0.0
 11
747.199509
 21
89.905102
 31
0.0
  0
LINE
  5
604
330
5F9
100
AcDbEntity
  8
GR1-1
  6
CONTINUOUS
 62
     2
100
AcDbLine
 10
747.199509
 20
89.905102
 30
0.0
 11
747.979509
 21
90.035102
 31
0.0
  0
LINE
  5
605
330
5F9
100
AcDbEntity
  8
GR1-1
  6
CONTINUOUS
 62
     2
100
AcDbLine
 10
745.419509
 20
90.035102
 30
0.0
 11
745.419509
 21
89.775102
 31
0.0
  0
LINE
  5
606
330
5F9
100
AcDbEntity
  8
GR1-1
  6
CONTINUOUS
 62
     2
100
AcDbLine
 10
745.419509
 20
89.775102
 30
0.0
 11
746.199509
 21
89.905102
 31
0.0
  0
LINE
  5
607
330
5F9
100
AcDbEntity
  8
GR1-1
  6
CONTINUOUS
 62
     2
100
AcDbLine
 10
746.199509
 20
89.905102
 30
0.0
 11
745.419509
 21
90.035102
 31
0.0
  0
ENDBLK
  5
5FB
330
5F9
100
AcDbEntity
  8
0
100
AcDbBlockEnd
  0
BLOCK
  5
60B
330
60A
100
AcDbEntity
  8
0
100
AcDbBlockBegin
  2
BLKF098
 70
     0
 71
     0
 10
0.0
 20
0.0
 30
0.0
  3
BLKF098
  1

  0
LINE
  5
60E
330
60A
100
AcDbEntity
  8
GR1-1
  6
CONTINUOUS
 62
     2
100
AcDbLine
 10
734.699509
 20
129.916312
 30
0.0
 11
734.699509
 21
121.923863
 31
0.0
  0
LINE
  5
60F
330
60A
100
AcDbEntity
  8
GR1-1
  6
CONTINUOUS
 62
     2
100
AcDbLine
 10
747.199509
 20
129.916312
 30
0.0
 11
747.199509
 21
121.923863
 31
0.0
  0
LINE
  5
610
330
60A
100
AcDbEntity
  8
GR1-1
  6
CONTINUOUS
 62
     2
100
AcDbLine
 10
735.479509
 20
122.523863
 30
0.0
 11
746.419509
 21
122.523863
 31
0.0
  0
LINE
  5
611
330
60A
100
AcDbEntity
  8
GR1-1
  6
CONTINUOUS
 62
     2
100
AcDbLine
 10
735.479509
 20
122.653863
 30
0.0
 11
735.479509
 21
122.393863
 31
0.0
  0
LINE
  5
612
330
60A
100
AcDbEntity
  8
GR1-1
  6
CONTINUOUS
 62
     2
100
AcDbLine
 10
735.479509
 20
122.393863
 30
0.0
 11
734.699509
 21
122.523863
 31
0.0
  0
LINE
  5
613
330
60A
100
AcDbEntity
  8
GR1-1
  6
CONTINUOUS
 62
     2
100
AcDbLine
 10
734.699509
 20
122.523863
 30
0.0
 11
735.479509
 21
122.653863
 31
0.0
  0
LINE
  5
614
330
60A
100
AcDbEntity
  8
GR1-1
  6
CONTINUOUS
 62
     2
100
AcDbLine
 10
746.419509
 20
122.653863
 30
0.0
 11
746.419509
 21
122.393863
 31
0.0
  0
LINE
  5
615
330
60A
100
AcDbEntity
  8
GR1-1
  6
CONTINUOUS
 62
     2
100
AcDbLine
 10
746.419509
 20
122.393863
 30
0.0
 11
747.199509
 21
122.523863
 31
0.0
  0
LINE
  5
616
330
60A
100
AcDbEntity
  8
GR1-1
  6
CONTINUOUS
 62
     2
100
AcDbLine
 10
747.199509
 20
122.523863
 30
0.0
 11
746.419509
 21
122.653863
 31
0.0
  0
TEXT
  5
617
330
60A
100
AcDbEntity
  8
GR1-1
  6
CONTINUOUS
 62
     4
100
AcDbText
 10
739.374531
 20
123.123867
 30
0.0
 40
1.5
  1
625
 41
0.7
  7
FX_VECTOR
 72
     5
 11
742.524531
 21
123.123867
 31
0.0
100
AcDbText
  0
ENDBLK
  5
60C
330
60A
100
AcDbEntity
  8
0
100
AcDbBlockEnd
  0
BLOCK
  5
622
330
621
100
AcDbEntity
  8
0
100
AcDbBlockBegin
  2
BLKF099
 70
     0
 71
     0
 10
0.0
 20
0.0
 30
0.0
  3
BLKF099
  1

  0
LINE
  5
625
330
621
100
AcDbEntity
  8
GR1-1
  6
CONTINUOUS
 62
     2
100
AcDbLine
 10
792.973462
 20
81.458112
 30
0.0
 11
792.973462
 21
74.846197
 31
0.0
  0
LINE
  5
626
330
621
100
AcDbEntity
  8
GR1-1
  6
CONTINUOUS
 62
     2
100
AcDbLine
 10
797.673462
 20
81.458112
 30
0.0
 11
797.673462
 21
74.846197
 31
0.0
  0
LINE
  5
627
330
621
100
AcDbEntity
  8
GR1-1
  6
CONTINUOUS
 62
     2
100
AcDbLine
 10
793.753462
 20
75.446197
 30
0.0
 11
796.893462
 21
75.446197
 31
0.0
  0
TEXT
  5
628
330
621
100
AcDbEntity
  8
GR1-1
  6
CONTINUOUS
 62
     4
100
AcDbText
 10
793.932813
 20
76.058203
 30
0.0
 40
1.5
  1
235
 41
0.7
  7
FX_VECTOR
 72
     5
 11
797.082813
 21
76.058203
 31
0.0
100
AcDbText
  0
LINE
  5
629
330
621
100
AcDbEntity
  8
GR1-1
  6
CONTINUOUS
 62
     2
100
AcDbLine
 10
793.753462
 20
75.576197
 30
0.0
 11
793.753462
 21
75.316197
 31
0.0
  0
LINE
  5
62A
330
621
100
AcDbEntity
  8
GR1-1
  6
CONTINUOUS
 62
     2
100
AcDbLine
 10
793.753462
 20
75.316197
 30
0.0
 11
792.973462
 21
75.446197
 31
0.0
  0
LINE
  5
62B
330
621
100
AcDbEntity
  8
GR1-1
  6
CONTINUOUS
 62
     2
100
AcDbLine
 10
792.973462
 20
75.446197
 30
0.0
 11
793.753462
 21
75.576197
 31
0.0
  0
LINE
  5
62C
330
621
100
AcDbEntity
  8
GR1-1
  6
CONTINUOUS
 62
     2
100
AcDbLine
 10
796.893462
 20
75.576197
 30
0.0
 11
796.893462
 21
75.316197
 31
0.0
  0
LINE
  5
62D
330
621
100
AcDbEntity
  8
GR1-1
  6
CONTINUOUS
 62
     2
100
AcDbLine
 10
796.893462
 20
75.316197
 30
0.0
 11
797.673462
 21
75.446197
 31
0.0
  0
LINE
  5
62E
330
621
100
AcDbEntity
  8
GR1-1
  6
CONTINUOUS
 62
     2
100
AcDbLine
 10
797.673462
 20
75.446197
 30
0.0
 11
796.893462
 21
75.576197
 31
0.0
  0
ENDBLK
  5
623
330
621
100
AcDbEntity
  8
0
100
AcDbBlockEnd
  0
BLOCK
  5
630
330
62F
100
AcDbEntity
  8
0
100
AcDbBlockBegin
  2
BLKF100
 70
     0
 71
     0
 10
0.0
 20
0.0
 30
0.0
  3
BLKF100
  1

  0
LINE
  5
633
330
62F
100
AcDbEntity
  8
GR1-1
  6
CONTINUOUS
 62
     2
100
AcDbLine
 10
785.173462
 20
81.458112
 30
0.0
 11
785.173462
 21
71.631274
 31
0.0
  0
LINE
  5
634
330
62F
100
AcDbEntity
  8
GR1-1
  6
CONTINUOUS
 62
     2
100
AcDbLine
 10
797.673462
 20
81.458112
 30
0.0
 11
797.673462
 21
71.631274
 31
0.0
  0
LINE
  5
635
330
62F
100
AcDbEntity
  8
GR1-1
  6
CONTINUOUS
 62
     2
100
AcDbLine
 10
785.953462
 20
72.231274
 30
0.0
 11
796.893462
 21
72.231274
 31
0.0
  0
LINE
  5
636
330
62F
100
AcDbEntity
  8
GR1-1
  6
CONTINUOUS
 62
     2
100
AcDbLine
 10
785.953462
 20
72.361274
 30
0.0
 11
785.953462
 21
72.101274
 31
0.0
  0
LINE
  5
637
330
62F
100
AcDbEntity
  8
GR1-1
  6
CONTINUOUS
 62
     2
100
AcDbLine
 10
785.953462
 20
72.101274
 30
0.0
 11
785.173462
 21
72.231274
 31
0.0
  0
LINE
  5
638
330
62F
100
AcDbEntity
  8
GR1-1
  6
CONTINUOUS
 62
     2
100
AcDbLine
 10
785.173462
 20
72.231274
 30
0.0
 11
785.953462
 21
72.361274
 31
0.0
  0
LINE
  5
639
330
62F
100
AcDbEntity
  8
GR1-1
  6
CONTINUOUS
 62
     2
100
AcDbLine
 10
796.893462
 20
72.361274
 30
0.0
 11
796.893462
 21
72.101274
 31
0.0
  0
LINE
  5
63A
330
62F
100
AcDbEntity
  8
GR1-1
  6
CONTINUOUS
 62
     2
100
AcDbLine
 10
796.893462
 20
72.101274
 30
0.0
 11
797.673462
 21
72.231274
 31
0.0
  0
LINE
  5
63B
330
62F
100
AcDbEntity
  8
GR1-1
  6
CONTINUOUS
 62
     2
100
AcDbLine
 10
797.673462
 20
72.231274
 30
0.0
 11
796.893462
 21
72.361274
 31
0.0
  0
TEXT
  5
63C
330
62F
100
AcDbEntity
  8
GR1-1
  6
CONTINUOUS
 62
     4
100
AcDbText
 10
789.848516
 20
72.83127
 30
0.0
 40
1.5
  1
625
 41
0.7
  7
FX_VECTOR
 72
     5
 11
792.998516
 21
72.83127
 31
0.0
100
AcDbText
  0
ENDBLK
  5
631
330
62F
100
AcDbEntity
  8
0
100
AcDbBlockEnd
  0
BLOCK
  5
63E
330
63D
100
AcDbEntity
  8
0
100
AcDbBlockBegin
  2
BLKF101
 70
     0
 71
     0
 10
0.0
 20
0.0
 30
0.0
  3
BLKF101
  1

  0
LINE
  5
641
330
63D
100
AcDbEntity
  8
GR1-1
  6
CONTINUOUS
 62
     2
100
AcDbLine
 10
789.873462
 20
81.458112
 30
0.0
 11
789.873462
 21
74.846197
 31
0.0
  0
LINE
  5
642
330
63D
100
AcDbEntity
  8
GR1-1
  6
CONTINUOUS
 62
     2
100
AcDbLine
 10
785.173462
 20
81.458112
 30
0.0
 11
785.173462
 21
74.846197
 31
0.0
  0
LINE
  5
643
330
63D
100
AcDbEntity
  8
GR1-1
  6
CONTINUOUS
 62
     2
100
AcDbLine
 10
789.093462
 20
75.446197
 30
0.0
 11
785.953462
 21
75.446197
 31
0.0
  0
TEXT
  5
644
330
63D
100
AcDbEntity
  8
GR1-1
  6
CONTINUOUS
 62
     4
100
AcDbText
 10
786.023672
 20
76.058203
 30
0.0
 40
1.5
  1
235
 41
0.7
  7
FX_VECTOR
 72
     5
 11
789.173672
 21
76.058203
 31
0.0
100
AcDbText
  0
LINE
  5
645
330
63D
100
AcDbEntity
  8
GR1-1
  6
CONTINUOUS
 62
     2
100
AcDbLine
 10
789.093462
 20
75.576197
 30
0.0
 11
789.093462
 21
75.316197
 31
0.0
  0
LINE
  5
646
330
63D
100
AcDbEntity
  8
GR1-1
  6
CONTINUOUS
 62
     2
100
AcDbLine
 10
789.093462
 20
75.316197
 30
0.0
 11
789.873462
 21
75.446197
 31
0.0
  0
LINE
  5
647
330
63D
100
AcDbEntity
  8
GR1-1
  6
CONTINUOUS
 62
     2
100
AcDbLine
 10
789.873462
 20
75.446197
 30
0.0
 11
789.093462
 21
75.576197
 31
0.0
  0
LINE
  5
648
330
63D
100
AcDbEntity
  8
GR1-1
  6
CONTINUOUS
 62
     2
100
AcDbLine
 10
785.953462
 20
75.576197
 30
0.0
 11
785.953462
 21
75.316197
 31
0.0
  0
LINE
  5
649
330
63D
100
AcDbEntity
  8
GR1-1
  6
CONTINUOUS
 62
     2
100
AcDbLine
 10
785.953462
 20
75.316197
 30
0.0
 11
785.173462
 21
75.446197
 31
0.0
  0
LINE
  5
64A
330
63D
100
AcDbEntity
  8
GR1-1
  6
CONTINUOUS
 62
     2
100
AcDbLine
 10
785.173462
 20
75.446197
 30
0.0
 11
785.953462
 21
75.576197
 31
0.0
  0
ENDBLK
  5
63F
330
63D
100
AcDbEntity
  8
0
100
AcDbBlockEnd
  0
BLOCK
  5
64C
330
64B
100
AcDbEntity
  8
0
100
AcDbBlockBegin
  2
BLKF102
 70
     0
 71
     0
 10
0.0
 20
0.0
 30
0.0
  3
BLKF102
  1

  0
LINE
  5
64F
330
64B
100
AcDbEntity
  8
GR1-1
  6
CONTINUOUS
 62
     2
100
AcDbLine
 10
792.973462
 20
81.458112
 30
0.0
 11
792.973462
 21
74.846197
 31
0.0
  0
LINE
  5
650
330
64B
100
AcDbEntity
  8
GR1-1
  6
CONTINUOUS
 62
     2
100
AcDbLine
 10
789.873462
 20
81.458112
 30
0.0
 11
789.873462
 21
74.846197
 31
0.0
  0
LINE
  5
651
330
64B
100
AcDbEntity
  8
GR1-1
  6
CONTINUOUS
 62
     2
100
AcDbLine
 10
792.193462
 20
75.446197
 30
0.0
 11
790.653462
 21
75.446197
 31
0.0
  0
TEXT
  5
652
330
64B
100
AcDbEntity
  8
GR1-1
  6
CONTINUOUS
 62
     4
100
AcDbText
 10
789.728594
 20
76.086289
 30
0.0
 40
1.5
  1
155
 41
0.7
  7
FX_VECTOR
 72
     5
 11
792.878594
 21
76.086289
 31
0.0
100
AcDbText
  0
LINE
  5
653
330
64B
100
AcDbEntity
  8
GR1-1
  6
CONTINUOUS
 62
     2
100
AcDbLine
 10
792.193462
 20
75.576197
 30
0.0
 11
792.193462
 21
75.316197
 31
0.0
  0
LINE
  5
654
330
64B
100
AcDbEntity
  8
GR1-1
  6
CONTINUOUS
 62
     2
100
AcDbLine
 10
792.193462
 20
75.316197
 30
0.0
 11
792.973462
 21
75.446197
 31
0.0
  0
LINE
  5
655
330
64B
100
AcDbEntity
  8
GR1-1
  6
CONTINUOUS
 62
     2
100
AcDbLine
 10
792.973462
 20
75.446197
 30
0.0
 11
792.193462
 21
75.576197
 31
0.0
  0
LINE
  5
656
330
64B
100
AcDbEntity
  8
GR1-1
  6
CONTINUOUS
 62
     2
100
AcDbLine
 10
790.653462
 20
75.576197
 30
0.0
 11
790.653462
 21
75.316197
 31
0.0
  0
LINE
  5
657
330
64B
100
AcDbEntity
  8
GR1-1
  6
CONTINUOUS
 62
     2
100
AcDbLine
 10
790.653462
 20
75.316197
 30
0.0
 11
789.873462
 21
75.446197
 31
0.0
  0
LINE
  5
658
330
64B
100
AcDbEntity
  8
GR1-1
  6
CONTINUOUS
 62
     2
100
AcDbLine
 10
789.873462
 20
75.446197
 30
0.0
 11
790.653462
 21
75.576197
 31
0.0
  0
ENDBLK
  5
64D
330
64B
100
AcDbEntity
  8
0
100
AcDbBlockEnd
  0
BLOCK
  5
65A
330
659
100
AcDbEntity
  8
0
100
AcDbBlockBegin
  2
BLKF103
 70
     0
 71
     0
 10
0.0
 20
0.0
 30
0.0
  3
BLKF103
  1

  0
LINE
  5
65D
330
659
100
AcDbEntity
  8
GR1-1
  6
CONTINUOUS
 62
     2
100
AcDbLine
 10
791.423462
 20
81.458112
 30
0.0
 11
791.423462
 21
78.511693
 31
0.0
  0
LINE
  5
65E
330
659
100
AcDbEntity
  8
GR1-1
  6
CONTINUOUS
 62
     2
100
AcDbLine
 10
789.873462
 20
81.458112
 30
0.0
 11
789.873462
 21
78.511693
 31
0.0
  0
LINE
  5
65F
330
659
100
AcDbEntity
  8
GR1-1
  6
CONTINUOUS
 62
     2
100
AcDbLine
 10
792.203462
 20
79.111693
 30
0.0
 11
792.983462
 21
79.111693
 31
0.0
  0
LINE
  5
660
330
659
100
AcDbEntity
  8
GR1-1
  6
CONTINUOUS
 62
     2
100
AcDbLine
 10
789.093462
 20
79.111693
 30
0.0
 11
788.313462
 21
79.111693
 31
0.0
  0
TEXT
  5
661
330
659
100
AcDbEntity
  8
GR1-1
  6
CONTINUOUS
 62
     4
100
AcDbText
 10
785.694609
 20
79.489434
 30
0.0
 40
1.5
  1
77.5
 41
0.7
  7
FX_VECTOR
 72
     5
 11
789.894609
 21
79.489434
 31
0.0
100
AcDbText
  0
LINE
  5
662
330
659
100
AcDbEntity
  8
GR1-1
  6
CONTINUOUS
 62
     2
100
AcDbLine
 10
792.203462
 20
79.241693
 30
0.0
 11
792.203462
 21
78.981693
 31
0.0
  0
LINE
  5
663
330
659
100
AcDbEntity
  8
GR1-1
  6
CONTINUOUS
 62
     2
100
AcDbLine
 10
792.203462
 20
78.981693
 30
0.0
 11
791.423462
 21
79.111693
 31
0.0
  0
LINE
  5
664
330
659
100
AcDbEntity
  8
GR1-1
  6
CONTINUOUS
 62
     2
100
AcDbLine
 10
791.423462
 20
79.111693
 30
0.0
 11
792.203462
 21
79.241693
 31
0.0
  0
LINE
  5
665
330
659
100
AcDbEntity
  8
GR1-1
  6
CONTINUOUS
 62
     2
100
AcDbLine
 10
789.093462
 20
79.241693
 30
0.0
 11
789.093462
 21
78.981693
 31
0.0
  0
LINE
  5
666
330
659
100
AcDbEntity
  8
GR1-1
  6
CONTINUOUS
 62
     2
100
AcDbLine
 10
789.093462
 20
78.981693
 30
0.0
 11
789.873462
 21
79.111693
 31
0.0
  0
LINE
  5
667
330
659
100
AcDbEntity
  8
GR1-1
  6
CONTINUOUS
 62
     2
100
AcDbLine
 10
789.873462
 20
79.111693
 30
0.0
 11
789.093462
 21
79.241693
 31
0.0
  0
ENDBLK
  5
65B
330
659
100
AcDbEntity
  8
0
100
AcDbBlockEnd
  0
BLOCK
  5
672
330
671
100
AcDbEntity
  8
0
100
AcDbBlockBegin
  2
BLKF104
 70
     0
 71
     0
 10
0.0
 20
0.0
 30
0.0
  3
BLKF104
  1

  0
LINE
  5
675
330
671
100
AcDbEntity
  8
GR1-1
  6
CONTINUOUS
 62
     2
100
AcDbLine
 10
797.673462
 20
87.738112
 30
0.0
 11
797.673462
 21
91.005102
 31
0.0
  0
LINE
  5
676
330
671
100
AcDbEntity
  8
GR1-1
  6
CONTINUOUS
 62
     2
100
AcDbLine
 10
796.673462
 20
87.738112
 30
0.0
 11
796.673462
 21
91.005102
 31
0.0
  0
LINE
  5
677
330
671
100
AcDbEntity
  8
GR1-1
  6
CONTINUOUS
 62
     2
100
AcDbLine
 10
798.453462
 20
90.405102
 30
0.0
 11
799.233462
 21
90.405102
 31
0.0
  0
LINE
  5
678
330
671
100
AcDbEntity
  8
GR1-1
  6
CONTINUOUS
 62
     2
100
AcDbLine
 10
795.893462
 20
90.405102
 30
0.0
 11
795.113462
 21
90.405102
 31
0.0
  0
TEXT
  5
679
330
671
100
AcDbEntity
  8
GR1-1
  6
CONTINUOUS
 62
     4
100
AcDbText
 10
794.3325
 20
90.870176
 30
0.0
 40
1.5
  1
50
 41
0.7
  7
FX_VECTOR
 72
     5
 11
796.4325
 21
90.870176
 31
0.0
100
AcDbText
  0
LINE
  5
67A
330
671
100
AcDbEntity
  8
GR1-1
  6
CONTINUOUS
 62
     2
100
AcDbLine
 10
798.453462
 20
90.535102
 30
0.0
 11
798.453462
 21
90.275102
 31
0.0
  0
LINE
  5
67B
330
671
100
AcDbEntity
  8
GR1-1
  6
CONTINUOUS
 62
     2
100
AcDbLine
 10
798.453462
 20
90.275102
 30
0.0
 11
797.673462
 21
90.405102
 31
0.0
  0
LINE
  5
67C
330
671
100
AcDbEntity
  8
GR1-1
  6
CONTINUOUS
 62
     2
100
AcDbLine
 10
797.673462
 20
90.405102
 30
0.0
 11
798.453462
 21
90.535102
 31
0.0
  0
LINE
  5
67D
330
671
100
AcDbEntity
  8
GR1-1
  6
CONTINUOUS
 62
     2
100
AcDbLine
 10
795.893462
 20
90.535102
 30
0.0
 11
795.893462
 21
90.275102
 31
0.0
  0
LINE
  5
67E
330
671
100
AcDbEntity
  8
GR1-1
  6
CONTINUOUS
 62
     2
100
AcDbLine
 10
795.893462
 20
90.275102
 30
0.0
 11
796.673462
 21
90.405102
 31
0.0
  0
LINE
  5
67F
330
671
100
AcDbEntity
  8
GR1-1
  6
CONTINUOUS
 62
     2
100
AcDbLine
 10
796.673462
 20
90.405102
 30
0.0
 11
795.893462
 21
90.535102
 31
0.0
  0
ENDBLK
  5
673
330
671
100
AcDbEntity
  8
0
100
AcDbBlockEnd
  0
BLOCK
  5
684
330
683
100
AcDbEntity
  8
0
100
AcDbBlockBegin
  2
BLKF105
 70
     0
 71
     0
 10
0.0
 20
0.0
 30
0.0
  3
BLKF105
  1

  0
LINE
  5
687
330
683
100
AcDbEntity
  8
GR1-1
  6
CONTINUOUS
 62
     2
100
AcDbLine
 10
734.879509
 20
144.954739
 30
0.0
 11
747.019509
 21
144.954739
 31
0.0
  0
LINE
  5
688
330
683
100
AcDbEntity
  8
GR1-1
  6
CONTINUOUS
 62
     2
100
AcDbLine
 10
747.019509
 20
144.954739
 30
0.0
 11
747.019509
 21
131.018418
 31
0.0
  0
LINE
  5
689
330
683
100
AcDbEntity
  8
GR1-1
  6
CONTINUOUS
 62
     2
100
AcDbLine
 10
747.019509
 20
131.018418
 30
0.0
 11
734.879509
 21
131.018418
 31
0.0
  0
LINE
  5
68A
330
683
100
AcDbEntity
  8
GR1-1
  6
CONTINUOUS
 62
     2
100
AcDbLine
 10
734.879509
 20
131.018418
 30
0.0
 11
734.879509
 21
144.954739
 31
0.0
  0
ENDBLK
  5
685
330
683
100
AcDbEntity
  8
0
100
AcDbBlockEnd
  0
BLOCK
  5
6C4
330
6C3
100
AcDbEntity
  8
0
100
AcDbBlockBegin
  2
BLKF106
 70
     0
 71
     0
 10
0.0
 20
0.0
 30
0.0
  3
BLKF106
  1

  0
LINE
  5
6C7
330
6C3
100
AcDbEntity
  8
GR1-1
  6
CONTINUOUS
 62
     2
100
AcDbLine
 10
810.038781
 20
130.816312
 30
0.0
 11
811.161012
 21
125.631463
 31
0.0
  0
INSERT
  5
6C8
330
6C3
100
AcDbEntity
  8
GR1-1
  6
CONTINUOUS
 62
     2
100
AcDbBlockReference
  2
FXTIP_ARROW_S
 10
810.038781
 20
130.816312
 30
0.0
 41
2.0
 42
2.0
 50
102.212955
  0
LINE
  5
6C9
330
6C3
100
AcDbEntity
  8
GR1-1
  6
CONTINUOUS
 62
     2
100
AcDbLine
 10
811.161012
 20
125.631463
 30
0.0
 11
813.711012
 21
125.631463
 31
0.0
  0
TEXT
  5
6CA
330
6C3
100
AcDbEntity
  8
GR1-1
  6
CONTINUOUS
 62
     4
100
AcDbText
 10
812.541016
 20
126.231465
 30
0.0
 40
1.5
  1
9C
 41
0.7
  7
FX_VECTOR
 72
     5
 11
814.641016
 21
126.231465
 31
0.0
100
AcDbText
  0
ENDBLK
  5
6C5
330
6C3
100
AcDbEntity
  8
0
100
AcDbBlockEnd
  0
BLOCK
  5
6DD
330
6DC
100
AcDbEntity
  8
0
100
AcDbBlockBegin
  2
BLKF107
 70
     0
 71
     0
 10
0.0
 20
0.0
 30
0.0
  3
BLKF107
  1

  0
LINE
  5
6E0
330
6DC
100
AcDbEntity
  8
GR1-1
  6
CONTINUOUS
 62
     2
100
AcDbLine
 10
807.995035
 20
140.78579
 30
0.0
 11
806.500965
 21
137.72489
 31
0.0
  0
INSERT
  5
6E1
330
6DC
100
AcDbEntity
  8
GR1-1
  6
CONTINUOUS
 62
     2
100
AcDbBlockReference
  2
FXTIP_ARROW_S
 10
807.995035
 20
140.78579
 30
0.0
 41
2.0
 42
2.0
 50
63.982318
  0
LINE
  5
6E2
330
6DC
100
AcDbEntity
  8
GR1-1
  6
CONTINUOUS
 62
     2
100
AcDbLine
 10
806.500965
 20
137.72489
 30
0.0
 11
802.950965
 21
137.72489
 31
0.0
  0
TEXT
  5
6E3
330
6DC
100
AcDbEntity
  8
GR1-1
  6
CONTINUOUS
 62
     4
100
AcDbText
 10
801.971016
 20
138.324883
 30
0.0
 40
1.5
  1
R30
 41
0.7
  7
FX_VECTOR
 72
     5
 11
805.121016
 21
138.324883
 31
0.0
100
AcDbText
  0
ENDBLK
  5
6DE
330
6DC
100
AcDbEntity
  8
0
100
AcDbBlockEnd
  0
BLOCK
  5
6E7
330
6E6
100
AcDbEntity
  8
0
100
AcDbBlockBegin
  2
BLKF108
 70
     0
 71
     0
 10
0.0
 20
0.0
 30
0.0
  3
BLKF108
  1

  0
LINE
  5
6EA
330
6E6
100
AcDbEntity
  8
GR1-1
  6
CONTINUOUS
 62
     2
100
AcDbLine
 10
817.194199
 20
145.127147
 30
0.0
 11
819.079889
 21
147.862678
 31
0.0
  0
INSERT
  5
6EB
330
6E6
100
AcDbEntity
  8
GR1-1
  6
CONTINUOUS
 62
     2
100
AcDbBlockReference
  2
FXTIP_ARROW_S
 10
817.194199
 20
145.127147
 30
0.0
 41
2.0
 42
2.0
 50
235.420243
  0
LINE
  5
6EC
330
6E6
100
AcDbEntity
  8
GR1-1
  6
CONTINUOUS
 62
     2
100
AcDbLine
 10
819.079889
 20
147.862678
 30
0.0
 11
821.629889
 21
147.862678
 31
0.0
  0
TEXT
  5
6ED
330
6E6
100
AcDbEntity
  8
GR1-1
  6
CONTINUOUS
 62
     4
100
AcDbText
 10
820.459922
 20
148.462676
 30
0.0
 40
1.5
  1
9C
 41
0.7
  7
FX_VECTOR
 72
     5
 11
822.559922
 21
148.462676
 31
0.0
100
AcDbText
  0
ENDBLK
  5
6E8
330
6E6
100
AcDbEntity
  8
0
100
AcDbBlockEnd
  0
BLOCK
  5
6F0
330
6EF
100
AcDbEntity
  8
0
100
AcDbBlockBegin
  2
BLKF109
 70
     0
 71
     0
 10
0.0
 20
0.0
 30
0.0
  3
BLKF109
  1

  0
LINE
  5
6F3
330
6EF
100
AcDbEntity
  8
GR1-1
  6
CONTINUOUS
 62
     2
100
AcDbLine
 10
741.500773
 20
185.243784
 30
0.0
 11
750.458405
 21
182.475977
 31
0.0
  0
INSERT
  5
6F4
330
6EF
100
AcDbEntity
  8
GR1-1
  6
CONTINUOUS
 62
     2
100
AcDbBlockReference
  2
FXTIP_BLACKTRIANGLE_S
 10
741.500773
 20
185.243784
 30
0.0
 41
2.0
 42
2.0
 50
162.82944
  0
LINE
  5
6F5
330
6EF
100
AcDbEntity
  8
GR1-1
  6
CONTINUOUS
 62
     2
100
AcDbLine
 10
750.458405
 20
182.475977
 30
0.0
 11
751.238405
 21
182.475977
 31
0.0
  0
TEXT
  5
6F6
330
6EF
100
AcDbEntity
  8
GR1-1
  6
CONTINUOUS
 62
     4
100
AcDbText
 10
750.5125
 20
183.155918
 30
0.0
 40
1.5
  1
吊上げ用特殊インサート
 41
0.7
  7
FX_VECTOR
 72
     5
 11
762.0625
 21
183.155918
 31
0.0
100
AcDbText
  0
ENDBLK
  5
6F1
330
6EF
100
AcDbEntity
  8
0
100
AcDbBlockEnd
  0
ENDSEC
  0
SECTION
  2
ENTITIES
  0
LINE
  5
A7
330
1F
100
AcDbEntity
  8
GR1-1
  6
極太の実線
 62
     3
100
AcDbLine
 10
915.845963
 20
234.360363
 30
0.0
 11
638.845974
 21
234.360363
 31
0.0
  0
LINE
  5
A8
330
1F
100
AcDbEntity
  8
GR1-1
  6
極太の実線
 62
     3
100
AcDbLine
 10
638.845974
 20
234.360363
 30
0.0
 11
638.845958
 21
44.360363
 31
0.0
  0
LINE
  5
A9
330
1F
100
AcDbEntity
  8
GR1-1
  6
極太の実線
 62
     3
100
AcDbLine
 10
638.845958
 20
44.360363
 30
0.0
 11
915.845958
 21
44.360363
 31
0.0
  0
LINE
  5
AA
330
1F
100
AcDbEntity
  8
GR1-1
  6
極太の実線
 62
     3
100
AcDbLine
 10
915.845958
 20
44.360363
 30
0.0
 11
915.845963
 21
234.360363
 31
0.0
  0
LINE
  5
AB
330
1F
100
AcDbEntity
  8
GR1-1
  6
極太の実線
 62
     3
100
AcDbLine
 10
914.845963
 20
233.360363
 30
0.0
 11
639.845974
 21
233.360363
 31
0.0
  0
LINE
  5
AC
330
1F
100
AcDbEntity
  8
GR1-1
  6
極太の実線
 62
     3
100
AcDbLine
 10
639.845974
 20
233.360363
 30
0.0
 11
639.845958
 21
45.360363
 31
0.0
  0
LINE
  5
AD
330
1F
100
AcDbEntity
  8
GR1-1
  6
極太の実線
 62
     3
100
AcDbLine
 10
639.845958
 20
45.360363
 30
0.0
 11
914.845958
 21
45.360363
 31
0.0
  0
LINE
  5
AE
330
1F
100
AcDbEntity
  8
GR1-1
  6
極太の実線
 62
     3
100
AcDbLine
 10
914.845958
 20
45.360363
 30
0.0
 11
914.845963
 21
233.360363
 31
0.0
  0
LINE
  5
B0
330
1F
100
AcDbEntity
  8
GR1-1
  6
太い実線
 62
     4
100
AcDbLine
 10
836.793212
 20
66.861168
 30
0.0
 11
911.793237
 21
66.861168
 31
0.0
  0
LINE
  5
B1
330
1F
100
AcDbEntity
  8
GR1-1
  6
太い実線
 62
     4
100
AcDbLine
 10
911.793237
 20
60.861168
 30
0.0
 11
836.793212
 21
60.861168
 31
0.0
  0
LINE
  5
B2
330
1F
100
AcDbEntity
  8
GR1-1
  6
太い実線
 62
     4
100
AcDbLine
 10
836.793212
 20
54.861172
 30
0.0
 11
911.793237
 21
54.861172
 31
0.0
  0
LINE
  5
B3
330
1F
100
AcDbEntity
  8
GR1-1
  6
太い実線
 62
     4
100
AcDbLine
 10
836.793212
 20
48.86117
 30
0.0
 11
836.793212
 21
66.861168
 31
0.0
  0
LINE
  5
B4
330
1F
100
AcDbEntity
  8
GR1-1
  6
太い実線
 62
     4
100
AcDbLine
 10
851.793212
 20
66.861168
 30
0.0
 11
851.793212
 21
54.861172
 31
0.0
  0
LINE
  5
B5
330
1F
100
AcDbEntity
  8
GR1-1
  6
太い実線
 62
     4
100
AcDbLine
 10
874.293224
 20
54.861172
 30
0.0
 11
874.293224
 21
60.861168
 31
0.0
  0
TEXT
  5
B7
330
1F
100
AcDbEntity
  8
GR1-1
  6
細い実線
 62
     7
100
AcDbText
 10
841.743281
 20
61.932607
 30
0.0
 40
3.5
  1
図名
 41
0.728571
  7
STYLE1
 72
     5
 11
846.843281
 21
61.932607
 31
0.0
100
AcDbText
  0
TEXT
  5
B8
330
1F
100
AcDbEntity
  8
GR1-1
  6
細い実線
 62
     7
100
AcDbText
 10
841.743281
 20
55.90106
 30
0.0
 40
3.5
  1
尺度
 41
0.728571
  7
STYLE1
 72
     5
 11
846.843281
 21
55.90106
 31
0.0
100
AcDbText
  0
TEXT
  5
B9
330
1F
100
AcDbEntity
  8
GR1-1
  6
細い実線
 62
     7
100
AcDbText
 10
876.443281
 20
55.90106
 30
0.0
 40
3.5
  1
参考重量
 41
0.764286
  7
STYLE1
 72
     5
 11
887.143281
 21
55.90106
 31
0.0
100
AcDbText
  0
TEXT
  5
BA
330
1F
100
AcDbEntity
  8
GR1-1
  6
細い実線
 62
     7
100
AcDbText
 10
854.943281
 20
49.869507
 30
0.0
 40
3.5
  1
小倉セメント製品工業株式会社
 41
0.789796
  7
STYLE1
 72
     5
 11
893.643281
 21
49.869507
 31
0.0
100
AcDbText
  0
LINE
  5
BB
330
1F
100
AcDbEntity
  8
GR1-1
  6
太い実線
 62
     4
100
AcDbLine
 10
889.293273
 20
60.861168
 30
0.0
 11
889.293273
 21
54.861172
 31
0.0
  0
TEXT
  5
BC
330
1F
100
AcDbEntity
  8
GR1-1
  6
細い実線
 62
     7
100
AcDbText
 10
858.443281
 20
56.064072
 30
0.0
 40
3.5
  1
1/50
 41
0.657143
  7
STYLE1
 72
     5
 11
867.643281
 21
56.064072
 31
0.0
100
AcDbText
  0
TEXT
  5
BD
330
1F
100
AcDbEntity
  8
GR1-1
  6
細い実線
 62
     7
100
AcDbText
 10
892.451875
 20
55.90106
 30
0.0
 40
3.5
  1
368　ｋｇ
 41
0.657143
  7
STYLE1
 72
     5
 11
906.251875
 21
55.90106
 31
0.0
100
AcDbText
  0
TEXT
  5
BE
330
1F
100
AcDbEntity
  8
GR1-1
  6
細い実線
 62
     7
100
AcDbText
 10
860.225312
 20
61.858872
 30
0.0
 40
3.5
  1
KP大型ブロック　1000B　（高擁壁用）
 41
0.657143
  7
STYLE1
 72
     5
 11
908.525312
 21
61.858872
 31
0.0
100
AcDbText
  0
LINE
  5
BF
330
1F
100
AcDbEntity
  8
GR1-1
  6
太い実線
 62
     4
100
AcDbLine
 10
911.793237
 20
66.861168
 30
0.0
 11
911.793237
 21
48.86117
 31
0.0
  0
LINE
  5
C0
330
1F
100
AcDbEntity
  8
GR1-1
  6
太い実線
 62
     4
100
AcDbLine
 10
836.793212
 20
48.86117
 30
0.0
 11
911.793237
 21
48.86117
 31
0.0
  0
LINE
  5
C1
330
1F
100
AcDbEntity
  8
GR1-1
  6
細い実線
 62
     4
100
AcDbLine
 10
687.809131
 20
212.320298
 30
0.0
 11
686.05119
 21
212.320298
 31
0.0
  0
LINE
  5
C2
330
1F
100
AcDbEntity
  8
GR1-1
  6
細い実線
 62
     4
100
AcDbLine
 10
683.05119
 20
212.320298
 30
0.0
 11
680.899414
 21
212.320298
 31
0.0
  0
LINE
  5
C3
330
1F
100
AcDbEntity
  8
GR1-1
  6
細い実線
 62
     4
100
AcDbLine
 10
685.75119
 20
213.040298
 30
0.0
 11
686.05119
 21
212.320298
 31
0.0
  0
LINE
  5
C4
330
1F
100
AcDbEntity
  8
GR1-1
  6
細い実線
 62
     4
100
AcDbLine
 10
683.05119
 20
212.320298
 30
0.0
 11
683.35119
 21
213.040298
 31
0.0
  0
LINE
  5
C5
330
1F
100
AcDbEntity
  8
GR1-1
  6
細い実線
 62
     4
100
AcDbLine
 10
683.35119
 20
213.040298
 30
0.0
 11
685.75119
 21
213.040298
 31
0.0
  0
TEXT
  5
C6
330
1F
100
AcDbEntity
  8
GR1-1
  6
細い実線
 62
     4
100
AcDbText
 10
681.133281
 20
218.365313
 30
0.0
 40
2.0
  1
 バール挿入孔詳細 
 41
0.812
  7
FX_VECTOR
 72
     5
 11
697.373281
 21
218.365313
 31
0.0
100
AcDbText
  0
LINE
  5
C7
330
1F
100
AcDbEntity
  8
GR1-1
  6
細い実線
 62
     4
100
AcDbLine
 10
681.133298
 20
218.16532
 30
0.0
 11
697.373298
 21
218.16532
 31
0.0
  0
LINE
  5
C8
330
1F
100
AcDbEntity
  8
GR1-1
  6
細い実線
 62
     4
100
AcDbLine
 10
693.501493
 20
213.040298
 30
0.0
 11
695.901493
 21
213.040298
 31
0.0
  0
LINE
  5
C9
330
1F
100
AcDbEntity
  8
GR1-1
  6
細い実線
 62
     4
100
AcDbLine
 10
693.201493
 20
212.320298
 30
0.0
 11
693.501493
 21
213.040298
 31
0.0
  0
LINE
  5
CA
330
1F
100
AcDbEntity
  8
GR1-1
  6
細い実線
 62
     4
100
AcDbLine
 10
695.901493
 20
213.040298
 30
0.0
 11
695.901493
 21
215.563275
 31
0.0
  0
LINE
  5
CB
330
1F
100
AcDbEntity
  8
GR1-1
  6
細い実線
 62
     4
100
AcDbLine
 10
693.201493
 20
212.320298
 30
0.0
 11
691.443552
 21
212.320298
 31
0.0
  0
LINE
  5
CD
330
1F
100
AcDbEntity
  8
GR1-1
  6
020-1-CENTER2
 62
     2
100
AcDbLine
 10
697.967263
 20
186.775751
 30
0.0
 11
697.967263
 21
175.813266
 31
0.0
  0
LINE
  5
CE
330
1F
100
AcDbEntity
  8
GR1-1
  6
細い実線
 62
     4
100
AcDbLine
 10
698.342263
 20
185.818822
 30
0.0
 11
698.867263
 21
182.818822
 31
0.0
  0
LINE
  5
CF
330
1F
100
AcDbEntity
  8
GR1-1
  6
細い実線
 62
     4
100
AcDbLine
 10
697.067263
 20
182.818822
 30
0.0
 11
697.592263
 21
185.818822
 31
0.0
  0
LINE
  5
D0
330
1F
100
AcDbEntity
  8
GR1-1
  6
細い実線
 62
     4
100
AcDbLine
 10
697.592263
 20
185.818822
 30
0.0
 11
698.342263
 21
185.818822
 31
0.0
  0
LINE
  5
D1
330
1F
100
AcDbEntity
  8
GR1-1
  6
細い実線
 62
     4
100
AcDbLine
 10
698.867263
 20
182.818822
 30
0.0
 11
699.756589
 21
182.818822
 31
0.0
  0
LINE
  5
D2
330
1F
100
AcDbEntity
  8
GR1-1
  6
細い実線
 62
     4
100
AcDbLine
 10
697.067263
 20
182.818822
 30
0.0
 11
696.177937
 21
182.818822
 31
0.0
  0
LINE
  5
D3
330
1F
100
AcDbEntity
  8
GR1-1
  6
020-1-CENTER2
 62
     2
100
AcDbLine
 10
680.763387
 20
177.94933
 30
0.0
 11
680.763387
 21
186.574601
 31
0.0
  0
LINE
  5
D4
330
1F
100
AcDbEntity
  8
GR1-1
  6
細い実線
 62
     4
100
AcDbLine
 10
681.663387
 20
182.603677
 30
0.0
 11
681.138387
 21
179.603677
 31
0.0
  0
LINE
  5
D5
330
1F
100
AcDbEntity
  8
GR1-1
  6
細い実線
 62
     4
100
AcDbLine
 10
680.388387
 20
179.603677
 30
0.0
 11
679.863387
 21
182.603677
 31
0.0
  0
LINE
  5
D6
330
1F
100
AcDbEntity
  8
GR1-1
  6
細い実線
 62
     4
100
AcDbLine
 10
681.138387
 20
179.603677
 30
0.0
 11
680.388387
 21
179.603677
 31
0.0
  0
LINE
  5
D7
330
1F
100
AcDbEntity
  8
GR1-1
  6
細い実線
 62
     4
100
AcDbLine
 10
679.863387
 20
182.603677
 30
0.0
 11
678.974061
 21
182.603677
 31
0.0
  0
LINE
  5
D8
330
1F
100
AcDbEntity
  8
GR1-1
  6
細い実線
 62
     4
100
AcDbLine
 10
681.663387
 20
182.603677
 30
0.0
 11
682.552713
 21
182.603677
 31
0.0
  0
LINE
  5
D9
330
1F
100
AcDbEntity
  8
GR1-1
  6
020-1-CENTER2
 62
     2
100
AcDbLine
 10
679.613078
 20
185.424292
 30
0.0
 11
681.913696
 21
185.424292
 31
0.0
  0
CIRCLE
  5
DA
330
1F
100
AcDbEntity
  8
GR1-1
  6
細い実線
 62
     4
100
AcDbCircle
 10
680.763387
 20
185.424292
 30
0.0
 40
0.9
  0
CIRCLE
  5
DB
330
1F
100
AcDbEntity
  8
GR1-1
  6
細い実線
 62
     4
100
AcDbCircle
 10
680.763387
 20
185.424292
 30
0.0
 40
0.375
  0
INSERT
  5
DF
330
1F
100
AcDbEntity
  8
0
100
AcDbBlockReference
  2
BLKF021
 10
0.0
 20
0.0
 30
0.0
  0
INSERT
  5
EE
330
1F
100
AcDbEntity
  8
0
100
AcDbBlockReference
  2
BLKF022
 10
0.0
 20
0.0
 30
0.0
  0
TEXT
  5
FA
330
1F
100
AcDbEntity
  8
GR1-1
  6
細い実線
 62
     4
100
AcDbText
 10
681.300547
 20
197.866719
 30
0.0
 40
2.0
  1
 ガイドピン孔詳細 
 41
0.812
  7
FX_VECTOR
 72
     5
 11
697.540546
 21
197.866719
 31
0.0
100
AcDbText
  0
LINE
  5
FB
330
1F
100
AcDbEntity
  8
GR1-1
  6
細い実線
 62
     4
100
AcDbLine
 10
681.300599
 20
197.666711
 30
0.0
 11
697.540599
 21
197.666711
 31
0.0
  0
TEXT
  5
FC
330
1F
100
AcDbEntity
  8
GR1-1
  6
細い実線
 62
     4
100
AcDbText
 10
679.612188
 20
193.656523
 30
0.0
 40
1.4
  1
上部
 41
0.84
  7
FX_VECTOR
 72
     5
 11
681.964187
 21
193.656523
 31
0.0
100
AcDbText
  0
LINE
  5
FD
330
1F
100
AcDbEntity
  8
GR1-1
  6
細い実線
 62
     4
100
AcDbLine
 10
679.612239
 20
193.516531
 30
0.0
 11
681.964239
 21
193.516531
 31
0.0
  0
INSERT
  5
101
330
1F
100
AcDbEntity
  8
0
100
AcDbBlockReference
  2
BLKF023
 10
0.0
 20
0.0
 30
0.0
  0
INSERT
  5
110
330
1F
100
AcDbEntity
  8
0
100
AcDbBlockReference
  2
BLKF024
 10
0.0
 20
0.0
 30
0.0
  0
INSERT
  5
118
330
1F
100
AcDbEntity
  8
0
100
AcDbBlockReference
  2
BLKF025
 10
0.0
 20
0.0
 30
0.0
  0
LINE
  5
11D
330
1F
100
AcDbEntity
  8
GR1-1
  6
細い実線
 62
     4
100
AcDbLine
 10
697.067263
 20
181.261561
 30
0.0
 11
697.592263
 21
180.661561
 31
0.0
  0
LINE
  5
11E
330
1F
100
AcDbEntity
  8
GR1-1
  6
細い実線
 62
     4
100
AcDbLine
 10
698.342263
 20
180.661561
 30
0.0
 11
698.867263
 21
181.261561
 31
0.0
  0
LINE
  5
11F
330
1F
100
AcDbEntity
  8
GR1-1
  6
細い実線
 62
     4
100
AcDbLine
 10
698.342263
 20
178.561561
 30
0.0
 11
698.867263
 21
177.961561
 31
0.0
  0
LINE
  5
120
330
1F
100
AcDbEntity
  8
GR1-1
  6
細い実線
 62
     4
100
AcDbLine
 10
697.592263
 20
178.561561
 30
0.0
 11
697.067263
 21
177.961561
 31
0.0
  0
INSERT
  5
124
330
1F
100
AcDbEntity
  8
0
100
AcDbBlockReference
  2
BLKF026
 10
0.0
 20
0.0
 30
0.0
  0
INSERT
  5
133
330
1F
100
AcDbEntity
  8
0
100
AcDbBlockReference
  2
BLKF027
 10
0.0
 20
0.0
 30
0.0
  0
INSERT
  5
142
330
1F
100
AcDbEntity
  8
0
100
AcDbBlockReference
  2
BLKF028
 10
0.0
 20
0.0
 30
0.0
  0
INSERT
  5
151
330
1F
100
AcDbEntity
  8
0
100
AcDbBlockReference
  2
BLKF029
 10
0.0
 20
0.0
 30
0.0
  0
INSERT
  5
160
330
1F
100
AcDbEntity
  8
0
100
AcDbBlockReference
  2
BLKF030
 10
0.0
 20
0.0
 30
0.0
  0
INSERT
  5
16F
330
1F
100
AcDbEntity
  8
0
100
AcDbBlockReference
  2
BLKF031
 10
0.0
 20
0.0
 30
0.0
  0
INSERT
  5
17E
330
1F
100
AcDbEntity
  8
0
100
AcDbBlockReference
  2
BLKF032
 10
0.0
 20
0.0
 30
0.0
  0
INSERT
  5
18D
330
1F
100
AcDbEntity
  8
0
100
AcDbBlockReference
  2
BLKF033
 10
0.0
 20
0.0
 30
0.0
  0
INSERT
  5
19B
330
1F
100
AcDbEntity
  8
0
100
AcDbBlockReference
  2
BLKF034
 10
0.0
 20
0.0
 30
0.0
  0
TEXT
  5
1A6
330
1F
100
AcDbEntity
  8
GR1-1
  6
細い実線
 62
     4
100
AcDbText
 10
696.797734
 20
193.597578
 30
0.0
 40
1.4
  1
下部
 41
0.84
  7
FX_VECTOR
 72
     5
 11
699.149734
 21
193.597578
 31
0.0
100
AcDbText
  0
LINE
  5
1A7
330
1F
100
AcDbEntity
  8
GR1-1
  6
細い実線
 62
     4
100
AcDbLine
 10
696.797727
 20
193.457578
 30
0.0
 11
699.149727
 21
193.457578
 31
0.0
  0
INSERT
  5
1AB
330
1F
100
AcDbEntity
  8
0
100
AcDbBlockReference
  2
BLKF035
 10
0.0
 20
0.0
 30
0.0
  0
INSERT
  5
1B9
330
1F
100
AcDbEntity
  8
0
100
AcDbBlockReference
  2
BLKF036
 10
0.0
 20
0.0
 30
0.0
  0
INSERT
  5
1C8
330
1F
100
AcDbEntity
  8
0
100
AcDbBlockReference
  2
BLKF037
 10
0.0
 20
0.0
 30
0.0
  0
INSERT
  5
1D7
330
1F
100
AcDbEntity
  8
0
100
AcDbBlockReference
  2
BLKF038
 10
0.0
 20
0.0
 30
0.0
  0
INSERT
  5
1E6
330
1F
100
AcDbEntity
  8
0
100
AcDbBlockReference
  2
BLKF039
 10
0.0
 20
0.0
 30
0.0
  0
INSERT
  5
1F5
330
1F
100
AcDbEntity
  8
0
100
AcDbBlockReference
  2
BLKF040
 10
0.0
 20
0.0
 30
0.0
  0
INSERT
  5
204
330
1F
100
AcDbEntity
  8
0
100
AcDbBlockReference
  2
BLKF041
 10
0.0
 20
0.0
 30
0.0
  0
INSERT
  5
213
330
1F
100
AcDbEntity
  8
0
100
AcDbBlockReference
  2
BLKF042
 10
0.0
 20
0.0
 30
0.0
  0
INSERT
  5
221
330
1F
100
AcDbEntity
  8
0
100
AcDbBlockReference
  2
BLKF043
 10
0.0
 20
0.0
 30
0.0
  0
TEXT
  5
22D
330
1F
100
AcDbEntity
  8
GR1-1
  6
細い実線
 62
     4
100
AcDbText
 10
697.57875
 20
218.732715
 30
0.0
 40
1.4
  1
(S=1/10)
 41
0.566125
  7
FX_VECTOR
 72
     5
 11
703.91935
 21
218.732715
 31
0.0
100
AcDbText
  0
TEXT
  5
22E
330
1F
100
AcDbEntity
  8
GR1-1
  6
細い実線
 62
     4
100
AcDbText
 10
697.769297
 20
198.234102
 30
0.0
 40
1.4
  1
(S=1/10)
 41
0.566125
  7
FX_VECTOR
 72
     5
 11
704.109897
 21
198.234102
 31
0.0
100
AcDbText
  0
LINE
  5
22F
330
1F
100
AcDbEntity
  8
GR1-1
  6
CONTINUOUS
 62
     4
100
AcDbLine
 10
747.149509
 20
203.572472
 30
0.0
 11
747.149509
 21
194.963609
 31
0.0
  0
LINE
  5
230
330
1F
100
AcDbEntity
  8
GR1-1
  6
CONTINUOUS
 62
     4
100
AcDbLine
 10
734.749509
 20
203.572472
 30
0.0
 11
734.749509
 21
194.963609
 31
0.0
  0
LINE
  5
231
330
1F
100
AcDbEntity
  8
GR1-1
  6
CONTINUOUS
 62
     4
100
AcDbLine
 10
734.699509
 20
174.056034
 30
0.0
 11
747.199509
 21
174.056034
 31
0.0
  0
LINE
  5
232
330
1F
100
AcDbEntity
  8
GR1-1
  6
CONTINUOUS
 62
     4
100
AcDbLine
 10
734.699509
 20
181.211451
 30
0.0
 11
747.199509
 21
181.211451
 31
0.0
  0
LINE
  5
233
330
1F
100
AcDbEntity
  8
GR1-1
  6
CONTINUOUS
 62
     4
100
AcDbLine
 10
787.677761
 20
130.816312
 30
0.0
 11
788.907599
 21
133.275987
 31
0.0
  0
LINE
  5
234
330
1F
100
AcDbEntity
  8
GR1-1
  6
CONTINUOUS
 62
     4
100
AcDbLine
 10
810.038781
 20
130.816312
 30
0.0
 11
817.194199
 21
145.127147
 31
0.0
  0
LINE
  5
235
330
1F
100
AcDbEntity
  8
GR1-1
  6
CONTINUOUS
 62
     4
100
AcDbLine
 10
734.749509
 20
203.572472
 30
0.0
 11
747.149509
 21
203.572472
 31
0.0
  0
LINE
  5
236
330
1F
100
AcDbEntity
  8
GR1-1
  6
CONTINUOUS
 62
     4
100
AcDbLine
 10
808.585337
 20
130.816312
 30
0.0
 11
810.351831
 21
134.3493
 31
0.0
  0
LINE
  5
237
330
1F
100
AcDbEntity
  8
GR1-1
  6
CONTINUOUS
 62
     4
100
AcDbLine
 10
789.131206
 20
130.816312
 30
0.0
 11
790.070354
 21
132.694609
 31
0.0
  0
LINE
  5
238
330
1F
100
AcDbEntity
  8
GR1-1
  6
CONTINUOUS
 62
     4
100
AcDbLine
 10
790.24924
 20
130.816312
 30
0.0
 11
797.404657
 21
145.127147
 31
0.0
  0
LINE
  5
239
330
1F
100
AcDbEntity
  8
GR1-1
  6
CONTINUOUS
 62
     4
100
AcDbLine
 10
790.696453
 20
130.816312
 30
0.0
 11
797.851871
 21
145.127147
 31
0.0
  0
LINE
  5
23A
330
1F
100
AcDbEntity
  8
GR1-1
  6
CONTINUOUS
 62
     4
100
AcDbLine
 10
807.467303
 20
130.816312
 30
0.0
 11
814.62272
 21
145.127147
 31
0.0
  0
LINE
  5
23B
330
1F
100
AcDbEntity
  8
GR1-1
  6
CONTINUOUS
 62
     4
100
AcDbLine
 10
807.020089
 20
130.816312
 30
0.0
 11
814.175507
 21
145.127147
 31
0.0
  0
LINE
  5
23C
330
1F
100
AcDbEntity
  8
GR1-1
  6
CONTINUOUS
 62
     4
100
AcDbLine
 10
794.833179
 20
145.127147
 30
0.0
 11
817.194199
 21
145.127147
 31
0.0
  0
LINE
  5
23D
330
1F
100
AcDbEntity
  8
GR1-1
  6
CONTINUOUS
 62
     4
100
AcDbLine
 10
787.677761
 20
130.816312
 30
0.0
 11
810.038781
 21
130.816312
 31
0.0
  0
LINE
  5
23E
330
1F
100
AcDbEntity
  8
GR1-1
  6
CONTINUOUS
 62
     4
100
AcDbLine
 10
790.428125
 20
136.317039
 30
0.0
 11
794.833179
 21
145.127147
 31
0.0
  0
LINE
  5
23F
330
1F
100
AcDbEntity
  8
GR1-1
  6
CONTINUOUS
 62
     8
100
AcDbLine
 10
792.757367
 20
140.968764
 30
0.0
 11
792.309791
 21
141.248354
 31
0.0
  0
LINE
  5
240
330
1F
100
AcDbEntity
  8
GR1-1
  6
CONTINUOUS
 62
     8
100
AcDbLine
 10
792.19435
 20
141.201181
 30
0.0
 11
792.482148
 21
141.016628
 31
0.0
  0
LINE
  5
241
330
1F
100
AcDbEntity
  8
GR1-1
  6
CONTINUOUS
 62
     8
100
AcDbLine
 10
788.159011
 20
133.279457
 30
0.0
 11
788.934517
 21
134.969229
 31
0.0
  0
LINE
  5
242
330
1F
100
AcDbEntity
  8
GR1-1
  6
CONTINUOUS
 62
     2
100
AcDbLine
 10
788.728713
 20
133.36543
 30
0.0
 11
790.070354
 21
132.694609
 31
0.0
  0
LINE
  5
243
330
1F
100
AcDbEntity
  8
GR1-1
  6
CONTINUOUS
 62
     8
100
AcDbLine
 10
787.898966
 20
132.876543
 30
0.0
 11
788.159011
 21
133.279457
 31
0.0
  0
LINE
  5
244
330
1F
100
AcDbEntity
  8
GR1-1
  6
CONTINUOUS
 62
     8
100
AcDbLine
 10
787.455864
 20
131.967211
 30
0.0
 11
787.783437
 21
132.492336
 31
0.0
  0
LINE
  5
245
330
1F
100
AcDbEntity
  8
GR1-1
  6
CONTINUOUS
 62
     8
100
AcDbLine
 10
787.440343
 20
131.611886
 30
0.0
 11
787.455864
 21
131.967211
 31
0.0
  0
LINE
  5
246
330
1F
100
AcDbEntity
  8
GR1-1
  6
CONTINUOUS
 62
     8
100
AcDbLine
 10
787.827634
 20
131.093957
 30
0.0
 11
787.440343
 21
131.611886
 31
0.0
  0
LINE
  5
247
330
1F
100
AcDbEntity
  8
GR1-1
  6
CONTINUOUS
 62
     8
100
AcDbLine
 10
787.783437
 20
132.492336
 30
0.0
 11
787.898966
 21
132.876543
 31
0.0
  0
LINE
  5
248
330
1F
100
AcDbEntity
  8
GR1-1
  6
CONTINUOUS
 62
     8
100
AcDbLine
 10
790.186841
 20
137.279099
 30
0.0
 11
790.92
 21
138.76392
 31
0.0
  0
LINE
  5
249
330
1F
100
AcDbEntity
  8
GR1-1
  6
CONTINUOUS
 62
     8
100
AcDbLine
 10
789.628517
 20
136.253416
 30
0.0
 11
790.072956
 21
136.624261
 31
0.0
  0
LINE
  5
24A
330
1F
100
AcDbEntity
  8
GR1-1
  6
CONTINUOUS
 62
     8
100
AcDbLine
 10
789.477629
 20
135.907443
 30
0.0
 11
789.320883
 21
135.590869
 31
0.0
  0
LINE
  5
24B
330
1F
100
AcDbEntity
  8
GR1-1
  6
CONTINUOUS
 62
     8
100
AcDbLine
 10
788.934517
 20
134.969229
 30
0.0
 11
789.477629
 21
135.907443
 31
0.0
  0
LINE
  5
24C
330
1F
100
AcDbEntity
  8
GR1-1
  6
CONTINUOUS
 62
     8
100
AcDbLine
 10
789.320883
 20
135.590869
 30
0.0
 11
789.628517
 21
136.253416
 31
0.0
  0
LINE
  5
24D
330
1F
100
AcDbEntity
  8
GR1-1
  6
CONTINUOUS
 62
     8
100
AcDbLine
 10
790.018583
 20
136.857787
 30
0.0
 11
790.186841
 21
137.279099
 31
0.0
  0
LINE
  5
24E
330
1F
100
AcDbEntity
  8
GR1-1
  6
CONTINUOUS
 62
     8
100
AcDbLine
 10
790.003782
 20
136.772682
 30
0.0
 11
790.018583
 21
136.857787
 31
0.0
  0
LINE
  5
24F
330
1F
100
AcDbEntity
  8
GR1-1
  6
CONTINUOUS
 62
     8
100
AcDbLine
 10
790.434345
 20
136.517571
 30
0.0
 11
790.003782
 21
136.772682
 31
0.0
  0
LINE
  5
250
330
1F
100
AcDbEntity
  8
GR1-1
  6
CONTINUOUS
 62
     8
100
AcDbLine
 10
790.072956
 20
136.624261
 30
0.0
 11
790.434345
 21
136.517571
 31
0.0
  0
LINE
  5
251
330
1F
100
AcDbEntity
  8
GR1-1
  6
CONTINUOUS
 62
     8
100
AcDbLine
 10
791.708882
 20
140.447704
 30
0.0
 11
792.022683
 21
141.029284
 31
0.0
  0
LINE
  5
252
330
1F
100
AcDbEntity
  8
GR1-1
  6
CONTINUOUS
 62
     8
100
AcDbLine
 10
790.92
 20
138.76392
 30
0.0
 11
791.229013
 21
139.527854
 31
0.0
  0
LINE
  5
253
330
1F
100
AcDbEntity
  8
GR1-1
  6
CONTINUOUS
 62
     8
100
AcDbLine
 10
791.439953
 20
139.925571
 30
0.0
 11
791.708882
 21
140.447704
 31
0.0
  0
LINE
  5
254
330
1F
100
AcDbEntity
  8
GR1-1
  6
CONTINUOUS
 62
     8
100
AcDbLine
 10
791.229013
 20
139.527854
 30
0.0
 11
791.439953
 21
139.925571
 31
0.0
  0
LINE
  5
255
330
1F
100
AcDbEntity
  8
GR1-1
  6
CONTINUOUS
 62
     8
100
AcDbLine
 10
792.022683
 20
141.029284
 30
0.0
 11
792.19435
 21
141.201181
 31
0.0
  0
LINE
  5
256
330
1F
100
AcDbEntity
  8
GR1-1
  6
CONTINUOUS
 62
     8
100
AcDbLine
 10
792.482148
 20
141.016628
 30
0.0
 11
792.723847
 21
140.974593
 31
0.0
  0
LINE
  5
257
330
1F
100
AcDbEntity
  8
GR1-1
  6
CONTINUOUS
 62
     8
100
AcDbLine
 10
792.239453
 20
141.460521
 30
0.0
 11
792.558777
 21
142.073857
 31
0.0
  0
LINE
  5
258
330
1F
100
AcDbEntity
  8
GR1-1
  6
CONTINUOUS
 62
     8
100
AcDbLine
 10
792.309791
 20
141.248354
 30
0.0
 11
792.239453
 21
141.460521
 31
0.0
  0
LINE
  5
259
330
1F
100
AcDbEntity
  8
GR1-1
  6
CONTINUOUS
 62
     8
100
AcDbLine
 10
793.620148
 20
144.299385
 30
0.0
 11
793.941544
 21
144.914178
 31
0.0
  0
LINE
  5
25A
330
1F
100
AcDbEntity
  8
GR1-1
  6
CONTINUOUS
 62
     8
100
AcDbLine
 10
793.421788
 20
143.764979
 30
0.0
 11
793.620148
 21
144.299385
 31
0.0
  0
LINE
  5
25B
330
1F
100
AcDbEntity
  8
GR1-1
  6
CONTINUOUS
 62
     8
100
AcDbLine
 10
792.85041
 20
142.726542
 30
0.0
 11
793.136214
 21
143.345708
 31
0.0
  0
LINE
  5
25C
330
1F
100
AcDbEntity
  8
GR1-1
  6
CONTINUOUS
 62
     8
100
AcDbLine
 10
792.558777
 20
142.073857
 30
0.0
 11
792.85041
 21
142.726542
 31
0.0
  0
LINE
  5
25D
330
1F
100
AcDbEntity
  8
GR1-1
  6
CONTINUOUS
 62
     8
100
AcDbLine
 10
793.136214
 20
143.345708
 30
0.0
 11
793.421788
 21
143.764979
 31
0.0
  0
LINE
  5
25E
330
1F
100
AcDbEntity
  8
GR1-1
  6
CONTINUOUS
 62
     8
100
AcDbLine
 10
794.319317
 20
145.048412
 30
0.0
 11
794.720793
 21
144.91134
 31
0.0
  0
LINE
  5
25F
330
1F
100
AcDbEntity
  8
GR1-1
  6
CONTINUOUS
 62
     8
100
AcDbLine
 10
794.066266
 20
145.02517
 30
0.0
 11
794.319317
 21
145.048412
 31
0.0
  0
LINE
  5
260
330
1F
100
AcDbEntity
  8
GR1-1
  6
CONTINUOUS
 62
     8
100
AcDbLine
 10
793.941544
 20
144.914178
 30
0.0
 11
794.066266
 21
145.02517
 31
0.0
  0
LINE
  5
261
330
1F
100
AcDbEntity
  8
GR1-1
  6
CONTINUOUS
 62
     4
100
AcDbLine
 10
791.59088
 20
135.735662
 30
0.0
 11
796.286623
 21
145.127147
 31
0.0
  0
TEXT
  5
262
330
1F
100
AcDbEntity
  8
GR1-1
  6
CONTINUOUS
 62
     4
100
AcDbText
 10
790.072891
 20
139.301484
 30
0.0
 40
1.5
  1
1:0.5
 50
63.0
 41
0.7
  7
FX_VECTOR
 72
     5
 11
792.456341
 21
143.979269
 31
0.0
100
AcDbText
  0
INSERT
  5
266
330
1F
100
AcDbEntity
  8
0
100
AcDbBlockReference
  2
BLKF044
 10
0.0
 20
0.0
 30
0.0
  0
INSERT
  5
275
330
1F
100
AcDbEntity
  8
0
100
AcDbBlockReference
  2
BLKF045
 10
0.0
 20
0.0
 30
0.0
  0
INSERT
  5
284
330
1F
100
AcDbEntity
  8
0
100
AcDbBlockReference
  2
BLKF046
 10
0.0
 20
0.0
 30
0.0
  0
INSERT
  5
293
330
1F
100
AcDbEntity
  8
0
100
AcDbBlockReference
  2
BLKF047
 10
0.0
 20
0.0
 30
0.0
  0
INSERT
  5
2A2
330
1F
100
AcDbEntity
  8
0
100
AcDbBlockReference
  2
BLKF048
 10
0.0
 20
0.0
 30
0.0
  0
INSERT
  5
2B1
330
1F
100
AcDbEntity
  8
0
100
AcDbBlockReference
  2
BLKF049
 10
0.0
 20
0.0
 30
0.0
  0
INSERT
  5
2C0
330
1F
100
AcDbEntity
  8
0
100
AcDbBlockReference
  2
BLKF050
 10
0.0
 20
0.0
 30
0.0
  0
INSERT
  5
2CE
330
1F
100
AcDbEntity
  8
0
100
AcDbBlockReference
  2
BLKF051
 10
0.0
 20
0.0
 30
0.0
  0
INSERT
  5
2DC
330
1F
100
AcDbEntity
  8
0
100
AcDbBlockReference
  2
BLKF052
 10
0.0
 20
0.0
 30
0.0
  0
INSERT
  5
2EB
330
1F
100
AcDbEntity
  8
0
100
AcDbBlockReference
  2
BLKF053
 10
0.0
 20
0.0
 30
0.0
  0
INSERT
  5
2F9
330
1F
100
AcDbEntity
  8
0
100
AcDbBlockReference
  2
BLKF054
 10
0.0
 20
0.0
 30
0.0
  0
TEXT
  5
305
330
1F
100
AcDbEntity
  8
GR1-1
  6
CONTINUOUS
 62
     4
100
AcDbText
 10
794.335469
 20
127.547656
 30
0.0
 40
1.2
  1
　水抜ハ゜イフ゜用　
 41
0.666667
  7
FX_VECTOR
 72
     5
 11
802.335469
 21
127.547656
 31
0.0
100
AcDbText
  0
TEXT
  5
306
330
1F
100
AcDbEntity
  8
GR1-1
  6
CONTINUOUS
 62
     4
100
AcDbText
 10
797.322031
 20
125.764766
 30
0.0
 40
1.2
  1
ノックアウト孔
 41
0.857143
  7
FX_VECTOR
 72
     5
 11
804.522031
 21
125.764766
 31
0.0
100
AcDbText
  0
INSERT
  5
30A
330
1F
100
AcDbEntity
  8
0
100
AcDbBlockReference
  2
BLKF055
 10
0.0
 20
0.0
 30
0.0
  0
LINE
  5
315
330
1F
100
AcDbEntity
  8
GR1-1
  6
CONTINUOUS
 62
     4
100
AcDbLine
 10
734.699509
 20
182.664895
 30
0.0
 11
734.699509
 21
174.056034
 31
0.0
  0
LINE
  5
316
330
1F
100
AcDbEntity
  8
GR1-1
  6
CONTINUOUS
 62
     4
100
AcDbLine
 10
747.199509
 20
182.664895
 30
0.0
 11
747.199509
 21
174.056034
 31
0.0
  0
LINE
  5
317
330
1F
100
AcDbEntity
  8
GR1-1
  6
CONTINUOUS
 62
     4
100
AcDbLine
 10
747.199509
 20
181.211451
 30
0.0
 11
734.699509
 21
181.211451
 31
0.0
  0
LINE
  5
318
330
1F
100
AcDbEntity
  8
GR1-1
  6
CONTINUOUS
 62
     4
100
AcDbLine
 10
739.399509
 20
200.600993
 30
0.0
 11
739.399509
 21
184.230143
 31
0.0
  0
LINE
  5
319
330
1F
100
AcDbEntity
  8
GR1-1
  6
CONTINUOUS
 62
     4
100
AcDbLine
 10
742.499509
 20
200.600993
 30
0.0
 11
742.499509
 21
184.230143
 31
0.0
  0
LINE
  5
31A
330
1F
100
AcDbEntity
  8
GR1-1
  6
CONTINUOUS
 62
     4
100
AcDbLine
 10
734.699509
 20
182.664895
 30
0.0
 11
738.999509
 21
183.782929
 31
0.0
  0
LINE
  5
31B
330
1F
100
AcDbEntity
  8
GR1-1
  6
CONTINUOUS
 62
     4
100
AcDbLine
 10
738.999509
 20
183.782929
 30
0.0
 11
739.399509
 21
184.230143
 31
0.0
  0
LINE
  5
31C
330
1F
100
AcDbEntity
  8
GR1-1
  6
CONTINUOUS
 62
     4
100
AcDbLine
 10
747.199509
 20
182.664895
 30
0.0
 11
742.899509
 21
183.782929
 31
0.0
  0
LINE
  5
31D
330
1F
100
AcDbEntity
  8
GR1-1
  6
CONTINUOUS
 62
     4
100
AcDbLine
 10
742.899509
 20
183.782929
 30
0.0
 11
742.499509
 21
184.230143
 31
0.0
  0
LINE
  5
31E
330
1F
100
AcDbEntity
  8
GR1-1
  6
CONTINUOUS
 62
     4
100
AcDbLine
 10
742.899509
 20
201.000993
 30
0.0
 11
742.899509
 21
193.845575
 31
0.0
  0
LINE
  5
31F
330
1F
100
AcDbEntity
  8
GR1-1
  6
CONTINUOUS
 62
     4
100
AcDbLine
 10
738.999509
 20
201.000993
 30
0.0
 11
738.999509
 21
193.845575
 31
0.0
  0
LINE
  5
320
330
1F
100
AcDbEntity
  8
GR1-1
  6
CONTINUOUS
 62
     4
100
AcDbLine
 10
734.749509
 20
194.963609
 30
0.0
 11
738.999509
 21
193.845575
 31
0.0
  0
LINE
  5
321
330
1F
100
AcDbEntity
  8
GR1-1
  6
CONTINUOUS
 62
     4
100
AcDbLine
 10
738.999509
 20
193.845575
 30
0.0
 11
739.399509
 21
193.445575
 31
0.0
  0
LINE
  5
322
330
1F
100
AcDbEntity
  8
GR1-1
  6
CONTINUOUS
 62
     4
100
AcDbLine
 10
742.499509
 20
193.445575
 30
0.0
 11
742.899509
 21
193.845575
 31
0.0
  0
LINE
  5
323
330
1F
100
AcDbEntity
  8
GR1-1
  6
CONTINUOUS
 62
     4
100
AcDbLine
 10
742.899509
 20
193.845575
 30
0.0
 11
747.149509
 21
194.963609
 31
0.0
  0
LINE
  5
324
330
1F
100
AcDbEntity
  8
GR1-1
  6
CONTINUOUS
 62
     4
100
AcDbLine
 10
742.499509
 20
200.600993
 30
0.0
 11
742.899509
 21
201.000993
 31
0.0
  0
LINE
  5
325
330
1F
100
AcDbEntity
  8
GR1-1
  6
CONTINUOUS
 62
     4
100
AcDbLine
 10
742.899509
 20
201.000993
 30
0.0
 11
747.149509
 21
202.119027
 31
0.0
  0
LINE
  5
326
330
1F
100
AcDbEntity
  8
GR1-1
  6
CONTINUOUS
 62
     4
100
AcDbLine
 10
734.749509
 20
202.119027
 30
0.0
 11
738.999509
 21
201.000993
 31
0.0
  0
LINE
  5
327
330
1F
100
AcDbEntity
  8
GR1-1
  6
CONTINUOUS
 62
     4
100
AcDbLine
 10
738.999509
 20
201.000993
 30
0.0
 11
739.399509
 21
200.600993
 31
0.0
  0
ARC
  5
328
330
1F
100
AcDbEntity
  8
GR1-1
  6
CONTINUOUS
 62
     2
100
AcDbCircle
 10
784.976923
 20
137.141983
 30
0.0
 40
6.761817216229993
100
AcDbArc
 50
318.873879
 51
347.99601
  0
LINE
  5
329
330
1F
100
AcDbEntity
  8
GR1-1
  6
CONTINUOUS
 62
     2
100
AcDbLine
 10
790.24924
 20
136.406482
 30
0.0
 11
791.59088
 21
135.735662
 31
0.0
  0
LINE
  5
32A
330
1F
100
AcDbEntity
  8
GR1-1
  6
CONTINUOUS
 62
     2
100
AcDbLine
 10
790.24924
 20
136.406482
 30
0.0
 11
788.728713
 21
133.36543
 31
0.0
  0
INSERT
  5
32E
330
1F
100
AcDbEntity
  8
0
100
AcDbBlockReference
  2
BLKF056
 10
0.0
 20
0.0
 30
0.0
  0
INSERT
  5
33D
330
1F
100
AcDbEntity
  8
0
100
AcDbBlockReference
  2
BLKF057
 10
0.0
 20
0.0
 30
0.0
  0
INSERT
  5
34B
330
1F
100
AcDbEntity
  8
0
100
AcDbBlockReference
  2
BLKF058
 10
0.0
 20
0.0
 30
0.0
  0
LINE
  5
356
330
1F
100
AcDbEntity
  8
GR1-1
  6
CONTINUOUS
 62
     2
100
AcDbLine
 10
812.766784
 20
136.943138
 30
0.0
 11
811.872357
 21
137.390352
 31
0.0
  0
LINE
  5
357
330
1F
100
AcDbEntity
  8
GR1-1
  6
CONTINUOUS
 62
     2
100
AcDbLine
 10
812.766784
 20
136.943139
 30
0.0
 11
811.246258
 21
133.902086
 31
0.0
  0
ARC
  5
358
330
1F
100
AcDbEntity
  8
GR1-1
  6
CONTINUOUS
 62
     2
100
AcDbCircle
 10
816.965788
 20
132.942979
 30
0.0
 40
6.761817216230011
100
AcDbArc
 50
138.873888
 51
167.996018
  0
LINE
  5
359
330
1F
100
AcDbEntity
  8
GR1-1
  6
CONTINUOUS
 62
     2
100
AcDbLine
 10
811.246258
 20
133.902086
 30
0.0
 11
810.351831
 21
134.3493
 31
0.0
  0
LINE
  5
35A
330
1F
100
AcDbEntity
  8
GR1-1
  6
CONTINUOUS
 62
     4
100
AcDbLine
 10
811.872357
 20
137.390352
 30
0.0
 11
815.740754
 21
145.127147
 31
0.0
  0
INSERT
  5
35E
330
1F
100
AcDbEntity
  8
0
100
AcDbBlockReference
  2
BLKF059
 10
0.0
 20
0.0
 30
0.0
  0
INSERT
  5
36C
330
1F
100
AcDbEntity
  8
0
100
AcDbBlockReference
  2
BLKF060
 10
0.0
 20
0.0
 30
0.0
  0
INSERT
  5
37A
330
1F
100
AcDbEntity
  8
0
100
AcDbBlockReference
  2
BLKF061
 10
0.0
 20
0.0
 30
0.0
  0
LINE
  5
385
330
1F
100
AcDbEntity
  8
GR1-1
  6
CONTINUOUS
 62
     2
100
AcDbLine
 10
790.384043
 20
134.849617
 30
0.0
 11
791.081696
 21
134.50079
 31
0.0
  0
LINE
  5
386
330
1F
100
AcDbEntity
  8
GR1-1
  6
CONTINUOUS
 62
     2
100
AcDbLine
 10
788.528968
 20
135.766437
 30
0.0
 11
787.831314
 21
136.115264
 31
0.0
  0
TEXT
  5
387
330
1F
100
AcDbEntity
  8
GR1-1
  6
CONTINUOUS
 62
     4
100
AcDbText
 10
786.970703
 20
137.250137
 30
0.0
 40
1.5
  1
15
 50
333.434937
 41
0.7
  7
FX_VECTOR
 72
     5
 11
788.849
 21
136.310988
 31
0.0
100
AcDbText
  0
LINE
  5
388
330
1F
100
AcDbEntity
  8
GR1-1
  6
CONTINUOUS
 62
     2
100
AcDbLine
 10
790.442181
 20
134.965892
 30
0.0
 11
790.325905
 21
134.733341
 31
0.0
  0
LINE
  5
389
330
1F
100
AcDbEntity
  8
GR1-1
  6
CONTINUOUS
 62
     2
100
AcDbLine
 10
790.325905
 20
134.733341
 30
0.0
 11
789.68639
 21
135.198444
 31
0.0
  0
LINE
  5
38A
330
1F
100
AcDbEntity
  8
GR1-1
  6
CONTINUOUS
 62
     2
100
AcDbLine
 10
789.68639
 20
135.198444
 30
0.0
 11
790.442181
 21
134.965892
 31
0.0
  0
LINE
  5
38B
330
1F
100
AcDbEntity
  8
GR1-1
  6
CONTINUOUS
 62
     2
100
AcDbLine
 10
788.587105
 20
135.882713
 30
0.0
 11
788.47083
 21
135.650162
 31
0.0
  0
LINE
  5
38C
330
1F
100
AcDbEntity
  8
GR1-1
  6
CONTINUOUS
 62
     2
100
AcDbLine
 10
788.47083
 20
135.650162
 30
0.0
 11
789.226621
 21
135.417611
 31
0.0
  0
LINE
  5
38D
330
1F
100
AcDbEntity
  8
GR1-1
  6
CONTINUOUS
 62
     2
100
AcDbLine
 10
789.226621
 20
135.417611
 30
0.0
 11
788.587105
 21
135.882713
 31
0.0
  0
LINE
  5
38E
330
1F
100
AcDbEntity
  8
GR1-1
  6
CONTINUOUS
 62
     2
100
AcDbLine
 10
790.261693
 20
133.908053
 30
0.0
 11
795.651146
 21
125.197206
 31
0.0
  0
INSERT
  5
38F
330
1F
100
AcDbEntity
  8
GR1-1
  6
CONTINUOUS
 62
     2
100
AcDbBlockReference
  2
FXTIP_BLACKTRIANGLE_S
 10
790.261693
 20
133.908053
 30
0.0
 41
2.0
 42
2.0
 50
121.745325
  0
LINE
  5
390
330
1F
100
AcDbEntity
  8
GR1-1
  6
CONTINUOUS
 62
     2
100
AcDbLine
 10
795.651146
 20
125.197206
 30
0.0
 11
805.228582
 21
125.197206
 31
0.0
  0
CIRCLE
  5
391
330
1F
100
AcDbEntity
  8
GR1-1
  6
CONTINUOUS
 62
     2
100
AcDbCircle
 10
740.949509
 20
201.572472
 30
0.0
 40
0.1
  0
CIRCLE
  5
392
330
1F
100
AcDbEntity
  8
GR1-1
  6
CONTINUOUS
 62
     4
100
AcDbCircle
 10
740.949509
 20
201.572472
 30
0.0
 40
0.6
  0
LINE
  5
393
330
1F
100
AcDbEntity
  8
GR1-1
  6
CONTINUOUS
 62
     2
100
AcDbLine
 10
740.642315
 20
201.572472
 30
0.0
 11
741.256702
 21
201.572472
 31
0.0
  0
LINE
  5
394
330
1F
100
AcDbEntity
  8
GR1-1
  6
CONTINUOUS
 62
     2
100
AcDbLine
 10
740.949509
 20
201.879665
 30
0.0
 11
740.949509
 21
201.265278
 31
0.0
  0
LINE
  5
395
330
1F
100
AcDbEntity
  8
GR1-1
  6
CONTINUOUS
 62
     2
100
AcDbLine
 10
740.949509
 20
185.518644
 30
0.0
 11
740.949509
 21
184.904258
 31
0.0
  0
CIRCLE
  5
396
330
1F
100
AcDbEntity
  8
GR1-1
  6
CONTINUOUS
 62
     4
100
AcDbCircle
 10
740.949509
 20
185.211451
 30
0.0
 40
0.6
  0
CIRCLE
  5
397
330
1F
100
AcDbEntity
  8
GR1-1
  6
CONTINUOUS
 62
     2
100
AcDbCircle
 10
740.949509
 20
183.211451
 30
0.0
 40
0.3
  0
LINE
  5
398
330
1F
100
AcDbEntity
  8
GR1-1
  6
CONTINUOUS
 62
     2
100
AcDbLine
 10
740.642315
 20
185.211451
 30
0.0
 11
741.256702
 21
185.211451
 31
0.0
  0
CIRCLE
  5
399
330
1F
100
AcDbEntity
  8
GR1-1
  6
CONTINUOUS
 62
     2
100
AcDbCircle
 10
740.949509
 20
185.211451
 30
0.0
 40
0.1
  0
INSERT
  5
39D
330
1F
100
AcDbEntity
  8
0
100
AcDbBlockReference
  2
BLKF062
 10
0.0
 20
0.0
 30
0.0
  0
INSERT
  5
3AB
330
1F
100
AcDbEntity
  8
0
100
AcDbBlockReference
  2
BLKF063
 10
0.0
 20
0.0
 30
0.0
  0
INSERT
  5
3BA
330
1F
100
AcDbEntity
  8
0
100
AcDbBlockReference
  2
BLKF064
 10
0.0
 20
0.0
 30
0.0
  0
INSERT
  5
3C9
330
1F
100
AcDbEntity
  8
0
100
AcDbBlockReference
  2
BLKF065
 10
0.0
 20
0.0
 30
0.0
  0
INSERT
  5
3D1
330
1F
100
AcDbEntity
  8
0
100
AcDbBlockReference
  2
BLKF066
 10
0.0
 20
0.0
 30
0.0
  0
INSERT
  5
3E0
330
1F
100
AcDbEntity
  8
0
100
AcDbBlockReference
  2
BLKF067
 10
0.0
 20
0.0
 30
0.0
  0
INSERT
  5
3EE
330
1F
100
AcDbEntity
  8
0
100
AcDbBlockReference
  2
BLKF068
 10
0.0
 20
0.0
 30
0.0
  0
INSERT
  5
3FD
330
1F
100
AcDbEntity
  8
0
100
AcDbBlockReference
  2
BLKF069
 10
0.0
 20
0.0
 30
0.0
  0
INSERT
  5
40B
330
1F
100
AcDbEntity
  8
0
100
AcDbBlockReference
  2
BLKF070
 10
0.0
 20
0.0
 30
0.0
  0
INSERT
  5
41A
330
1F
100
AcDbEntity
  8
0
100
AcDbBlockReference
  2
BLKF071
 10
0.0
 20
0.0
 30
0.0
  0
INSERT
  5
428
330
1F
100
AcDbEntity
  8
0
100
AcDbBlockReference
  2
BLKF072
 10
0.0
 20
0.0
 30
0.0
  0
LINE
  5
433
330
1F
100
AcDbEntity
  8
GR1-1
  6
CONTINUOUS
 62
     2
100
AcDbLine
 10
749.9613
 20
177.190437
 30
0.0
 11
756.05875
 21
177.190437
 31
0.0
  0
LINE
  5
434
330
1F
100
AcDbEntity
  8
GR1-1
  6
CONTINUOUS
 62
     2
100
AcDbLine
 10
740.956491
 20
170.108135
 30
0.0
 11
740.956491
 21
173.173093
 31
0.0
  0
LINE
  5
435
330
1F
100
AcDbEntity
  8
GR1-1
  6
CONTINUOUS
 62
     2
100
AcDbLine
 10
737.950418
 20
170.117806
 30
0.0
 11
740.956491
 21
170.117806
 31
0.0
  0
INSERT
  5
436
330
1F
100
AcDbEntity
  8
GR1-1
  6
CONTINUOUS
 62
     2
100
AcDbBlockReference
  2
FXTIP_ARROW_S
 10
737.950418
 20
170.117806
 30
0.0
 41
2.0
 42
2.0
 50
180.0
  0
TEXT
  5
437
330
1F
100
AcDbEntity
  8
GR1-1
  6
CONTINUOUS
 62
     4
100
AcDbText
 10
734.474844
 20
151.517285
 30
0.0
 40
2.0
  1
 正面図 
 41
0.784
  7
FX_VECTOR
 72
     5
 11
742.314844
 21
151.517285
 31
0.0
100
AcDbText
  0
LINE
  5
438
330
1F
100
AcDbEntity
  8
GR1-1
  6
CONTINUOUS
 62
     4
100
AcDbLine
 10
734.47485
 20
151.317288
 30
0.0
 11
742.31485
 21
151.317288
 31
0.0
  0
TEXT
  5
439
330
1F
100
AcDbEntity
  8
GR1-1
  6
CONTINUOUS
 62
     4
100
AcDbText
 10
784.465781
 20
151.517285
 30
0.0
 40
2.0
  1
 側面図 
 41
0.784
  7
FX_VECTOR
 72
     5
 11
792.305781
 21
151.517285
 31
0.0
100
AcDbText
  0
LINE
  5
43A
330
1F
100
AcDbEntity
  8
GR1-1
  6
CONTINUOUS
 62
     4
100
AcDbLine
 10
784.465749
 20
151.317288
 30
0.0
 11
792.305749
 21
151.317288
 31
0.0
  0
TEXT
  5
43B
330
1F
100
AcDbEntity
  8
GR1-1
  6
CONTINUOUS
 62
     4
100
AcDbText
 10
739.005234
 20
170.769863
 30
0.0
 40
2.0
  1
A
 41
0.7
  7
FX_VECTOR
 72
     5
 11
740.405234
 21
170.769863
 31
0.0
100
AcDbText
  0
LINE
  5
43C
330
1F
100
AcDbEntity
  8
GR1-1
  6
CONTINUOUS
 62
     2
100
AcDbLine
 10
737.950418
 20
217.239122
 30
0.0
 11
740.956491
 21
217.239122
 31
0.0
  0
INSERT
  5
43D
330
1F
100
AcDbEntity
  8
GR1-1
  6
CONTINUOUS
 62
     2
100
AcDbBlockReference
  2
FXTIP_ARROW_S
 10
737.950418
 20
217.239122
 30
0.0
 41
2.0
 42
2.0
 50
180.0
  0
LINE
  5
43E
330
1F
100
AcDbEntity
  8
GR1-1
  6
CONTINUOUS
 62
     2
100
AcDbLine
 10
740.956491
 20
217.248792
 30
0.0
 11
740.956491
 21
214.183835
 31
0.0
  0
TEXT
  5
43F
330
1F
100
AcDbEntity
  8
GR1-1
  6
CONTINUOUS
 62
     4
100
AcDbText
 10
739.005234
 20
214.587051
 30
0.0
 40
2.0
  1
A
 41
0.7
  7
FX_VECTOR
 72
     5
 11
740.405234
 21
214.587051
 31
0.0
100
AcDbText
  0
LINE
  5
440
330
1F
100
AcDbEntity
  8
GR1-1
  6
CONTINUOUS
 62
     2
100
AcDbLine
 10
811.315506
 20
135.049797
 30
0.0
 11
805.228582
 21
125.197206
 31
0.0
  0
INSERT
  5
441
330
1F
100
AcDbEntity
  8
GR1-1
  6
CONTINUOUS
 62
     2
100
AcDbBlockReference
  2
FXTIP_ARROW_S
 10
811.315506
 20
135.049797
 30
0.0
 41
2.0
 42
2.0
 50
58.292257
  0
LINE
  5
442
330
1F
100
AcDbEntity
  8
GR1-1
  6
CONTINUOUS
 62
     2
100
AcDbLine
 10
794.115239
 20
121.670655
 30
0.0
 11
795.59931
 21
124.638797
 31
0.0
  0
LINE
  5
443
330
1F
100
AcDbEntity
  8
GR1-1
  6
CONTINUOUS
 62
     2
100
AcDbLine
 10
791.694332
 20
121.680325
 30
0.0
 11
794.700404
 21
121.680325
 31
0.0
  0
INSERT
  5
444
330
1F
100
AcDbEntity
  8
GR1-1
  6
CONTINUOUS
 62
     2
100
AcDbBlockReference
  2
FXTIP_ARROW_S
 10
791.694332
 20
121.680325
 30
0.0
 41
2.0
 42
2.0
 50
180.0
  0
TEXT
  5
445
330
1F
100
AcDbEntity
  8
GR1-1
  6
CONTINUOUS
 62
     4
100
AcDbText
 10
793.018984
 20
122.577793
 30
0.0
 40
2.0
  1
C
 41
0.7
  7
FX_VECTOR
 72
     5
 11
794.418984
 21
122.577793
 31
0.0
100
AcDbText
  0
TEXT
  5
446
330
1F
100
AcDbEntity
  8
GR1-1
  6
CONTINUOUS
 62
     4
100
AcDbText
 10
807.541953
 20
152.938105
 30
0.0
 40
2.0
  1
C
 41
0.7
  7
FX_VECTOR
 72
     5
 11
808.941953
 21
152.938105
 31
0.0
100
AcDbText
  0
LINE
  5
447
330
1F
100
AcDbEntity
  8
GR1-1
  6
CONTINUOUS
 62
     2
100
AcDbLine
 10
806.805974
 20
155.498639
 30
0.0
 11
809.812046
 21
155.498639
 31
0.0
  0
INSERT
  5
448
330
1F
100
AcDbEntity
  8
GR1-1
  6
CONTINUOUS
 62
     2
100
AcDbBlockReference
  2
FXTIP_ARROW_S
 10
806.805974
 20
155.498639
 30
0.0
 41
2.0
 42
2.0
 50
180.0
  0
TEXT
  5
449
330
1F
100
AcDbEntity
  8
GR1-1
  6
CONTINUOUS
 62
     4
100
AcDbText
 10
811.233203
 20
152.938105
 30
0.0
 40
2.0
  1
D
 41
0.7
  7
FX_VECTOR
 72
     5
 11
812.633203
 21
152.938105
 31
0.0
100
AcDbText
  0
LINE
  5
44A
330
1F
100
AcDbEntity
  8
GR1-1
  6
CONTINUOUS
 62
     2
100
AcDbLine
 10
812.818118
 20
155.498639
 30
0.0
 11
809.812046
 21
155.498639
 31
0.0
  0
INSERT
  5
44B
330
1F
100
AcDbEntity
  8
GR1-1
  6
CONTINUOUS
 62
     2
100
AcDbBlockReference
  2
FXTIP_ARROW_S
 10
812.818118
 20
155.498639
 30
0.0
 41
2.0
 42
2.0
  0
TEXT
  5
44C
330
1F
100
AcDbEntity
  8
GR1-1
  6
CONTINUOUS
 62
     4
100
AcDbText
 10
796.198594
 20
122.522441
 30
0.0
 40
2.0
  1
D
 41
0.7
  7
FX_VECTOR
 72
     5
 11
797.598594
 21
122.522441
 31
0.0
100
AcDbText
  0
LINE
  5
44D
330
1F
100
AcDbEntity
  8
GR1-1
  6
CONTINUOUS
 62
     2
100
AcDbLine
 10
797.706476
 20
121.680325
 30
0.0
 11
794.700404
 21
121.680325
 31
0.0
  0
INSERT
  5
44E
330
1F
100
AcDbEntity
  8
GR1-1
  6
CONTINUOUS
 62
     2
100
AcDbBlockReference
  2
FXTIP_ARROW_S
 10
797.706476
 20
121.680325
 30
0.0
 41
2.0
 42
2.0
  0
LINE
  5
44F
330
1F
100
AcDbEntity
  8
GR1-1
  6
CONTINUOUS
 62
     2
100
AcDbLine
 10
809.227983
 20
153.07983
 30
0.0
 11
810.442223
 21
155.50831
 31
0.0
  0
TEXT
  5
450
330
1F
100
AcDbEntity
  8
GR1-1
  6
CONTINUOUS
 62
     4
100
AcDbText
 10
673.992109
 20
155.664707
 30
0.0
 40
2.0
  1
 A-A 断面図 
 41
0.746667
  7
FX_VECTOR
 72
     5
 11
687.432109
 21
155.664707
 31
0.0
100
AcDbText
  0
LINE
  5
451
330
1F
100
AcDbEntity
  8
GR1-1
  6
CONTINUOUS
 62
     4
100
AcDbLine
 10
673.992114
 20
155.464716
 30
0.0
 11
687.432114
 21
155.464716
 31
0.0
  0
LINE
  5
452
330
1F
100
AcDbEntity
  8
GR1-1
  6
CONTINUOUS
 62
     4
100
AcDbLine
 10
711.402944
 20
130.816312
 30
0.0
 11
704.247526
 21
145.127147
 31
0.0
  0
LINE
  5
453
330
1F
100
AcDbEntity
  8
GR1-1
  6
CONTINUOUS
 62
     4
100
AcDbLine
 10
688.922264
 20
131.056312
 30
0.0
 11
681.886846
 21
145.127147
 31
0.0
  0
LINE
  5
454
330
1F
100
AcDbEntity
  8
GR1-1
  6
CONTINUOUS
 62
     8
100
AcDbLine
 10
710.146188
 20
134.969229
 30
0.0
 11
709.603076
 21
135.907443
 31
0.0
  0
LINE
  5
455
330
1F
100
AcDbEntity
  8
GR1-1
  6
CONTINUOUS
 62
     4
100
AcDbLine
 10
711.402944
 20
130.816312
 30
0.0
 11
706.502944
 21
130.816312
 31
0.0
  0
LINE
  5
456
330
1F
100
AcDbEntity
  8
GR1-1
  6
CONTINUOUS
 62
     8
100
AcDbLine
 10
711.253071
 20
131.093957
 30
0.0
 11
711.640362
 21
131.611886
 31
0.0
  0
LINE
  5
457
330
1F
100
AcDbEntity
  8
GR1-1
  6
CONTINUOUS
 62
     8
100
AcDbLine
 10
711.181739
 20
132.876543
 30
0.0
 11
710.921694
 21
133.279457
 31
0.0
  0
LINE
  5
458
330
1F
100
AcDbEntity
  8
GR1-1
  6
CONTINUOUS
 62
     8
100
AcDbLine
 10
710.921694
 20
133.279457
 30
0.0
 11
710.146188
 21
134.969229
 31
0.0
  0
LINE
  5
459
330
1F
100
AcDbEntity
  8
GR1-1
  6
CONTINUOUS
 62
     8
100
AcDbLine
 10
711.624841
 20
131.967211
 30
0.0
 11
711.297268
 21
132.492336
 31
0.0
  0
LINE
  5
45A
330
1F
100
AcDbEntity
  8
GR1-1
  6
CONTINUOUS
 62
     8
100
AcDbLine
 10
711.640362
 20
131.611886
 30
0.0
 11
711.624841
 21
131.967211
 31
0.0
  0
LINE
  5
45B
330
1F
100
AcDbEntity
  8
GR1-1
  6
CONTINUOUS
 62
     8
100
AcDbLine
 10
711.297268
 20
132.492336
 30
0.0
 11
711.181739
 21
132.876543
 31
0.0
  0
LINE
  5
45C
330
1F
100
AcDbEntity
  8
GR1-1
  6
CONTINUOUS
 62
     4
100
AcDbLine
 10
704.247526
 20
145.127147
 30
0.0
 11
681.886846
 21
145.127147
 31
0.0
  0
LINE
  5
45D
330
1F
100
AcDbEntity
  8
GR1-1
  6
CONTINUOUS
 62
     8
100
AcDbLine
 10
706.521928
 20
142.073857
 30
0.0
 11
706.230295
 21
142.726542
 31
0.0
  0
LINE
  5
45E
330
1F
100
AcDbEntity
  8
GR1-1
  6
CONTINUOUS
 62
     8
100
AcDbLine
 10
708.893864
 20
137.279099
 30
0.0
 11
708.160704
 21
138.76392
 31
0.0
  0
TEXT
  5
45F
330
1F
100
AcDbEntity
  8
GR1-1
  6
CONTINUOUS
 62
     4
100
AcDbText
 10
708.578047
 20
139.853926
 30
0.0
 40
1.5
  1
1:0.5
 50
297.0
 41
0.7
  7
FX_VECTOR
 72
     5
 11
710.961497
 21
135.176142
 31
0.0
100
AcDbText
  0
LINE
  5
460
330
1F
100
AcDbEntity
  8
GR1-1
  6
CONTINUOUS
 62
     8
100
AcDbLine
 10
706.323338
 20
140.968764
 30
0.0
 11
706.770914
 21
141.248354
 31
0.0
  0
LINE
  5
461
330
1F
100
AcDbEntity
  8
GR1-1
  6
CONTINUOUS
 62
     8
100
AcDbLine
 10
706.886355
 20
141.201181
 30
0.0
 11
706.598557
 21
141.016628
 31
0.0
  0
LINE
  5
462
330
1F
100
AcDbEntity
  8
GR1-1
  6
CONTINUOUS
 62
     8
100
AcDbLine
 10
707.371823
 20
140.447704
 30
0.0
 11
707.058022
 21
141.029284
 31
0.0
  0
LINE
  5
463
330
1F
100
AcDbEntity
  8
GR1-1
  6
CONTINUOUS
 62
     8
100
AcDbLine
 10
707.058022
 20
141.029284
 30
0.0
 11
706.886355
 21
141.201181
 31
0.0
  0
LINE
  5
464
330
1F
100
AcDbEntity
  8
GR1-1
  6
CONTINUOUS
 62
     8
100
AcDbLine
 10
706.598557
 20
141.016628
 30
0.0
 11
706.356858
 21
140.974593
 31
0.0
  0
LINE
  5
465
330
1F
100
AcDbEntity
  8
GR1-1
  6
CONTINUOUS
 62
     8
100
AcDbLine
 10
706.841252
 20
141.460521
 30
0.0
 11
706.521928
 21
142.073857
 31
0.0
  0
LINE
  5
466
330
1F
100
AcDbEntity
  8
GR1-1
  6
CONTINUOUS
 62
     8
100
AcDbLine
 10
706.770914
 20
141.248354
 30
0.0
 11
706.841252
 21
141.460521
 31
0.0
  0
LINE
  5
467
330
1F
100
AcDbEntity
  8
GR1-1
  6
CONTINUOUS
 62
     8
100
AcDbLine
 10
708.160704
 20
138.76392
 30
0.0
 11
707.851692
 21
139.527854
 31
0.0
  0
LINE
  5
468
330
1F
100
AcDbEntity
  8
GR1-1
  6
CONTINUOUS
 62
     8
100
AcDbLine
 10
707.851692
 20
139.527854
 30
0.0
 11
707.640752
 21
139.925571
 31
0.0
  0
LINE
  5
469
330
1F
100
AcDbEntity
  8
GR1-1
  6
CONTINUOUS
 62
     8
100
AcDbLine
 10
707.640752
 20
139.925571
 30
0.0
 11
707.371823
 21
140.447704
 31
0.0
  0
LINE
  5
46A
330
1F
100
AcDbEntity
  8
GR1-1
  6
CONTINUOUS
 62
     8
100
AcDbLine
 10
709.452188
 20
136.253416
 30
0.0
 11
709.007749
 21
136.624261
 31
0.0
  0
LINE
  5
46B
330
1F
100
AcDbEntity
  8
GR1-1
  6
CONTINUOUS
 62
     8
100
AcDbLine
 10
709.603076
 20
135.907443
 30
0.0
 11
709.759821
 21
135.590869
 31
0.0
  0
LINE
  5
46C
330
1F
100
AcDbEntity
  8
GR1-1
  6
CONTINUOUS
 62
     8
100
AcDbLine
 10
709.759821
 20
135.590869
 30
0.0
 11
709.452188
 21
136.253416
 31
0.0
  0
LINE
  5
46D
330
1F
100
AcDbEntity
  8
GR1-1
  6
CONTINUOUS
 62
     8
100
AcDbLine
 10
709.062122
 20
136.857787
 30
0.0
 11
708.893864
 21
137.279099
 31
0.0
  0
LINE
  5
46E
330
1F
100
AcDbEntity
  8
GR1-1
  6
CONTINUOUS
 62
     8
100
AcDbLine
 10
709.076923
 20
136.772682
 30
0.0
 11
709.062122
 21
136.857787
 31
0.0
  0
LINE
  5
46F
330
1F
100
AcDbEntity
  8
GR1-1
  6
CONTINUOUS
 62
     8
100
AcDbLine
 10
708.64636
 20
136.517571
 30
0.0
 11
709.076923
 21
136.772682
 31
0.0
  0
LINE
  5
470
330
1F
100
AcDbEntity
  8
GR1-1
  6
CONTINUOUS
 62
     8
100
AcDbLine
 10
709.007749
 20
136.624261
 30
0.0
 11
708.64636
 21
136.517571
 31
0.0
  0
LINE
  5
471
330
1F
100
AcDbEntity
  8
GR1-1
  6
CONTINUOUS
 62
     8
100
AcDbLine
 10
706.230295
 20
142.726542
 30
0.0
 11
705.94449
 21
143.345708
 31
0.0
  0
LINE
  5
472
330
1F
100
AcDbEntity
  8
GR1-1
  6
CONTINUOUS
 62
     8
100
AcDbLine
 10
705.460557
 20
144.299385
 30
0.0
 11
705.139161
 21
144.914178
 31
0.0
  0
LINE
  5
473
330
1F
100
AcDbEntity
  8
GR1-1
  6
CONTINUOUS
 62
     8
100
AcDbLine
 10
705.658917
 20
143.764979
 30
0.0
 11
705.460557
 21
144.299385
 31
0.0
  0
LINE
  5
474
330
1F
100
AcDbEntity
  8
GR1-1
  6
CONTINUOUS
 62
     8
100
AcDbLine
 10
705.94449
 20
143.345708
 30
0.0
 11
705.658917
 21
143.764979
 31
0.0
  0
LINE
  5
475
330
1F
100
AcDbEntity
  8
GR1-1
  6
CONTINUOUS
 62
     8
100
AcDbLine
 10
704.761388
 20
145.048412
 30
0.0
 11
704.359912
 21
144.91134
 31
0.0
  0
LINE
  5
476
330
1F
100
AcDbEntity
  8
GR1-1
  6
CONTINUOUS
 62
     8
100
AcDbLine
 10
705.014439
 20
145.02517
 30
0.0
 11
704.761388
 21
145.048412
 31
0.0
  0
LINE
  5
477
330
1F
100
AcDbEntity
  8
GR1-1
  6
CONTINUOUS
 62
     8
100
AcDbLine
 10
705.139161
 20
144.914178
 30
0.0
 11
705.014439
 21
145.02517
 31
0.0
  0
LINE
  5
478
330
1F
100
AcDbEntity
  8
GR1-1
  6
CONTINUOUS
 62
     4
100
AcDbLine
 10
705.502944
 20
130.816312
 30
0.0
 11
705.602944
 21
131.056312
 31
0.0
  0
LINE
  5
479
330
1F
100
AcDbEntity
  8
GR1-1
  6
CONTINUOUS
 62
     4
100
AcDbLine
 10
705.602944
 20
131.056312
 30
0.0
 11
706.402944
 21
131.056312
 31
0.0
  0
LINE
  5
47A
330
1F
100
AcDbEntity
  8
GR1-1
  6
CONTINUOUS
 62
     4
100
AcDbLine
 10
706.402944
 20
131.056312
 30
0.0
 11
706.502944
 21
130.816312
 31
0.0
  0
LINE
  5
47B
330
1F
100
AcDbEntity
  8
GR1-1
  6
CONTINUOUS
 62
     4
100
AcDbLine
 10
702.547526
 20
145.127147
 30
0.0
 11
702.372526
 21
144.127147
 31
0.0
  0
LINE
  5
47C
330
1F
100
AcDbEntity
  8
GR1-1
  6
CONTINUOUS
 62
     4
100
AcDbLine
 10
702.372526
 20
144.127147
 30
0.0
 11
702.122526
 21
144.127147
 31
0.0
  0
LINE
  5
47D
330
1F
100
AcDbEntity
  8
GR1-1
  6
CONTINUOUS
 62
     4
100
AcDbLine
 10
702.122526
 20
144.127147
 30
0.0
 11
701.947526
 21
145.127147
 31
0.0
  0
LINE
  5
47E
330
1F
100
AcDbEntity
  8
GR1-1
  6
CONTINUOUS
 62
     4
100
AcDbLine
 10
692.842264
 20
131.056312
 30
0.0
 11
693.642264
 21
131.056312
 31
0.0
  0
LINE
  5
47F
330
1F
100
AcDbEntity
  8
GR1-1
  6
CONTINUOUS
 62
     4
100
AcDbLine
 10
692.742264
 20
130.816312
 30
0.0
 11
692.842264
 21
131.056312
 31
0.0
  0
LINE
  5
480
330
1F
100
AcDbEntity
  8
GR1-1
  6
CONTINUOUS
 62
     4
100
AcDbLine
 10
693.642264
 20
131.056312
 30
0.0
 11
693.742264
 21
130.816312
 31
0.0
  0
LINE
  5
481
330
1F
100
AcDbEntity
  8
GR1-1
  6
CONTINUOUS
 62
     4
100
AcDbLine
 10
688.922264
 20
131.056312
 30
0.0
 11
689.842264
 21
131.056312
 31
0.0
  0
LINE
  5
482
330
1F
100
AcDbEntity
  8
GR1-1
  6
CONTINUOUS
 62
     4
100
AcDbLine
 10
689.842264
 20
131.056312
 30
0.0
 11
689.942264
 21
130.816312
 31
0.0
  0
LINE
  5
483
330
1F
100
AcDbEntity
  8
GR1-1
  6
CONTINUOUS
 62
     4
100
AcDbLine
 10
709.527944
 20
131.816312
 30
0.0
 11
709.702944
 21
130.816312
 31
0.0
  0
LINE
  5
484
330
1F
100
AcDbEntity
  8
GR1-1
  6
CONTINUOUS
 62
     4
100
AcDbLine
 10
709.277944
 20
131.816312
 30
0.0
 11
709.527944
 21
131.816312
 31
0.0
  0
LINE
  5
485
330
1F
100
AcDbEntity
  8
GR1-1
  6
CONTINUOUS
 62
     4
100
AcDbLine
 10
709.102944
 20
130.816312
 30
0.0
 11
709.277944
 21
131.816312
 31
0.0
  0
INSERT
  5
489
330
1F
100
AcDbEntity
  8
0
100
AcDbBlockReference
  2
BLKF073
 10
0.0
 20
0.0
 30
0.0
  0
INSERT
  5
498
330
1F
100
AcDbEntity
  8
0
100
AcDbBlockReference
  2
BLKF074
 10
0.0
 20
0.0
 30
0.0
  0
INSERT
  5
4A7
330
1F
100
AcDbEntity
  8
0
100
AcDbBlockReference
  2
BLKF075
 10
0.0
 20
0.0
 30
0.0
  0
INSERT
  5
4B5
330
1F
100
AcDbEntity
  8
0
100
AcDbBlockReference
  2
BLKF076
 10
0.0
 20
0.0
 30
0.0
  0
INSERT
  5
4C3
330
1F
100
AcDbEntity
  8
0
100
AcDbBlockReference
  2
BLKF077
 10
0.0
 20
0.0
 30
0.0
  0
LINE
  5
4C9
330
1F
100
AcDbEntity
  8
GR1-1
  6
CONTINUOUS
 62
     2
100
AcDbLine
 10
693.277505
 20
131.192171
 30
0.0
 11
696.093713
 21
136.972953
 31
0.0
  0
INSERT
  5
4CA
330
1F
100
AcDbEntity
  8
GR1-1
  6
CONTINUOUS
 62
     2
100
AcDbBlockReference
  2
FXTIP_ARROW_S
 10
693.277505
 20
131.192171
 30
0.0
 41
2.0
 42
2.0
 50
244.026169
  0
LINE
  5
4CB
330
1F
100
AcDbEntity
  8
GR1-1
  6
CONTINUOUS
 62
     2
100
AcDbLine
 10
705.855723
 20
131.243328
 30
0.0
 11
696.093713
 21
136.972953
 31
0.0
  0
INSERT
  5
4CC
330
1F
100
AcDbEntity
  8
GR1-1
  6
CONTINUOUS
 62
     2
100
AcDbBlockReference
  2
FXTIP_ARROW_S
 10
705.855723
 20
131.243328
 30
0.0
 41
2.0
 42
2.0
 50
329.590011
  0
LINE
  5
4CD
330
1F
100
AcDbEntity
  8
GR1-1
  6
CONTINUOUS
 62
     4
100
AcDbLine
 10
705.502944
 20
130.816312
 30
0.0
 11
693.742264
 21
130.816312
 31
0.0
  0
LINE
  5
4CE
330
1F
100
AcDbEntity
  8
GR1-1
  6
CONTINUOUS
 62
     4
100
AcDbLine
 10
692.742264
 20
130.816312
 30
0.0
 11
689.942264
 21
130.816312
 31
0.0
  0
TEXT
  5
4CF
330
1F
100
AcDbEntity
  8
GR1-1
  6
CONTINUOUS
 62
     4
100
AcDbText
 10
728.307031
 20
214.672988
 30
0.0
 40
2.0
  1
 平面図 
 41
0.784
  7
FX_VECTOR
 72
     5
 11
736.147031
 21
214.672988
 31
0.0
100
AcDbText
  0
LINE
  5
4D0
330
1F
100
AcDbEntity
  8
GR1-1
  6
CONTINUOUS
 62
     4
100
AcDbLine
 10
728.307004
 20
214.472993
 30
0.0
 11
736.147004
 21
214.472993
 31
0.0
  0
INSERT
  5
4D4
330
1F
100
AcDbEntity
  8
0
100
AcDbBlockReference
  2
BLKF078
 10
0.0
 20
0.0
 30
0.0
  0
INSERT
  5
4E2
330
1F
100
AcDbEntity
  8
0
100
AcDbBlockReference
  2
BLKF079
 10
0.0
 20
0.0
 30
0.0
  0
INSERT
  5
4F1
330
1F
100
AcDbEntity
  8
0
100
AcDbBlockReference
  2
BLKF080
 10
0.0
 20
0.0
 30
0.0
  0
INSERT
  5
500
330
1F
100
AcDbEntity
  8
0
100
AcDbBlockReference
  2
BLKF081
 10
0.0
 20
0.0
 30
0.0
  0
INSERT
  5
50E
330
1F
100
AcDbEntity
  8
0
100
AcDbBlockReference
  2
BLKF082
 10
0.0
 20
0.0
 30
0.0
  0
INSERT
  5
51D
330
1F
100
AcDbEntity
  8
0
100
AcDbBlockReference
  2
BLKF083
 10
0.0
 20
0.0
 30
0.0
  0
INSERT
  5
52B
330
1F
100
AcDbEntity
  8
0
100
AcDbBlockReference
  2
BLKF084
 10
0.0
 20
0.0
 30
0.0
  0
INSERT
  5
539
330
1F
100
AcDbEntity
  8
0
100
AcDbBlockReference
  2
BLKF085
 10
0.0
 20
0.0
 30
0.0
  0
INSERT
  5
548
330
1F
100
AcDbEntity
  8
0
100
AcDbBlockReference
  2
BLKF086
 10
0.0
 20
0.0
 30
0.0
  0
INSERT
  5
556
330
1F
100
AcDbEntity
  8
0
100
AcDbBlockReference
  2
BLKF087
 10
0.0
 20
0.0
 30
0.0
  0
INSERT
  5
565
330
1F
100
AcDbEntity
  8
0
100
AcDbBlockReference
  2
BLKF088
 10
0.0
 20
0.0
 30
0.0
  0
LINE
  5
570
330
1F
100
AcDbEntity
  8
GR1-1
  6
CONTINUOUS
 62
     4
100
AcDbLine
 10
701.806543
 20
140.97173
 30
0.0
 11
691.483247
 21
140.97173
 31
0.0
  0
LINE
  5
571
330
1F
100
AcDbEntity
  8
GR1-1
  6
CONTINUOUS
 62
     4
100
AcDbLine
 10
701.806543
 20
134.97173
 30
0.0
 11
691.483247
 21
134.97173
 31
0.0
  0
LINE
  5
572
330
1F
100
AcDbEntity
  8
GR1-1
  6
CONTINUOUS
 62
     4
100
AcDbLine
 10
690.883247
 20
135.57173
 30
0.0
 11
690.883247
 21
140.37173
 31
0.0
  0
LINE
  5
573
330
1F
100
AcDbEntity
  8
GR1-1
  6
CONTINUOUS
 62
     4
100
AcDbLine
 10
702.406543
 20
135.57173
 30
0.0
 11
702.406543
 21
140.37173
 31
0.0
  0
INSERT
  5
577
330
1F
100
AcDbEntity
  8
0
100
AcDbBlockReference
  2
BLKF089
 10
0.0
 20
0.0
 30
0.0
  0
INSERT
  5
586
330
1F
100
AcDbEntity
  8
0
100
AcDbBlockReference
  2
BLKF090
 10
0.0
 20
0.0
 30
0.0
  0
INSERT
  5
594
330
1F
100
AcDbEntity
  8
0
100
AcDbBlockReference
  2
BLKF091
 10
0.0
 20
0.0
 30
0.0
  0
INSERT
  5
5A3
330
1F
100
AcDbEntity
  8
0
100
AcDbBlockReference
  2
BLKF092
 10
0.0
 20
0.0
 30
0.0
  0
LINE
  5
5AE
330
1F
100
AcDbEntity
  8
GR1-1
  6
CONTINUOUS
 62
     4
100
AcDbLine
 10
738.999509
 20
96.668947
 30
0.0
 11
738.999509
 21
82.358112
 31
0.0
  0
LINE
  5
5AF
330
1F
100
AcDbEntity
  8
GR1-1
  6
CONTINUOUS
 62
     4
100
AcDbLine
 10
742.899509
 20
96.668947
 30
0.0
 11
742.899509
 21
82.358112
 31
0.0
  0
ELLIPSE
  5
5B1
330
1F
100
AcDbEntity
  8
GR1-1
  6
HIDDEN2
 62
     2
100
AcDbEllipse
 10
734.699509
 20
85.938112
 30
0.0
 11
9.307008289050067E-17
 21
-1.52
 31
0.0
210
0.0
220
0.0
230
1.0
 40
0.657895
 41
0.0
 42
3.141592653589793
  0
ELLIPSE
  5
5B2
330
1F
100
AcDbEntity
  8
GR1-1
  6
CONTINUOUS
 62
     4
100
AcDbEllipse
 10
734.699509
 20
86.338112
 30
0.0
 11
9.307008289050067E-17
 21
-1.52
 31
0.0
210
0.0
220
0.0
230
1.0
 40
0.657895
 41
0.0
 42
3.141592653589793
  0
ELLIPSE
  5
5B3
330
1F
100
AcDbEntity
  8
GR1-1
  6
HIDDEN2
 62
     2
100
AcDbEllipse
 10
747.199509
 20
85.938112
 30
0.0
 11
9.307008289050067E-17
 21
-1.52
 31
0.0
210
0.0
220
0.0
230
1.0
 40
0.657895
 41
3.141592653589793
 42
6.283185307179586
  0
ELLIPSE
  5
5B4
330
1F
100
AcDbEntity
  8
GR1-1
  6
CONTINUOUS
 62
     4
100
AcDbEllipse
 10
747.199509
 20
86.338112
 30
0.0
 11
9.307008289050067E-17
 21
-1.52
 31
0.0
210
0.0
220
0.0
230
1.0
 40
0.657895
 41
3.141592653589793
 42
6.283185307179586
  0
LINE
  5
5B5
330
1F
100
AcDbEntity
  8
GR1-1
  6
CONTINUOUS
 62
     4
100
AcDbLine
 10
739.399509
 20
96.668947
 30
0.0
 11
739.399509
 21
82.358112
 31
0.0
  0
LINE
  5
5B6
330
1F
100
AcDbEntity
  8
GR1-1
  6
CONTINUOUS
 62
     4
100
AcDbLine
 10
742.499509
 20
96.668947
 30
0.0
 11
742.499509
 21
82.358112
 31
0.0
  0
LINE
  5
5B7
330
1F
100
AcDbEntity
  8
GR1-1
  6
CONTINUOUS
 62
     4
100
AcDbLine
 10
734.699509
 20
96.668947
 30
0.0
 11
734.699509
 21
82.358112
 31
0.0
  0
LINE
  5
5B8
330
1F
100
AcDbEntity
  8
GR1-1
  6
CONTINUOUS
 62
     4
100
AcDbLine
 10
747.199509
 20
96.668947
 30
0.0
 11
747.199509
 21
82.358112
 31
0.0
  0
INSERT
  5
5BC
330
1F
100
AcDbEntity
  8
0
100
AcDbBlockReference
  2
BLKF093
 10
0.0
 20
0.0
 30
0.0
  0
INSERT
  5
5CA
330
1F
100
AcDbEntity
  8
0
100
AcDbBlockReference
  2
BLKF094
 10
0.0
 20
0.0
 30
0.0
  0
LINE
  5
5D5
330
1F
100
AcDbEntity
  8
GR1-1
  6
CONTINUOUS
 62
     4
100
AcDbLine
 10
734.699509
 20
82.358112
 30
0.0
 11
747.199509
 21
82.358112
 31
0.0
  0
INSERT
  5
5D9
330
1F
100
AcDbEntity
  8
0
100
AcDbBlockReference
  2
BLKF095
 10
0.0
 20
0.0
 30
0.0
  0
INSERT
  5
5E7
330
1F
100
AcDbEntity
  8
0
100
AcDbBlockReference
  2
BLKF096
 10
0.0
 20
0.0
 30
0.0
  0
LINE
  5
5F2
330
1F
100
AcDbEntity
  8
GR1-1
  6
CONTINUOUS
 62
     4
100
AcDbLine
 10
739.399509
 20
82.598112
 30
0.0
 11
740.199509
 21
82.598112
 31
0.0
  0
LINE
  5
5F3
330
1F
100
AcDbEntity
  8
GR1-1
  6
CONTINUOUS
 62
     4
100
AcDbLine
 10
740.199509
 20
82.598112
 30
0.0
 11
740.299509
 21
82.358112
 31
0.0
  0
LINE
  5
5F4
330
1F
100
AcDbEntity
  8
GR1-1
  6
CONTINUOUS
 62
     4
100
AcDbLine
 10
742.499509
 20
82.598112
 30
0.0
 11
741.699509
 21
82.598112
 31
0.0
  0
LINE
  5
5F5
330
1F
100
AcDbEntity
  8
GR1-1
  6
CONTINUOUS
 62
     4
100
AcDbLine
 10
741.699509
 20
82.598112
 30
0.0
 11
741.599509
 21
82.358112
 31
0.0
  0
LINE
  5
5F6
330
1F
100
AcDbEntity
  8
GR1-1
  6
CONTINUOUS
 62
     4
100
AcDbLine
 10
734.699509
 20
96.668947
 30
0.0
 11
747.199509
 21
96.668947
 31
0.0
  0
LINE
  5
5F7
330
1F
100
AcDbEntity
  8
GR1-1
  6
CONTINUOUS
 62
     4
100
AcDbLine
 10
739.399509
 20
86.51353
 30
0.0
 11
742.499509
 21
85.914112
 31
0.0
  0
LINE
  5
5F8
330
1F
100
AcDbEntity
  8
GR1-1
  6
CONTINUOUS
 62
     4
100
AcDbLine
 10
739.399509
 20
92.51353
 30
0.0
 11
742.499509
 21
93.114112
 31
0.0
  0
INSERT
  5
5FC
330
1F
100
AcDbEntity
  8
0
100
AcDbBlockReference
  2
BLKF097
 10
0.0
 20
0.0
 30
0.0
  0
TEXT
  5
608
330
1F
100
AcDbEntity
  8
GR1-1
  6
CONTINUOUS
 62
     4
100
AcDbText
 10
734.474844
 20
102.998828
 30
0.0
 40
2.0
  1
 C-C 断面図 
 41
0.746667
  7
FX_VECTOR
 72
     5
 11
747.914843
 21
102.998828
 31
0.0
100
AcDbText
  0
LINE
  5
609
330
1F
100
AcDbEntity
  8
GR1-1
  6
CONTINUOUS
 62
     4
100
AcDbLine
 10
734.47485
 20
102.798837
 30
0.0
 11
747.91485
 21
102.798837
 31
0.0
  0
INSERT
  5
60D
330
1F
100
AcDbEntity
  8
0
100
AcDbBlockReference
  2
BLKF098
 10
0.0
 20
0.0
 30
0.0
  0
ELLIPSE
  5
618
330
1F
100
AcDbEntity
  8
GR1-1
  6
HIDDEN2
 62
     2
100
AcDbEllipse
 10
785.173462
 20
86.438112
 30
0.0
 11
9.307008289050067E-17
 21
-1.52
 31
0.0
210
0.0
220
0.0
230
1.0
 40
0.657895
 41
0.0
 42
3.141592653589793
  0
ELLIPSE
  5
619
330
1F
100
AcDbEntity
  8
GR1-1
  6
HIDDEN2
 62
     2
100
AcDbEllipse
 10
797.673462
 20
86.438112
 30
0.0
 11
9.307008289050067E-17
 21
-1.52
 31
0.0
210
0.0
220
0.0
230
1.0
 40
0.657895
 41
3.141592653589793
 42
6.283185307179586
  0
LINE
  5
61A
330
1F
100
AcDbEntity
  8
GR1-1
  6
CONTINUOUS
 62
     4
100
AcDbLine
 10
785.173462
 20
96.668947
 30
0.0
 11
785.173462
 21
82.358112
 31
0.0
  0
LINE
  5
61B
330
1F
100
AcDbEntity
  8
GR1-1
  6
CONTINUOUS
 62
     4
100
AcDbLine
 10
789.873462
 20
96.668947
 30
0.0
 11
789.873462
 21
82.358112
 31
0.0
  0
LINE
  5
61C
330
1F
100
AcDbEntity
  8
GR1-1
  6
CONTINUOUS
 62
     4
100
AcDbLine
 10
789.473462
 20
96.668947
 30
0.0
 11
789.473462
 21
82.358112
 31
0.0
  0
LINE
  5
61D
330
1F
100
AcDbEntity
  8
GR1-1
  6
CONTINUOUS
 62
     4
100
AcDbLine
 10
793.373462
 20
96.668947
 30
0.0
 11
793.373462
 21
82.358112
 31
0.0
  0
LINE
  5
61E
330
1F
100
AcDbEntity
  8
GR1-1
  6
CONTINUOUS
 62
     4
100
AcDbLine
 10
792.973462
 20
96.668947
 30
0.0
 11
792.973462
 21
82.358112
 31
0.0
  0
LINE
  5
61F
330
1F
100
AcDbEntity
  8
GR1-1
  6
CONTINUOUS
 62
     4
100
AcDbLine
 10
797.673462
 20
96.668947
 30
0.0
 11
797.673462
 21
82.358112
 31
0.0
  0
LINE
  5
620
330
1F
100
AcDbEntity
  8
GR1-1
  6
CONTINUOUS
 62
     4
100
AcDbLine
 10
785.173462
 20
82.358112
 30
0.0
 11
797.673462
 21
82.358112
 31
0.0
  0
INSERT
  5
624
330
1F
100
AcDbEntity
  8
0
100
AcDbBlockReference
  2
BLKF099
 10
0.0
 20
0.0
 30
0.0
  0
INSERT
  5
632
330
1F
100
AcDbEntity
  8
0
100
AcDbBlockReference
  2
BLKF100
 10
0.0
 20
0.0
 30
0.0
  0
INSERT
  5
640
330
1F
100
AcDbEntity
  8
0
100
AcDbBlockReference
  2
BLKF101
 10
0.0
 20
0.0
 30
0.0
  0
INSERT
  5
64E
330
1F
100
AcDbEntity
  8
0
100
AcDbBlockReference
  2
BLKF102
 10
0.0
 20
0.0
 30
0.0
  0
INSERT
  5
65C
330
1F
100
AcDbEntity
  8
0
100
AcDbBlockReference
  2
BLKF103
 10
0.0
 20
0.0
 30
0.0
  0
LINE
  5
668
330
1F
100
AcDbEntity
  8
GR1-1
  6
CONTINUOUS
 62
     4
100
AcDbLine
 10
790.898462
 20
82.358112
 30
0.0
 11
790.998462
 21
82.598112
 31
0.0
  0
LINE
  5
669
330
1F
100
AcDbEntity
  8
GR1-1
  6
CONTINUOUS
 62
     4
100
AcDbLine
 10
791.798462
 20
82.598112
 30
0.0
 11
791.898462
 21
82.358112
 31
0.0
  0
LINE
  5
66A
330
1F
100
AcDbEntity
  8
GR1-1
  6
CONTINUOUS
 62
     4
100
AcDbLine
 10
790.998462
 20
82.598112
 30
0.0
 11
791.798462
 21
82.598112
 31
0.0
  0
LINE
  5
66B
330
1F
100
AcDbEntity
  8
GR1-1
  6
CONTINUOUS
 62
     4
100
AcDbLine
 10
785.173462
 20
96.668947
 30
0.0
 11
797.673462
 21
96.668947
 31
0.0
  0
TEXT
  5
66C
330
1F
100
AcDbEntity
  8
GR1-1
  6
CONTINUOUS
 62
     4
100
AcDbText
 10
783.981953
 20
102.998828
 30
0.0
 40
2.0
  1
 D-D 断面図 
 41
0.746667
  7
FX_VECTOR
 72
     5
 11
797.421953
 21
102.998828
 31
0.0
100
AcDbText
  0
LINE
  5
66D
330
1F
100
AcDbEntity
  8
GR1-1
  6
CONTINUOUS
 62
     4
100
AcDbLine
 10
783.981911
 20
102.798837
 30
0.0
 11
797.421911
 21
102.798837
 31
0.0
  0
ELLIPSE
  5
66E
330
1F
100
AcDbEntity
  8
GR1-1
  6
CONTINUOUS
 62
     4
100
AcDbEllipse
 10
785.173462
 20
86.838112
 30
0.0
 11
9.307008289050067E-17
 21
-1.52
 31
0.0
210
0.0
220
0.0
230
1.0
 40
0.657895
 41
0.0
 42
3.141592653589793
  0
LINE
  5
66F
330
1F
100
AcDbEntity
  8
GR1-1
  6
CONTINUOUS
 62
     4
100
AcDbLine
 10
789.873462
 20
86.51353
 30
0.0
 11
792.973462
 21
85.914112
 31
0.0
  0
LINE
  5
670
330
1F
100
AcDbEntity
  8
GR1-1
  6
CONTINUOUS
 62
     4
100
AcDbLine
 10
789.873462
 20
92.51353
 30
0.0
 11
792.973462
 21
93.114112
 31
0.0
  0
INSERT
  5
674
330
1F
100
AcDbEntity
  8
0
100
AcDbBlockReference
  2
BLKF104
 10
0.0
 20
0.0
 30
0.0
  0
ELLIPSE
  5
680
330
1F
100
AcDbEntity
  8
GR1-1
  6
CONTINUOUS
 62
     4
100
AcDbEllipse
 10
797.673462
 20
86.838112
 30
0.0
 11
9.307008289050067E-17
 21
-1.52
 31
0.0
210
0.0
220
0.0
230
1.0
 40
0.657895
 41
3.141592653589793
 42
6.283185307179586
  0
LINE
  5
681
330
1F
100
AcDbEntity
  8
GR1-1
  6
CONTINUOUS
 62
     2
100
AcDbLine
 10
745.757761
 20
142.216337
 30
0.0
 11
745.563415
 21
140.931618
 31
0.0
  0
LINE
  5
682
330
1F
100
AcDbEntity
  8
GR1-1
  6
CONTINUOUS
 62
     2
100
AcDbLine
 10
740.497101
 20
141.585606
 30
0.0
 11
740.487465
 21
143.53211
 31
0.0
  0
INSERT
  5
686
330
1F
100
AcDbEntity
  8
0
100
AcDbBlockReference
  2
BLKF105
 10
0.0
 20
0.0
 30
0.0
  0
LINE
  5
68B
330
1F
100
AcDbEntity
  8
GR1-1
  6
CONTINUOUS
 62
     4
100
AcDbLine
 10
734.699509
 20
145.127147
 30
0.0
 11
734.699509
 21
130.816312
 31
0.0
  0
LINE
  5
68C
330
1F
100
AcDbEntity
  8
GR1-1
  6
CONTINUOUS
 62
     4
100
AcDbLine
 10
747.199509
 20
145.127147
 30
0.0
 11
747.199509
 21
130.816312
 31
0.0
  0
LINE
  5
68D
330
1F
100
AcDbEntity
  8
GR1-1
  6
CONTINUOUS
 62
     2
100
AcDbLine
 10
740.927716
 20
140.976623
 30
0.0
 11
742.90526
 21
141.45012
 31
0.0
  0
LINE
  5
68E
330
1F
100
AcDbEntity
  8
GR1-1
  6
CONTINUOUS
 62
     2
100
AcDbLine
 10
742.02069
 20
132.417961
 30
0.0
 11
743.90493
 21
134.225293
 31
0.0
  0
LINE
  5
68F
330
1F
100
AcDbEntity
  8
GR1-1
  6
CONTINUOUS
 62
     2
100
AcDbLine
 10
745.078299
 20
139.60856
 30
0.0
 11
742.499764
 21
133.867753
 31
0.0
  0
LINE
  5
690
330
1F
100
AcDbEntity
  8
GR1-1
  6
CONTINUOUS
 62
     4
100
AcDbLine
 10
734.699509
 20
130.816312
 30
0.0
 11
747.199509
 21
130.816312
 31
0.0
  0
LINE
  5
691
330
1F
100
AcDbEntity
  8
GR1-1
  6
CONTINUOUS
 62
     2
100
AcDbLine
 10
738.681556
 20
135.455874
 30
0.0
 11
739.782262
 21
134.259471
 31
0.0
  0
LINE
  5
692
330
1F
100
AcDbEntity
  8
GR1-1
  6
CONTINUOUS
 62
     2
100
AcDbLine
 10
737.635308
 20
136.445542
 30
0.0
 11
738.571968
 21
134.469575
 31
0.0
  0
LINE
  5
693
330
1F
100
AcDbEntity
  8
GR1-1
  6
CONTINUOUS
 62
     2
100
AcDbLine
 10
738.571968
 20
134.469575
 30
0.0
 11
738.890436
 21
131.018418
 31
0.0
  0
LINE
  5
694
330
1F
100
AcDbEntity
  8
GR1-1
  6
CONTINUOUS
 62
     2
100
AcDbLine
 10
739.771311
 20
132.00442
 30
0.0
 11
739.771311
 21
131.018418
 31
0.0
  0
LINE
  5
695
330
1F
100
AcDbEntity
  8
GR1-1
  6
CONTINUOUS
 62
     2
100
AcDbLine
 10
742.499764
 20
133.867753
 30
0.0
 11
739.837859
 21
132.869539
 31
0.0
  0
LINE
  5
696
330
1F
100
AcDbEntity
  8
GR1-1
  6
CONTINUOUS
 62
     2
100
AcDbLine
 10
740.702978
 20
132.503527
 30
0.0
 11
739.771311
 21
132.00442
 31
0.0
  0
LINE
  5
697
330
1F
100
AcDbEntity
  8
GR1-1
  6
CONTINUOUS
 62
     2
100
AcDbLine
 10
739.837859
 20
132.869539
 30
0.0
 11
739.782262
 21
134.259471
 31
0.0
  0
LINE
  5
698
330
1F
100
AcDbEntity
  8
GR1-1
  6
CONTINUOUS
 62
     2
100
AcDbLine
 10
742.02069
 20
132.417961
 30
0.0
 11
740.702978
 21
132.503527
 31
0.0
  0
LINE
  5
699
330
1F
100
AcDbEntity
  8
GR1-1
  6
CONTINUOUS
 62
     2
100
AcDbLine
 10
737.6941
 20
138.791771
 30
0.0
 11
739.205657
 21
140.023409
 31
0.0
  0
LINE
  5
69A
330
1F
100
AcDbEntity
  8
GR1-1
  6
CONTINUOUS
 62
     2
100
AcDbLine
 10
737.387634
 20
137.878781
 30
0.0
 11
734.981646
 21
139.640913
 31
0.0
  0
LINE
  5
69B
330
1F
100
AcDbEntity
  8
GR1-1
  6
CONTINUOUS
 62
     2
100
AcDbLine
 10
737.128762
 20
137.163076
 30
0.0
 11
734.879509
 21
136.968981
 31
0.0
  0
LINE
  5
69C
330
1F
100
AcDbEntity
  8
GR1-1
  6
CONTINUOUS
 62
     2
100
AcDbLine
 10
734.879509
 20
136.198221
 30
0.0
 11
736.524968
 21
136.580949
 31
0.0
  0
LINE
  5
69D
330
1F
100
AcDbEntity
  8
GR1-1
  6
CONTINUOUS
 62
     2
100
AcDbLine
 10
737.128762
 20
137.163076
 30
0.0
 11
737.387634
 21
137.878781
 31
0.0
  0
LINE
  5
69E
330
1F
100
AcDbEntity
  8
GR1-1
  6
CONTINUOUS
 62
     2
100
AcDbLine
 10
736.524968
 20
136.580949
 30
0.0
 11
737.635308
 21
136.445542
 31
0.0
  0
LINE
  5
69F
330
1F
100
AcDbEntity
  8
GR1-1
  6
CONTINUOUS
 62
     2
100
AcDbLine
 10
737.6941
 20
138.791771
 30
0.0
 11
734.879509
 21
141.010573
 31
0.0
  0
LINE
  5
6A0
330
1F
100
AcDbEntity
  8
GR1-1
  6
CONTINUOUS
 62
     2
100
AcDbLine
 10
734.981646
 20
139.640913
 30
0.0
 11
734.879509
 21
139.78731
 31
0.0
  0
LINE
  5
6A1
330
1F
100
AcDbEntity
  8
GR1-1
  6
CONTINUOUS
 62
     2
100
AcDbLine
 10
739.39708
 20
138.767421
 30
0.0
 11
737.941832
 21
137.373677
 31
0.0
  0
LINE
  5
6A2
330
1F
100
AcDbEntity
  8
GR1-1
  6
CONTINUOUS
 62
     2
100
AcDbLine
 10
737.941832
 20
137.373677
 30
0.0
 11
738.681556
 21
135.455874
 31
0.0
  0
LINE
  5
6A3
330
1F
100
AcDbEntity
  8
GR1-1
  6
CONTINUOUS
 62
     2
100
AcDbLine
 10
740.927716
 20
140.976623
 30
0.0
 11
740.148524
 21
139.928744
 31
0.0
  0
LINE
  5
6A4
330
1F
100
AcDbEntity
  8
GR1-1
  6
CONTINUOUS
 62
     2
100
AcDbLine
 10
739.205657
 20
140.023409
 30
0.0
 11
740.497101
 21
141.585606
 31
0.0
  0
LINE
  5
6A5
330
1F
100
AcDbEntity
  8
GR1-1
  6
CONTINUOUS
 62
     2
100
AcDbLine
 10
740.148524
 20
139.928744
 30
0.0
 11
739.39708
 21
138.767421
 31
0.0
  0
LINE
  5
6A6
330
1F
100
AcDbEntity
  8
GR1-1
  6
CONTINUOUS
 62
     2
100
AcDbLine
 10
745.680512
 20
133.642509
 30
0.0
 11
744.196959
 21
134.738623
 31
0.0
  0
LINE
  5
6A7
330
1F
100
AcDbEntity
  8
GR1-1
  6
CONTINUOUS
 62
     2
100
AcDbLine
 10
745.563846
 20
131.018418
 30
0.0
 11
745.499391
 21
132.322821
 31
0.0
  0
LINE
  5
6A8
330
1F
100
AcDbEntity
  8
GR1-1
  6
CONTINUOUS
 62
     2
100
AcDbLine
 10
746.591753
 20
131.713619
 30
0.0
 11
746.670268
 21
131.018418
 31
0.0
  0
LINE
  5
6A9
330
1F
100
AcDbEntity
  8
GR1-1
  6
CONTINUOUS
 62
     2
100
AcDbLine
 10
745.499391
 20
132.322821
 30
0.0
 11
743.90493
 21
134.225293
 31
0.0
  0
LINE
  5
6AA
330
1F
100
AcDbEntity
  8
GR1-1
  6
CONTINUOUS
 62
     2
100
AcDbLine
 10
745.680512
 20
133.642509
 30
0.0
 11
746.591753
 21
131.713619
 31
0.0
  0
LINE
  5
6AB
330
1F
100
AcDbEntity
  8
GR1-1
  6
CONTINUOUS
 62
     2
100
AcDbLine
 10
744.280986
 20
135.179769
 30
0.0
 11
745.591699
 21
138.71331
 31
0.0
  0
LINE
  5
6AC
330
1F
100
AcDbEntity
  8
GR1-1
  6
CONTINUOUS
 62
     2
100
AcDbLine
 10
744.196959
 20
134.738623
 30
0.0
 11
744.280986
 21
135.179769
 31
0.0
  0
LINE
  5
6AD
330
1F
100
AcDbEntity
  8
GR1-1
  6
CONTINUOUS
 62
     2
100
AcDbLine
 10
744.788468
 20
141.511362
 30
0.0
 11
745.078299
 21
139.60856
 31
0.0
  0
LINE
  5
6AE
330
1F
100
AcDbEntity
  8
GR1-1
  6
CONTINUOUS
 62
     2
100
AcDbLine
 10
742.90526
 20
141.45012
 30
0.0
 11
744.788468
 21
141.511362
 31
0.0
  0
LINE
  5
6AF
330
1F
100
AcDbEntity
  8
GR1-1
  6
CONTINUOUS
 62
     2
100
AcDbLine
 10
747.03566
 20
139.905417
 30
0.0
 11
745.901709
 21
139.916736
 31
0.0
  0
LINE
  5
6B0
330
1F
100
AcDbEntity
  8
GR1-1
  6
CONTINUOUS
 62
     2
100
AcDbLine
 10
745.591699
 20
138.71331
 30
0.0
 11
747.019509
 21
139.280172
 31
0.0
  0
LINE
  5
6B1
330
1F
100
AcDbEntity
  8
GR1-1
  6
CONTINUOUS
 62
     2
100
AcDbLine
 10
745.563415
 20
140.931618
 30
0.0
 11
745.901709
 21
139.916736
 31
0.0
  0
LINE
  5
6B2
330
1F
100
AcDbEntity
  8
GR1-1
  6
CONTINUOUS
 62
     2
100
AcDbLine
 10
742.032167
 20
141.785924
 30
0.0
 11
744.248479
 21
141.987407
 31
0.0
  0
LINE
  5
6B3
330
1F
100
AcDbEntity
  8
GR1-1
  6
CONTINUOUS
 62
     4
100
AcDbLine
 10
734.699509
 20
145.127147
 30
0.0
 11
747.199509
 21
145.127147
 31
0.0
  0
LINE
  5
6B4
330
1F
100
AcDbEntity
  8
GR1-1
  6
CONTINUOUS
 62
     2
100
AcDbLine
 10
740.487465
 20
143.53211
 30
0.0
 11
739.270743
 21
144.954739
 31
0.0
  0
LINE
  5
6B5
330
1F
100
AcDbEntity
  8
GR1-1
  6
CONTINUOUS
 62
     2
100
AcDbLine
 10
740.498073
 20
144.954739
 30
0.0
 11
741.091914
 21
144.136558
 31
0.0
  0
LINE
  5
6B6
330
1F
100
AcDbEntity
  8
GR1-1
  6
CONTINUOUS
 62
     2
100
AcDbLine
 10
741.159075
 20
141.920246
 30
0.0
 11
742.032167
 21
141.785924
 31
0.0
  0
LINE
  5
6B7
330
1F
100
AcDbEntity
  8
GR1-1
  6
CONTINUOUS
 62
     2
100
AcDbLine
 10
741.091914
 20
144.136558
 30
0.0
 11
741.159075
 21
141.920246
 31
0.0
  0
LINE
  5
6B8
330
1F
100
AcDbEntity
  8
GR1-1
  6
CONTINUOUS
 62
     2
100
AcDbLine
 10
744.248479
 20
141.987407
 30
0.0
 11
747.019509
 21
143.7055
 31
0.0
  0
LINE
  5
6B9
330
1F
100
AcDbEntity
  8
GR1-1
  6
CONTINUOUS
 62
     2
100
AcDbLine
 10
747.019509
 20
142.716685
 30
0.0
 11
745.757761
 21
142.216337
 31
0.0
  0
ARC
  5
6BA
330
1F
100
AcDbEntity
  8
GR1-1
  6
CONTINUOUS
 62
     4
100
AcDbCircle
 10
691.483247
 20
140.37173
 30
0.0
 40
0.6
100
AcDbArc
 50
90.0
 51
180.0
  0
ARC
  5
6BB
330
1F
100
AcDbEntity
  8
GR1-1
  6
CONTINUOUS
 62
     4
100
AcDbCircle
 10
701.806543
 20
140.37173
 30
0.0
 40
0.6
100
AcDbArc
 50
0.0
 51
90.0
  0
ARC
  5
6BC
330
1F
100
AcDbEntity
  8
GR1-1
  6
CONTINUOUS
 62
     4
100
AcDbCircle
 10
701.806543
 20
135.57173
 30
0.0
 40
0.6
100
AcDbArc
 50
270.0
 51
360.0
  0
ARC
  5
6BD
330
1F
100
AcDbEntity
  8
GR1-1
  6
CONTINUOUS
 62
     4
100
AcDbCircle
 10
691.483247
 20
135.57173
 30
0.0
 40
0.6
100
AcDbArc
 50
180.0
 51
270.0
  0
ARC
  5
6BE
330
1F
100
AcDbEntity
  8
GR1-1
  6
CONTINUOUS
 62
     4
100
AcDbCircle
 10
796.674162
 20
140.97173
 30
0.0
 40
0.6
100
AcDbArc
 50
90.0
 51
180.0
  0
LINE
  5
6BF
330
1F
100
AcDbEntity
  8
GR1-1
  6
CONTINUOUS
 62
     4
100
AcDbLine
 10
796.074162
 20
140.97173
 30
0.0
 11
796.674162
 21
140.37173
 31
0.0
  0
ARC
  5
6C0
330
1F
100
AcDbEntity
  8
GR1-1
  6
CONTINUOUS
 62
     4
100
AcDbCircle
 10
796.674162
 20
134.97173
 30
0.0
 40
0.6
100
AcDbArc
 50
180.0
 51
270.0
  0
LINE
  5
6C1
330
1F
100
AcDbEntity
  8
GR1-1
  6
CONTINUOUS
 62
     4
100
AcDbLine
 10
796.074162
 20
134.97173
 30
0.0
 11
796.674162
 21
135.57173
 31
0.0
  0
LINE
  5
6C2
330
1F
100
AcDbEntity
  8
GR1-1
  6
CONTINUOUS
 62
     4
100
AcDbLine
 10
796.074162
 20
134.97173
 30
0.0
 11
796.074162
 21
140.97173
 31
0.0
  0
INSERT
  5
6C6
330
1F
100
AcDbEntity
  8
0
100
AcDbBlockReference
  2
BLKF106
 10
0.0
 20
0.0
 30
0.0
  0
ARC
  5
6CB
330
1F
100
AcDbEntity
  8
GR1-1
  6
CONTINUOUS
 62
     4
100
AcDbCircle
 10
807.597798
 20
140.37173
 30
0.0
 40
0.6
100
AcDbArc
 50
0.0
 51
90.0
  0
LINE
  5
6CC
330
1F
100
AcDbEntity
  8
GR1-1
  6
CONTINUOUS
 62
     4
100
AcDbLine
 10
808.197798
 20
140.37173
 30
0.0
 11
808.797798
 21
140.97173
 31
0.0
  0
ARC
  5
6CD
330
1F
100
AcDbEntity
  8
GR1-1
  6
CONTINUOUS
 62
     4
100
AcDbCircle
 10
808.197798
 20
140.97173
 30
0.0
 40
0.6
100
AcDbArc
 50
0.0
 51
90.0
  0
ARC
  5
6CE
330
1F
100
AcDbEntity
  8
GR1-1
  6
CONTINUOUS
 62
     4
100
AcDbCircle
 10
808.197798
 20
134.97173
 30
0.0
 40
0.6
100
AcDbArc
 50
270.0
 51
360.0
  0
ARC
  5
6CF
330
1F
100
AcDbEntity
  8
GR1-1
  6
CONTINUOUS
 62
     4
100
AcDbCircle
 10
807.597798
 20
135.57173
 30
0.0
 40
0.6
100
AcDbArc
 50
270.0
 51
360.0
  0
LINE
  5
6D0
330
1F
100
AcDbEntity
  8
GR1-1
  6
CONTINUOUS
 62
     4
100
AcDbLine
 10
808.797798
 20
134.97173
 30
0.0
 11
808.197798
 21
135.57173
 31
0.0
  0
ARC
  5
6D1
330
1F
100
AcDbEntity
  8
GR1-1
  6
CONTINUOUS
 62
     4
100
AcDbCircle
 10
797.274162
 20
135.57173
 30
0.0
 40
0.6
100
AcDbArc
 50
180.0
 51
270.0
  0
LINE
  5
6D2
330
1F
100
AcDbEntity
  8
GR1-1
  6
CONTINUOUS
 62
     4
100
AcDbLine
 10
807.597798
 20
134.97173
 30
0.0
 11
797.274162
 21
134.97173
 31
0.0
  0
LINE
  5
6D3
330
1F
100
AcDbEntity
  8
GR1-1
  6
CONTINUOUS
 62
     4
100
AcDbLine
 10
808.197798
 20
134.37173
 30
0.0
 11
796.674162
 21
134.37173
 31
0.0
  0
LINE
  5
6D4
330
1F
100
AcDbEntity
  8
GR1-1
  6
CONTINUOUS
 62
     4
100
AcDbLine
 10
796.674162
 20
134.37173
 30
0.0
 11
797.274162
 21
134.97173
 31
0.0
  0
LINE
  5
6D5
330
1F
100
AcDbEntity
  8
GR1-1
  6
CONTINUOUS
 62
     4
100
AcDbLine
 10
807.597798
 20
134.97173
 30
0.0
 11
808.197798
 21
134.37173
 31
0.0
  0
LINE
  5
6D6
330
1F
100
AcDbEntity
  8
GR1-1
  6
CONTINUOUS
 62
     4
100
AcDbLine
 10
807.597798
 20
140.97173
 30
0.0
 11
797.274162
 21
140.97173
 31
0.0
  0
LINE
  5
6D7
330
1F
100
AcDbEntity
  8
GR1-1
  6
CONTINUOUS
 62
     4
100
AcDbLine
 10
808.197798
 20
141.57173
 30
0.0
 11
796.674162
 21
141.57173
 31
0.0
  0
LINE
  5
6D8
330
1F
100
AcDbEntity
  8
GR1-1
  6
CONTINUOUS
 62
     4
100
AcDbLine
 10
796.674162
 20
135.57173
 30
0.0
 11
796.674162
 21
140.37173
 31
0.0
  0
LINE
  5
6D9
330
1F
100
AcDbEntity
  8
GR1-1
  6
CONTINUOUS
 62
     4
100
AcDbLine
 10
796.674162
 20
141.57173
 30
0.0
 11
797.274162
 21
140.97173
 31
0.0
  0
ARC
  5
6DA
330
1F
100
AcDbEntity
  8
GR1-1
  6
CONTINUOUS
 62
     4
100
AcDbCircle
 10
797.274162
 20
140.37173
 30
0.0
 40
0.6
100
AcDbArc
 50
90.0
 51
180.0
  0
LINE
  5
6DB
330
1F
100
AcDbEntity
  8
GR1-1
  6
CONTINUOUS
 62
     4
100
AcDbLine
 10
808.197798
 20
140.37173
 30
0.0
 11
808.197798
 21
135.57173
 31
0.0
  0
INSERT
  5
6DF
330
1F
100
AcDbEntity
  8
0
100
AcDbBlockReference
  2
BLKF107
 10
0.0
 20
0.0
 30
0.0
  0
LINE
  5
6E4
330
1F
100
AcDbEntity
  8
GR1-1
  6
CONTINUOUS
 62
     4
100
AcDbLine
 10
808.197798
 20
141.57173
 30
0.0
 11
807.597798
 21
140.97173
 31
0.0
  0
LINE
  5
6E5
330
1F
100
AcDbEntity
  8
GR1-1
  6
CONTINUOUS
 62
     4
100
AcDbLine
 10
808.797798
 20
140.97173
 30
0.0
 11
808.797798
 21
134.97173
 31
0.0
  0
INSERT
  5
6E9
330
1F
100
AcDbEntity
  8
0
100
AcDbBlockReference
  2
BLKF108
 10
0.0
 20
0.0
 30
0.0
  0
LINE
  5
6EE
330
1F
100
AcDbEntity
  8
GR1-1
  6
CONTINUOUS
 62
     2
100
AcDbLine
 10
751.238405
 20
182.475977
 30
0.0
 11
761.669827
 21
182.475977
 31
0.0
  0
INSERT
  5
6F2
330
1F
100
AcDbEntity
  8
0
100
AcDbBlockReference
  2
BLKF109
 10
0.0
 20
0.0
 30
0.0
  0
TEXT
  5
6F7
330
1F
100
AcDbEntity
  8
GR1-1
  6
CONTINUOUS
 62
     4
100
AcDbText
 10
753.107188
 20
180.681426
 30
0.0
 40
1.5
  1
LKP-75
 41
0.7
  7
FX_VECTOR
 72
     5
 11
759.407187
 21
180.681426
 31
0.0
100
AcDbText
  0
ENDSEC
  0
SECTION
  2
OBJECTS
  0
DICTIONARY
  5
C
330
0
100
AcDbDictionary
  3
ACAD_GROUP
350
D
  3
ACAD_LAYOUT
350
1A
  3
ACAD_MLINESTYLE
350
17
  3
ACAD_PLOTSETTINGS
350
19
1001
ACAD
1000
TREAT_AS_HARD
1070
     0
  0
DICTIONARY
  5
6FE
330
29
100
AcDbDictionary
  3
ACAD_XREC_ROUNDTRIP
360
6FF
  0
DICTIONARY
  5
D
102
{ACAD_REACTORS
330
C
102
}
330
C
100
AcDbDictionary
1001
ACAD
1000
TREAT_AS_HARD
1070
     0
  0
DICTIONARY
  5
1A
102
{ACAD_REACTORS
330
C
102
}
330
C
100
AcDbDictionary
1001
ACAD
1000
TREAT_AS_HARD
1070
     0
  0
DICTIONARY
  5
17
102
{ACAD_REACTORS
330
C
102
}
330
C
100
AcDbDictionary
  3
STANDARD
350
18
1001
ACAD
1000
TREAT_AS_HARD
1070
     0
  0
DICTIONARY
  5
19
102
{ACAD_REACTORS
330
C
102
}
330
C
100
AcDbDictionary
1001
ACAD
1000
TREAT_AS_HARD
1070
     0
  0
XRECORD
  5
6FF
102
{ACAD_REACTORS
330
6FE
102
}
330
6FE
100
AcDbXrecord
102
UCS
 74
     0
 71
     1
 10
0.0
 20
0.0
 30
0.0
 10
1.0
 20
0.0
 30
0.0
 10
0.0
 20
1.0
 30
0.0
146
0.0
 79
     0
102
VIEW
281
     0
  0
MLINESTYLE
  5
18
102
{ACAD_REACTORS
330
17
102
}
330
17
100
AcDbMlineStyle
  2
Standard
 70
     0
  3

 62
   256
 51
90.0
 52
90.0
 71
     2
 49
0.5
 62
   256
  6
BYLAYER
 49
-0.5
 62
   256
  6
BYLAYER
  0
ENDSEC
  0
EOF
