  0
SECTION
  2
HEADER
  9
$ACADVER
  1
AC1012
  9
$DWGCODEPAGE
  3
ansi_932
  9
$INSBASE
 10
591.720957
 20
8.11036
 30
0.0
  9
$EXTMIN
 10
591.720957
 20
8.11036
 30
0.0
  9
$EXTMAX
 10
962.970964
 20
270.610366
 30
0.0
  9
$LIMMIN
 10
591.720957
 20
8.11036
  9
$LIMMAX
 10
962.970964
 20
270.610366
  9
$ORTHOMODE
 70
     0
  9
$REGENMODE
 70
     1
  9
$FILLMODE
 70
     1
  9
$QTEXTMODE
 70
     0
  9
$MIRRTEXT
 70
     1
  9
$DRAGMODE
 70
     2
  9
$LTSCALE
 40
1.0
  9
$OSMODE
 70
    37
  9
$ATTMODE
 70
     1
  9
$TEXTSIZE
 40
0.2
  9
$TRACEWID
 40
0.05
  9
$TEXTSTYLE
  7
STYLE1
  9
$CLAYER
  8
0
  9
$CELTYPE
  6
BYLAYER
  9
$CECOLOR
 62
   256
  9
$CELTSCALE
 40
1.0
  9
$DELOBJ
 70
     1
  9
$DISPSILH
 70
     0
  9
$DIMSCALE
 40
1.0
  9
$DIMASZ
 40
2.0
  9
$DIMEXO
 40
2.0
  9
$DIMDLI
 40
7.0
  9
$DIMRND
 40
0.0
  9
$DIMDLE
 40
6.0
  9
$DIMEXE
 40
1.0
  9
$DIMTP
 40
0.0
  9
$DIMTM
 40
0.0
  9
$DIMTXT
 40
3.5
  9
$DIMCEN
 40
2.5
  9
$DIMTSZ
 40
0.0
  9
$DIMTOL
 70
     0
  9
$DIMLIM
 70
     0
  9
$DIMTIH
 70
     0
  9
$DIMTOH
 70
     0
  9
$DIMSE1
 70
     0
  9
$DIMSE2
 70
     0
  9
$DIMTAD
 70
     1
  9
$DIMZIN
 70
     8
  9
$DIMBLK
  1

  9
$DIMASO
 70
     1
  9
$DIMSHO
 70
     1
  9
$DIMPOST
  1

  9
$DIMAPOST
  1

  9
$DIMALT
 70
     0
  9
$DIMALTD
 70
     3
  9
$DIMALTF
 40
0.03937
  9
$DIMLFAC
 40
1.0
  9
$DIMTOFL
 70
     1
  9
$DIMTVP
 40
0.0
  9
$DIMTIX
 70
     0
  9
$DIMSOXD
 70
     0
  9
$DIMSAH
 70
     1
  9
$DIMBLK1
  1
FXTIP_ARROW_S
  9
$DIMBLK2
  1
FXTIP_ARROW_E
  9
$DIMSTYLE
  2
FXDIMINFO
  9
$DIMCLRD
 70
     7
  9
$DIMCLRE
 70
     7
  9
$DIMCLRT
 70
     7
  9
$DIMTFAC
 40
1.0
  9
$DIMGAP
 40
1.0
  9
$DIMJUST
 70
     0
  9
$DIMSD1
 70
     0
  9
$DIMSD2
 70
     0
  9
$DIMTOLJ
 70
     0
  9
$DIMTZIN
 70
     8
  9
$DIMALTZ
 70
     0
  9
$DIMALTTZ
 70
     0
  9
$DIMFIT
 70
     3
  9
$DIMUPT
 70
     0
  9
$DIMUNIT
 70
     2
  9
$DIMDEC
 70
     2
  9
$DIMTDEC
 70
     2
  9
$DIMALTU
 70
     2
  9
$DIMALTTD
 70
     3
  9
$DIMTXSTY
  7
STYLE1
  9
$DIMAUNIT
 70
     0
  9
$LUNITS
 70
     2
  9
$LUPREC
 70
     4
  9
$SKETCHINC
 40
0.1
  9
$FILLETRAD
 40
0.5
  9
$AUNITS
 70
     0
  9
$AUPREC
 70
     0
  9
$MENU
  1
.
  9
$ELEVATION
 40
0.0
  9
$PELEVATION
 40
0.0
  9
$THICKNESS
 40
0.0
  9
$LIMCHECK
 70
     0
  9
$CHAMFERA
 40
0.5
  9
$CHAMFERB
 40
0.5
  9
$CHAMFERC
 40
1.0
  9
$CHAMFERD
 40
0.0
  9
$SKPOLY
 70
     0
  9
$TDCREATE
 40
2455587.673132408
  9
$TDUPDATE
 40
2455587.673132419
  9
$TDINDWG
 40
0.0000000116
  9
$TDUSRTIMER
 40
0.0000000116
  9
$USRTIMER
 70
     1
  9
$ANGBASE
 50
0.0
  9
$ANGDIR
 70
     0
  9
$PDMODE
 70
     0
  9
$PDSIZE
 40
0.0
  9
$PLINEWID
 40
0.0
  9
$COORDS
 70
     1
  9
$SPLFRAME
 70
     0
  9
$SPLINETYPE
 70
     6
  9
$SPLINESEGS
 70
     8
  9
$ATTDIA
 70
     0
  9
$ATTREQ
 70
     1
  9
$HANDLING
 70
     1
  9
$HANDSEED
  5
70E
  9
$SURFTAB1
 70
     6
  9
$SURFTAB2
 70
     6
  9
$SURFTYPE
 70
     6
  9
$SURFU
 70
     6
  9
$SURFV
 70
     6
  9
$UCSNAME
  2

  9
$UCSORG
 10
0.0
 20
0.0
 30
0.0
  9
$UCSXDIR
 10
1.0
 20
0.0
 30
0.0
  9
$UCSYDIR
 10
0.0
 20
1.0
 30
0.0
  9
$PUCSNAME
  2

  9
$PUCSORG
 10
0.0
 20
0.0
 30
0.0
  9
$PUCSXDIR
 10
1.0
 20
0.0
 30
0.0
  9
$PUCSYDIR
 10
0.0
 20
1.0
 30
0.0
  9
$USERI1
 70
     0
  9
$USERI2
 70
     0
  9
$USERI3
 70
     0
  9
$USERI4
 70
     0
  9
$USERI5
 70
     0
  9
$USERR1
 40
0.0
  9
$USERR2
 40
0.0
  9
$USERR3
 40
0.0
  9
$USERR4
 40
0.0
  9
$USERR5
 40
0.0
  9
$WORLDVIEW
 70
     1
  9
$SHADEDGE
 70
     3
  9
$SHADEDIF
 70
    70
  9
$TILEMODE
 70
     1
  9
$MAXACTVP
 70
    64
  9
$PINSBASE
 10
0.0
 20
0.0
 30
0.0
  9
$PLIMCHECK
 70
     0
  9
$PEXTMIN
 10
1.000000E+20
 20
1.000000E+20
 30
1.000000E+20
  9
$PEXTMAX
 10
-1.000000E+20
 20
-1.000000E+20
 30
-1.000000E+20
  9
$PLIMMIN
 10
0.0
 20
0.0
  9
$PLIMMAX
 10
12.0
 20
9.0
  9
$UNITMODE
 70
     0
  9
$VISRETAIN
 70
     1
  9
$PLINEGEN
 70
     0
  9
$PSLTSCALE
 70
     1
  9
$TREEDEPTH
 70
  3020
  9
$PICKSTYLE
 70
     1
  9
$CMLSTYLE
  2
STANDARD
  9
$CMLJUST
 70
     0
  9
$CMLSCALE
 40
1.0
  9
$SAVEIMAGES
 70
     1
  0
ENDSEC
  0
SECTION
  2
CLASSES
  0
CLASS
  1
ACDBDICTIONARYWDFLT
  2
AcDbDictionaryWithDefault
  3
ObjectDBX Classes
 90
        0
280
     0
281
     0
  0
CLASS
  1
XRECORD
  2
AcDbXrecord
  3
AutoCAD 2000
 90
    32768
280
     0
281
     0
  0
CLASS
  1
LWPOLYLINE
  2
AcDbPolyline
  3
AutoCAD 2000
 90
    32768
280
     0
281
     1
  0
CLASS
  1
HATCH
  2
AcDbHatch
  3
AutoCAD 2000
 90
    32768
280
     0
281
     1
  0
CLASS
  1
ACDBPLACEHOLDER
  2
AcDbPlaceHolder
  3
ObjectDBX Classes
 90
        0
280
     0
281
     0
  0
CLASS
  1
LAYOUT
  2
AcDbLayout
  3
ObjectDBX Classes
 90
        0
280
     0
281
     0
  0
ENDSEC
  0
SECTION
  2
TABLES
  0
TABLE
  2
VPORT
  5
8
330
0
100
AcDbSymbolTable
 70
     1
  0
VPORT
  5
29
102
{ACAD_XDICTIONARY
360
70C
102
}
330
8
100
AcDbSymbolTableRecord
100
AcDbViewportTableRecord
  2
*ACTIVE
 70
     0
 10
0.0
 20
0.0
 11
1.0
 21
1.0
 12
777.34596
 22
139.360363
 13
0.0
 23
0.0
 14
0.5
 24
0.5
 15
0.5
 25
0.5
 16
0.0
 26
0.0
 36
1.0
 17
0.0
 27
0.0
 37
0.0
 40
262.500005
 41
1.414286
 42
50.0
 43
0.0
 44
0.0
 50
0.0
 51
0.0
 71
     0
 72
   100
 73
     1
 74
     3
 75
     0
 76
     0
 77
     0
 78
     0
  0
ENDTAB
  0
TABLE
  2
LTYPE
  5
5
330
0
100
AcDbSymbolTable
 70
     6
  0
LTYPE
  5
14
330
5
100
AcDbSymbolTableRecord
100
AcDbLinetypeTableRecord
  2
BYBLOCK
 70
     0
  3

 72
    65
 73
     0
 40
0.0
  0
LTYPE
  5
15
330
5
100
AcDbSymbolTableRecord
100
AcDbLinetypeTableRecord
  2
BYLAYER
 70
     0
  3

 72
    65
 73
     0
 40
0.0
  0
LTYPE
  5
16
330
5
100
AcDbSymbolTableRecord
100
AcDbLinetypeTableRecord
  2
CONTINUOUS
 70
     0
  3
--------------------
 72
    65
 73
     0
 40
0.0
  0
LTYPE
  5
A6
330
5
100
AcDbSymbolTableRecord
100
AcDbLinetypeTableRecord
  2
極太の実線
 70
     0
  3

 72
    65
 73
     0
 40
0.0
  0
LTYPE
  5
AF
330
5
100
AcDbSymbolTableRecord
100
AcDbLinetypeTableRecord
  2
太い実線
 70
     0
  3

 72
    65
 73
     0
 40
0.0
  0
LTYPE
  5
B6
330
5
100
AcDbSymbolTableRecord
100
AcDbLinetypeTableRecord
  2
細い実線
 70
     0
  3

 72
    65
 73
     0
 40
0.0
  0
LTYPE
  5
CC
330
5
100
AcDbSymbolTableRecord
100
AcDbLinetypeTableRecord
  2
020-1-CENTER2
 70
     0
  3

 72
    65
 73
     4
 40
1.0
 49
0.7
 74
     0
 49
-0.1
 74
     0
 49
0.1
 74
     0
 49
-0.1
 74
     0
  0
LTYPE
  5
5D6
330
5
100
AcDbSymbolTableRecord
100
AcDbLinetypeTableRecord
  2
HIDDEN2
 70
     0
  3

 72
    65
 73
     2
 40
0.2
 49
0.1
 74
     0
 49
-0.1
 74
     0
  0
ENDTAB
  0
TABLE
  2
LAYER
  5
2
330
0
100
AcDbSymbolTable
 70
    19
  0
LAYER
  5
10
330
2
100
AcDbSymbolTableRecord
100
AcDbLayerTableRecord
  2
0
 70
     0
 62
     7
  6
CONTINUOUS
  0
LAYER
  5
A5
330
2
100
AcDbSymbolTableRecord
100
AcDbLayerTableRecord
  2
GR1-1
 70
     0
 62
     7
  6
CONTINUOUS
  0
ENDTAB
  0
TABLE
  2
STYLE
  5
3
330
0
100
AcDbSymbolTable
 70
     4
  0
STYLE
  5
11
330
3
100
AcDbSymbolTableRecord
100
AcDbTextStyleTableRecord
  2
STANDARD
 70
     0
 40
0.0
 41
1.0
 50
0.0
 71
     0
 42
0.2
  3
txt
  4

  0
STYLE
  5
3C
330
3
100
AcDbSymbolTableRecord
100
AcDbTextStyleTableRecord
  2
STYLE1
 70
     0
 40
0.0
 41
1.0
 50
0.0
 71
     0
 42
0.2
  3
MONOTXT.SHX
  4
extfont.shx
  0
STYLE
  5
3D
330
3
100
AcDbSymbolTableRecord
100
AcDbTextStyleTableRecord
  2
FX_VECTOR
 70
     0
 40
0.0
 41
1.0
 50
0.0
 71
     0
 42
0.2
  3
MONOTXT.SHX
  4
BIGFONT.SHX
  0
ENDTAB
  0
TABLE
  2
VIEW
  5
6
330
0
100
AcDbSymbolTable
 70
     0
  0
ENDTAB
  0
TABLE
  2
UCS
  5
7
330
0
100
AcDbSymbolTable
 70
     0
  0
ENDTAB
  0
TABLE
  2
APPID
  5
9
330
0
100
AcDbSymbolTable
 70
     1
  0
APPID
  5
12
330
9
100
AcDbSymbolTableRecord
100
AcDbRegAppTableRecord
  2
ACAD
 70
     0
  0
ENDTAB
  0
TABLE
  2
DIMSTYLE
  5
A
330
0
100
AcDbSymbolTable
 70
     2
  0
DIMSTYLE
105
27
330
A
100
AcDbSymbolTableRecord
100
AcDbDimStyleTableRecord
  2
STANDARD
 70
     0
  3

  4

  5

  6

  7

 40
1.0
 41
0.18
 42
0.0625
 43
0.38
 44
0.18
 45
0.0
 46
0.0
 47
0.0
 48
0.0
140
0.18
141
0.09
142
0.0
143
25.4
144
1.0
145
0.0
146
1.0
147
0.09
 71
     0
 72
     0
 73
     1
 74
     1
 75
     0
 76
     0
 77
     0
 78
     0
170
     0
171
     2
172
     0
173
     0
174
     0
175
     0
176
     0
177
     0
178
     0
270
     2
271
     4
272
     4
273
     2
274
     2
340
11
275
     0
280
     0
281
     0
282
     0
283
     1
284
     0
285
     0
286
     0
287
     3
288
     0
  0
DIMSTYLE
105
A4
330
A
100
AcDbSymbolTableRecord
100
AcDbDimStyleTableRecord
  2
FXDIMINFO
 70
     0
  3

  4

  5

  6
FXTIP_ARROW_S
  7
FXTIP_ARROW_E
 40
1.0
 41
2.0
 42
2.0
 43
7.0
 44
1.0
 45
0.0
 46
6.0
 47
0.0
 48
0.0
140
3.5
141
2.5
142
0.0
143
0.03937
144
1.0
145
0.0
146
1.0
147
1.0
 71
     0
 72
     0
 73
     0
 74
     0
 75
     0
 76
     0
 77
     1
 78
     8
170
     0
171
     3
172
     1
173
     1
174
     0
175
     0
176
     7
177
     7
178
     7
179
     2
270
     2
271
     2
272
     2
273
     2
274
     3
340
3C
275
     0
280
     0
281
     0
282
     0
283
     0
284
     8
285
     0
286
     0
287
     3
288
     0
  0
ENDTAB
  0
TABLE
  2
BLOCK_RECORD
  5
1
330
0
100
AcDbSymbolTable
 70
   109
  0
BLOCK_RECORD
  5
1F
330
1
100
AcDbSymbolTableRecord
100
AcDbBlockTableRecord
  2
*MODEL_SPACE
  0
BLOCK_RECORD
  5
1B
330
1
100
AcDbSymbolTableRecord
100
AcDbBlockTableRecord
  2
*PAPER_SPACE
  0
BLOCK_RECORD
  5
3E
330
1
100
AcDbSymbolTableRecord
100
AcDbBlockTableRecord
  2
FXTIP_ARROW_S
  0
BLOCK_RECORD
  5
44
330
1
100
AcDbSymbolTableRecord
100
AcDbBlockTableRecord
  2
FXTIP_ARROW_E
  0
BLOCK_RECORD
  5
4A
330
1
100
AcDbSymbolTableRecord
100
AcDbBlockTableRecord
  2
FXTIP_BLACKDOT_S
  0
BLOCK_RECORD
  5
50
330
1
100
AcDbSymbolTableRecord
100
AcDbBlockTableRecord
  2
FXTIP_BLACKDOT_E
  0
BLOCK_RECORD
  5
56
330
1
100
AcDbSymbolTableRecord
100
AcDbBlockTableRecord
  2
FXTIP_TRIANGLE_S
  0
BLOCK_RECORD
  5
5D
330
1
100
AcDbSymbolTableRecord
100
AcDbBlockTableRecord
  2
FXTIP_TRIANGLE_E
  0
BLOCK_RECORD
  5
64
330
1
100
AcDbSymbolTableRecord
100
AcDbBlockTableRecord
  2
FXTIP_ARCHITECT_S
  0
BLOCK_RECORD
  5
6A
330
1
100
AcDbSymbolTableRecord
100
AcDbBlockTableRecord
  2
FXTIP_ARCHITECT_E
  0
BLOCK_RECORD
  5
70
330
1
100
AcDbSymbolTableRecord
100
AcDbBlockTableRecord
  2
FXTIP_CIVIL_S
  0
BLOCK_RECORD
  5
76
330
1
100
AcDbSymbolTableRecord
100
AcDbBlockTableRecord
  2
FXTIP_CIVIL_E
  0
BLOCK_RECORD
  5
7C
330
1
100
AcDbSymbolTableRecord
100
AcDbBlockTableRecord
  2
FXTIP_WHITEDOT_S
  0
BLOCK_RECORD
  5
81
330
1
100
AcDbSymbolTableRecord
100
AcDbBlockTableRecord
  2
FXTIP_WHITEDOT_E
  0
BLOCK_RECORD
  5
86
330
1
100
AcDbSymbolTableRecord
100
AcDbBlockTableRecord
  2
FXTIP_UPARROW_S
  0
BLOCK_RECORD
  5
8B
330
1
100
AcDbSymbolTableRecord
100
AcDbBlockTableRecord
  2
FXTIP_UPARROW_E
  0
BLOCK_RECORD
  5
90
330
1
100
AcDbSymbolTableRecord
100
AcDbBlockTableRecord
  2
FXTIP_DOWNARROW_S
  0
BLOCK_RECORD
  5
95
330
1
100
AcDbSymbolTableRecord
100
AcDbBlockTableRecord
  2
FXTIP_DOWNARROW_E
  0
BLOCK_RECORD
  5
9A
330
1
100
AcDbSymbolTableRecord
100
AcDbBlockTableRecord
  2
FXTIP_BLACKTRIANGLE_S
  0
BLOCK_RECORD
  5
9F
330
1
100
AcDbSymbolTableRecord
100
AcDbBlockTableRecord
  2
FXTIP_BLACKTRIANGLE_E
  0
BLOCK_RECORD
  5
DC
330
1
100
AcDbSymbolTableRecord
100
AcDbBlockTableRecord
  2
BLKF021
  0
BLOCK_RECORD
  5
EB
330
1
100
AcDbSymbolTableRecord
100
AcDbBlockTableRecord
  2
BLKF022
  0
BLOCK_RECORD
  5
FE
330
1
100
AcDbSymbolTableRecord
100
AcDbBlockTableRecord
  2
BLKF023
  0
BLOCK_RECORD
  5
10D
330
1
100
AcDbSymbolTableRecord
100
AcDbBlockTableRecord
  2
BLKF024
  0
BLOCK_RECORD
  5
115
330
1
100
AcDbSymbolTableRecord
100
AcDbBlockTableRecord
  2
BLKF025
  0
BLOCK_RECORD
  5
121
330
1
100
AcDbSymbolTableRecord
100
AcDbBlockTableRecord
  2
BLKF026
  0
BLOCK_RECORD
  5
130
330
1
100
AcDbSymbolTableRecord
100
AcDbBlockTableRecord
  2
BLKF027
  0
BLOCK_RECORD
  5
13F
330
1
100
AcDbSymbolTableRecord
100
AcDbBlockTableRecord
  2
BLKF028
  0
BLOCK_RECORD
  5
14E
330
1
100
AcDbSymbolTableRecord
100
AcDbBlockTableRecord
  2
BLKF029
  0
BLOCK_RECORD
  5
15D
330
1
100
AcDbSymbolTableRecord
100
AcDbBlockTableRecord
  2
BLKF030
  0
BLOCK_RECORD
  5
16C
330
1
100
AcDbSymbolTableRecord
100
AcDbBlockTableRecord
  2
BLKF031
  0
BLOCK_RECORD
  5
17B
330
1
100
AcDbSymbolTableRecord
100
AcDbBlockTableRecord
  2
BLKF032
  0
BLOCK_RECORD
  5
18A
330
1
100
AcDbSymbolTableRecord
100
AcDbBlockTableRecord
  2
BLKF033
  0
BLOCK_RECORD
  5
198
330
1
100
AcDbSymbolTableRecord
100
AcDbBlockTableRecord
  2
BLKF034
  0
BLOCK_RECORD
  5
1A8
330
1
100
AcDbSymbolTableRecord
100
AcDbBlockTableRecord
  2
BLKF035
  0
BLOCK_RECORD
  5
1B6
330
1
100
AcDbSymbolTableRecord
100
AcDbBlockTableRecord
  2
BLKF036
  0
BLOCK_RECORD
  5
1C5
330
1
100
AcDbSymbolTableRecord
100
AcDbBlockTableRecord
  2
BLKF037
  0
BLOCK_RECORD
  5
1D4
330
1
100
AcDbSymbolTableRecord
100
AcDbBlockTableRecord
  2
BLKF038
  0
BLOCK_RECORD
  5
1E3
330
1
100
AcDbSymbolTableRecord
100
AcDbBlockTableRecord
  2
BLKF039
  0
BLOCK_RECORD
  5
1F2
330
1
100
AcDbSymbolTableRecord
100
AcDbBlockTableRecord
  2
BLKF040
  0
BLOCK_RECORD
  5
201
330
1
100
AcDbSymbolTableRecord
100
AcDbBlockTableRecord
  2
BLKF041
  0
BLOCK_RECORD
  5
210
330
1
100
AcDbSymbolTableRecord
100
AcDbBlockTableRecord
  2
BLKF042
  0
BLOCK_RECORD
  5
21E
330
1
100
AcDbSymbolTableRecord
100
AcDbBlockTableRecord
  2
BLKF043
  0
BLOCK_RECORD
  5
263
330
1
100
AcDbSymbolTableRecord
100
AcDbBlockTableRecord
  2
BLKF044
  0
BLOCK_RECORD
  5
272
330
1
100
AcDbSymbolTableRecord
100
AcDbBlockTableRecord
  2
BLKF045
  0
BLOCK_RECORD
  5
281
330
1
100
AcDbSymbolTableRecord
100
AcDbBlockTableRecord
  2
BLKF046
  0
BLOCK_RECORD
  5
290
330
1
100
AcDbSymbolTableRecord
100
AcDbBlockTableRecord
  2
BLKF047
  0
BLOCK_RECORD
  5
29F
330
1
100
AcDbSymbolTableRecord
100
AcDbBlockTableRecord
  2
BLKF048
  0
BLOCK_RECORD
  5
2AE
330
1
100
AcDbSymbolTableRecord
100
AcDbBlockTableRecord
  2
BLKF049
  0
BLOCK_RECORD
  5
2BD
330
1
100
AcDbSymbolTableRecord
100
AcDbBlockTableRecord
  2
BLKF050
  0
BLOCK_RECORD
  5
2CB
330
1
100
AcDbSymbolTableRecord
100
AcDbBlockTableRecord
  2
BLKF051
  0
BLOCK_RECORD
  5
2D9
330
1
100
AcDbSymbolTableRecord
100
AcDbBlockTableRecord
  2
BLKF052
  0
BLOCK_RECORD
  5
2E8
330
1
100
AcDbSymbolTableRecord
100
AcDbBlockTableRecord
  2
BLKF053
  0
BLOCK_RECORD
  5
2F6
330
1
100
AcDbSymbolTableRecord
100
AcDbBlockTableRecord
  2
BLKF054
  0
BLOCK_RECORD
  5
307
330
1
100
AcDbSymbolTableRecord
100
AcDbBlockTableRecord
  2
BLKF055
  0
BLOCK_RECORD
  5
32B
330
1
100
AcDbSymbolTableRecord
100
AcDbBlockTableRecord
  2
BLKF056
  0
BLOCK_RECORD
  5
33A
330
1
100
AcDbSymbolTableRecord
100
AcDbBlockTableRecord
  2
BLKF057
  0
BLOCK_RECORD
  5
348
330
1
100
AcDbSymbolTableRecord
100
AcDbBlockTableRecord
  2
BLKF058
  0
BLOCK_RECORD
  5
35B
330
1
100
AcDbSymbolTableRecord
100
AcDbBlockTableRecord
  2
BLKF059
  0
BLOCK_RECORD
  5
369
330
1
100
AcDbSymbolTableRecord
100
AcDbBlockTableRecord
  2
BLKF060
  0
BLOCK_RECORD
  5
377
330
1
100
AcDbSymbolTableRecord
100
AcDbBlockTableRecord
  2
BLKF061
  0
BLOCK_RECORD
  5
39A
330
1
100
AcDbSymbolTableRecord
100
AcDbBlockTableRecord
  2
BLKF062
  0
BLOCK_RECORD
  5
3A8
330
1
100
AcDbSymbolTableRecord
100
AcDbBlockTableRecord
  2
BLKF063
  0
BLOCK_RECORD
  5
3B7
330
1
100
AcDbSymbolTableRecord
100
AcDbBlockTableRecord
  2
BLKF064
  0
BLOCK_RECORD
  5
3C6
330
1
100
AcDbSymbolTableRecord
100
AcDbBlockTableRecord
  2
BLKF065
  0
BLOCK_RECORD
  5
3CE
330
1
100
AcDbSymbolTableRecord
100
AcDbBlockTableRecord
  2
BLKF066
  0
BLOCK_RECORD
  5
3DD
330
1
100
AcDbSymbolTableRecord
100
AcDbBlockTableRecord
  2
BLKF067
  0
BLOCK_RECORD
  5
3EB
330
1
100
AcDbSymbolTableRecord
100
AcDbBlockTableRecord
  2
BLKF068
  0
BLOCK_RECORD
  5
3FA
330
1
100
AcDbSymbolTableRecord
100
AcDbBlockTableRecord
  2
BLKF069
  0
BLOCK_RECORD
  5
408
330
1
100
AcDbSymbolTableRecord
100
AcDbBlockTableRecord
  2
BLKF070
  0
BLOCK_RECORD
  5
417
330
1
100
AcDbSymbolTableRecord
100
AcDbBlockTableRecord
  2
BLKF071
  0
BLOCK_RECORD
  5
425
330
1
100
AcDbSymbolTableRecord
100
AcDbBlockTableRecord
  2
BLKF072
  0
BLOCK_RECORD
  5
478
330
1
100
AcDbSymbolTableRecord
100
AcDbBlockTableRecord
  2
BLKF073
  0
BLOCK_RECORD
  5
487
330
1
100
AcDbSymbolTableRecord
100
AcDbBlockTableRecord
  2
BLKF074
  0
BLOCK_RECORD
  5
496
330
1
100
AcDbSymbolTableRecord
100
AcDbBlockTableRecord
  2
BLKF075
  0
BLOCK_RECORD
  5
4A4
330
1
100
AcDbSymbolTableRecord
100
AcDbBlockTableRecord
  2
BLKF076
  0
BLOCK_RECORD
  5
4B2
330
1
100
AcDbSymbolTableRecord
100
AcDbBlockTableRecord
  2
BLKF077
  0
BLOCK_RECORD
  5
4C3
330
1
100
AcDbSymbolTableRecord
100
AcDbBlockTableRecord
  2
BLKF078
  0
BLOCK_RECORD
  5
4D1
330
1
100
AcDbSymbolTableRecord
100
AcDbBlockTableRecord
  2
BLKF079
  0
BLOCK_RECORD
  5
4E0
330
1
100
AcDbSymbolTableRecord
100
AcDbBlockTableRecord
  2
BLKF080
  0
BLOCK_RECORD
  5
4FD
330
1
100
AcDbSymbolTableRecord
100
AcDbBlockTableRecord
  2
BLKF081
  0
BLOCK_RECORD
  5
50B
330
1
100
AcDbSymbolTableRecord
100
AcDbBlockTableRecord
  2
BLKF082
  0
BLOCK_RECORD
  5
519
330
1
100
AcDbSymbolTableRecord
100
AcDbBlockTableRecord
  2
BLKF083
  0
BLOCK_RECORD
  5
528
330
1
100
AcDbSymbolTableRecord
100
AcDbBlockTableRecord
  2
BLKF084
  0
BLOCK_RECORD
  5
536
330
1
100
AcDbSymbolTableRecord
100
AcDbBlockTableRecord
  2
BLKF085
  0
BLOCK_RECORD
  5
545
330
1
100
AcDbSymbolTableRecord
100
AcDbBlockTableRecord
  2
BLKF086
  0
BLOCK_RECORD
  5
553
330
1
100
AcDbSymbolTableRecord
100
AcDbBlockTableRecord
  2
BLKF087
  0
BLOCK_RECORD
  5
562
330
1
100
AcDbSymbolTableRecord
100
AcDbBlockTableRecord
  2
BLKF088
  0
BLOCK_RECORD
  5
571
330
1
100
AcDbSymbolTableRecord
100
AcDbBlockTableRecord
  2
BLKF089
  0
BLOCK_RECORD
  5
57F
330
1
100
AcDbSymbolTableRecord
100
AcDbBlockTableRecord
  2
BLKF090
  0
BLOCK_RECORD
  5
58E
330
1
100
AcDbSymbolTableRecord
100
AcDbBlockTableRecord
  2
BLKF091
  0
BLOCK_RECORD
  5
5A1
330
1
100
AcDbSymbolTableRecord
100
AcDbBlockTableRecord
  2
BLKF092
  0
BLOCK_RECORD
  5
5A9
330
1
100
AcDbSymbolTableRecord
100
AcDbBlockTableRecord
  2
BLKF093
  0
BLOCK_RECORD
  5
5B7
330
1
100
AcDbSymbolTableRecord
100
AcDbBlockTableRecord
  2
BLKF094
  0
BLOCK_RECORD
  5
5C5
330
1
100
AcDbSymbolTableRecord
100
AcDbBlockTableRecord
  2
BLKF095
  0
BLOCK_RECORD
  5
5DE
330
1
100
AcDbSymbolTableRecord
100
AcDbBlockTableRecord
  2
BLKF096
  0
BLOCK_RECORD
  5
5EC
330
1
100
AcDbSymbolTableRecord
100
AcDbBlockTableRecord
  2
BLKF097
  0
BLOCK_RECORD
  5
5FB
330
1
100
AcDbSymbolTableRecord
100
AcDbBlockTableRecord
  2
BLKF098
  0
BLOCK_RECORD
  5
609
330
1
100
AcDbSymbolTableRecord
100
AcDbBlockTableRecord
  2
BLKF099
  0
BLOCK_RECORD
  5
61E
330
1
100
AcDbSymbolTableRecord
100
AcDbBlockTableRecord
  2
BLKF100
  0
BLOCK_RECORD
  5
636
330
1
100
AcDbSymbolTableRecord
100
AcDbBlockTableRecord
  2
BLKF101
  0
BLOCK_RECORD
  5
644
330
1
100
AcDbSymbolTableRecord
100
AcDbBlockTableRecord
  2
BLKF102
  0
BLOCK_RECORD
  5
652
330
1
100
AcDbSymbolTableRecord
100
AcDbBlockTableRecord
  2
BLKF103
  0
BLOCK_RECORD
  5
660
330
1
100
AcDbSymbolTableRecord
100
AcDbBlockTableRecord
  2
BLKF104
  0
BLOCK_RECORD
  5
66E
330
1
100
AcDbSymbolTableRecord
100
AcDbBlockTableRecord
  2
BLKF105
  0
BLOCK_RECORD
  5
688
330
1
100
AcDbSymbolTableRecord
100
AcDbBlockTableRecord
  2
BLKF106
  0
BLOCK_RECORD
  5
69A
330
1
100
AcDbSymbolTableRecord
100
AcDbBlockTableRecord
  2
BLKF107
  0
BLOCK_RECORD
  5
6E1
330
1
100
AcDbSymbolTableRecord
100
AcDbBlockTableRecord
  2
BLKF108
  0
BLOCK_RECORD
  5
6E9
330
1
100
AcDbSymbolTableRecord
100
AcDbBlockTableRecord
  2
BLKF109
  0
BLOCK_RECORD
  5
6FD
330
1
100
AcDbSymbolTableRecord
100
AcDbBlockTableRecord
  2
BLKF110
  0
ENDTAB
  0
ENDSEC
  0
SECTION
  2
BLOCKS
  0
BLOCK
  5
20
330
1F
100
AcDbEntity
  8
0
100
AcDbBlockBegin
  2
*MODEL_SPACE
 70
     0
 71
     0
 10
0.0
 20
0.0
 30
0.0
  3
*MODEL_SPACE
  1

  0
ENDBLK
  5
21
330
1F
100
AcDbEntity
  8
0
100
AcDbBlockEnd
  0
BLOCK
  5
1C
330
1B
100
AcDbEntity
 67
     1
  8
0
100
AcDbBlockBegin
  2
*PAPER_SPACE
 70
     0
 71
     0
 10
0.0
 20
0.0
 30
0.0
  3
*PAPER_SPACE
  1

  0
ENDBLK
  5
1D
330
1B
100
AcDbEntity
 67
     1
  8
0
100
AcDbBlockEnd
  0
BLOCK
  5
3F
330
3E
100
AcDbEntity
  8
0
100
AcDbBlockBegin
  2
FXTIP_ARROW_S
 70
     0
 71
     0
 10
0.0
 20
0.0
 30
0.0
  3
FXTIP_ARROW_S
  1

  0
LINE
  5
41
330
3E
100
AcDbEntity
  8
0
  6
CONTINUOUS
 62
     0
100
AcDbLine
 10
0.0
 20
0.0
 30
0.0
 11
-1.0
 21
0.0
 31
0.0
  0
LINE
  5
42
330
3E
100
AcDbEntity
  8
0
  6
CONTINUOUS
 62
     0
100
AcDbLine
 10
0.0
 20
0.0
 30
0.0
 11
-0.965926
 21
-0.258819
 31
0.0
  0
LINE
  5
43
330
3E
100
AcDbEntity
  8
0
  6
CONTINUOUS
 62
     0
100
AcDbLine
 10
0.0
 20
0.0
 30
0.0
 11
-0.965926
 21
0.258819
 31
0.0
  0
ENDBLK
  5
40
330
3E
100
AcDbEntity
  8
0
100
AcDbBlockEnd
  0
BLOCK
  5
45
330
44
100
AcDbEntity
  8
0
100
AcDbBlockBegin
  2
FXTIP_ARROW_E
 70
     0
 71
     0
 10
0.0
 20
0.0
 30
0.0
  3
FXTIP_ARROW_E
  1

  0
LINE
  5
47
330
44
100
AcDbEntity
  8
0
  6
CONTINUOUS
 62
     0
100
AcDbLine
 10
0.0
 20
0.0
 30
0.0
 11
-1.0
 21
0.0
 31
0.0
  0
LINE
  5
48
330
44
100
AcDbEntity
  8
0
  6
CONTINUOUS
 62
     0
100
AcDbLine
 10
0.0
 20
0.0
 30
0.0
 11
-0.965926
 21
0.258819
 31
0.0
  0
LINE
  5
49
330
44
100
AcDbEntity
  8
0
  6
CONTINUOUS
 62
     0
100
AcDbLine
 10
0.0
 20
0.0
 30
0.0
 11
-0.965926
 21
-0.258819
 31
0.0
  0
ENDBLK
  5
46
330
44
100
AcDbEntity
  8
0
100
AcDbBlockEnd
  0
BLOCK
  5
4B
330
4A
100
AcDbEntity
  8
0
100
AcDbBlockBegin
  2
FXTIP_BLACKDOT_S
 70
     0
 71
     0
 10
0.0
 20
0.0
 30
0.0
  3
FXTIP_BLACKDOT_S
  1

  0
LINE
  5
4D
330
4A
100
AcDbEntity
  8
0
  6
CONTINUOUS
 62
     0
100
AcDbLine
 10
0.0
 20
0.0
 30
0.0
 11
-1.0
 21
0.0
 31
0.0
  0
POLYLINE
  5
4E
330
4A
100
AcDbEntity
  8
0
  6
CONTINUOUS
 62
     0
100
AcDb2dPolyline
 66
     1
 10
0.0
 20
0.0
 30
0.0
 70
     1
  0
VERTEX
  5
707
330
4E
100
AcDbEntity
  8
0
  6
CONTINUOUS
 62
     0
100
AcDbVertex
100
AcDb2dVertex
 10
-0.25
 20
0.0
 30
0.0
 40
0.5
 41
0.5
 42
1.0
  0
VERTEX
  5
708
330
4E
100
AcDbEntity
  8
0
  6
CONTINUOUS
 62
     0
100
AcDbVertex
100
AcDb2dVertex
 10
0.25
 20
0.0
 30
0.0
 40
0.5
 41
0.5
 42
1.0
  0
SEQEND
  5
706
330
4E
100
AcDbEntity
  8
0
  6
CONTINUOUS
 62
     0
  0
CIRCLE
  5
4F
330
4A
100
AcDbEntity
  8
0
  6
CONTINUOUS
 62
     0
100
AcDbCircle
 10
0.0
 20
0.0
 30
0.0
 40
0.5
  0
ENDBLK
  5
4C
330
4A
100
AcDbEntity
  8
0
100
AcDbBlockEnd
  0
BLOCK
  5
51
330
50
100
AcDbEntity
  8
0
100
AcDbBlockBegin
  2
FXTIP_BLACKDOT_E
 70
     0
 71
     0
 10
0.0
 20
0.0
 30
0.0
  3
FXTIP_BLACKDOT_E
  1

  0
LINE
  5
53
330
50
100
AcDbEntity
  8
0
  6
CONTINUOUS
 62
     0
100
AcDbLine
 10
0.0
 20
0.0
 30
0.0
 11
-1.0
 21
0.0
 31
0.0
  0
POLYLINE
  5
54
330
50
100
AcDbEntity
  8
0
  6
CONTINUOUS
 62
     0
100
AcDb2dPolyline
 66
     1
 10
0.0
 20
0.0
 30
0.0
 70
     1
  0
VERTEX
  5
70A
330
54
100
AcDbEntity
  8
0
  6
CONTINUOUS
 62
     0
100
AcDbVertex
100
AcDb2dVertex
 10
-0.25
 20
0.0
 30
0.0
 40
0.5
 41
0.5
 42
1.0
  0
VERTEX
  5
70B
330
54
100
AcDbEntity
  8
0
  6
CONTINUOUS
 62
     0
100
AcDbVertex
100
AcDb2dVertex
 10
0.25
 20
0.0
 30
0.0
 40
0.5
 41
0.5
 42
1.0
  0
SEQEND
  5
709
330
54
100
AcDbEntity
  8
0
  6
CONTINUOUS
 62
     0
  0
CIRCLE
  5
55
330
50
100
AcDbEntity
  8
0
  6
CONTINUOUS
 62
     0
100
AcDbCircle
 10
0.0
 20
0.0
 30
0.0
 40
0.5
  0
ENDBLK
  5
52
330
50
100
AcDbEntity
  8
0
100
AcDbBlockEnd
  0
BLOCK
  5
57
330
56
100
AcDbEntity
  8
0
100
AcDbBlockBegin
  2
FXTIP_TRIANGLE_S
 70
     0
 71
     0
 10
0.0
 20
0.0
 30
0.0
  3
FXTIP_TRIANGLE_S
  1

  0
LINE
  5
59
330
56
100
AcDbEntity
  8
0
  6
CONTINUOUS
 62
     0
100
AcDbLine
 10
0.0
 20
0.0
 30
0.0
 11
-1.0
 21
0.0
 31
0.0
  0
LINE
  5
5A
330
56
100
AcDbEntity
  8
0
  6
CONTINUOUS
 62
     0
100
AcDbLine
 10
0.0
 20
0.0
 30
0.0
 11
-0.965926
 21
-0.258819
 31
0.0
  0
LINE
  5
5B
330
56
100
AcDbEntity
  8
0
  6
CONTINUOUS
 62
     0
100
AcDbLine
 10
0.0
 20
0.0
 30
0.0
 11
-0.965926
 21
0.258819
 31
0.0
  0
LINE
  5
5C
330
56
100
AcDbEntity
  8
0
  6
CONTINUOUS
 62
     0
100
AcDbLine
 10
-0.965926
 20
-0.258819
 30
0.0
 11
-0.965926
 21
0.258819
 31
0.0
  0
ENDBLK
  5
58
330
56
100
AcDbEntity
  8
0
100
AcDbBlockEnd
  0
BLOCK
  5
5E
330
5D
100
AcDbEntity
  8
0
100
AcDbBlockBegin
  2
FXTIP_TRIANGLE_E
 70
     0
 71
     0
 10
0.0
 20
0.0
 30
0.0
  3
FXTIP_TRIANGLE_E
  1

  0
LINE
  5
60
330
5D
100
AcDbEntity
  8
0
  6
CONTINUOUS
 62
     0
100
AcDbLine
 10
0.0
 20
0.0
 30
0.0
 11
-1.0
 21
0.0
 31
0.0
  0
LINE
  5
61
330
5D
100
AcDbEntity
  8
0
  6
CONTINUOUS
 62
     0
100
AcDbLine
 10
0.0
 20
0.0
 30
0.0
 11
-0.965926
 21
0.258819
 31
0.0
  0
LINE
  5
62
330
5D
100
AcDbEntity
  8
0
  6
CONTINUOUS
 62
     0
100
AcDbLine
 10
0.0
 20
0.0
 30
0.0
 11
-0.965926
 21
-0.258819
 31
0.0
  0
LINE
  5
63
330
5D
100
AcDbEntity
  8
0
  6
CONTINUOUS
 62
     0
100
AcDbLine
 10
-0.965926
 20
0.258819
 30
0.0
 11
-0.965926
 21
-0.258819
 31
0.0
  0
ENDBLK
  5
5F
330
5D
100
AcDbEntity
  8
0
100
AcDbBlockEnd
  0
BLOCK
  5
65
330
64
100
AcDbEntity
  8
0
100
AcDbBlockBegin
  2
FXTIP_ARCHITECT_S
 70
     0
 71
     0
 10
0.0
 20
0.0
 30
0.0
  3
FXTIP_ARCHITECT_S
  1

  0
LINE
  5
67
330
64
100
AcDbEntity
  8
0
  6
CONTINUOUS
 62
     0
100
AcDbLine
 10
0.0
 20
0.0
 30
0.0
 11
-1.0
 21
0.0
 31
0.0
  0
LINE
  5
68
330
64
100
AcDbEntity
  8
0
  6
CONTINUOUS
 62
     0
100
AcDbLine
 10
0.0
 20
0.0
 30
0.0
 11
-0.707107
 21
-0.707107
 31
0.0
  0
LINE
  5
69
330
64
100
AcDbEntity
  8
0
  6
CONTINUOUS
 62
     0
100
AcDbLine
 10
0.0
 20
0.0
 30
0.0
 11
0.707107
 21
0.707107
 31
0.0
  0
ENDBLK
  5
66
330
64
100
AcDbEntity
  8
0
100
AcDbBlockEnd
  0
BLOCK
  5
6B
330
6A
100
AcDbEntity
  8
0
100
AcDbBlockBegin
  2
FXTIP_ARCHITECT_E
 70
     0
 71
     0
 10
0.0
 20
0.0
 30
0.0
  3
FXTIP_ARCHITECT_E
  1

  0
LINE
  5
6D
330
6A
100
AcDbEntity
  8
0
  6
CONTINUOUS
 62
     0
100
AcDbLine
 10
0.0
 20
0.0
 30
0.0
 11
-1.0
 21
0.0
 31
0.0
  0
LINE
  5
6E
330
6A
100
AcDbEntity
  8
0
  6
CONTINUOUS
 62
     0
100
AcDbLine
 10
0.0
 20
0.0
 30
0.0
 11
0.707107
 21
0.707107
 31
0.0
  0
LINE
  5
6F
330
6A
100
AcDbEntity
  8
0
  6
CONTINUOUS
 62
     0
100
AcDbLine
 10
0.0
 20
0.0
 30
0.0
 11
-0.707107
 21
-0.707107
 31
0.0
  0
ENDBLK
  5
6C
330
6A
100
AcDbEntity
  8
0
100
AcDbBlockEnd
  0
BLOCK
  5
71
330
70
100
AcDbEntity
  8
0
100
AcDbBlockBegin
  2
FXTIP_CIVIL_S
 70
     0
 71
     0
 10
0.0
 20
0.0
 30
0.0
  3
FXTIP_CIVIL_S
  1

  0
LINE
  5
73
330
70
100
AcDbEntity
  8
0
  6
CONTINUOUS
 62
     0
100
AcDbLine
 10
0.0
 20
0.0
 30
0.0
 11
-1.0
 21
0.0
 31
0.0
  0
LINE
  5
74
330
70
100
AcDbEntity
  8
0
  6
CONTINUOUS
 62
     0
100
AcDbLine
 10
0.0
 20
-0.125
 30
0.0
 11
-1.0
 21
-0.125
 31
0.0
  0
LINE
  5
75
330
70
100
AcDbEntity
  8
0
  6
CONTINUOUS
 62
     0
100
AcDbLine
 10
0.0
 20
-0.25
 30
0.0
 11
-1.0
 21
-0.25
 31
0.0
  0
ENDBLK
  5
72
330
70
100
AcDbEntity
  8
0
100
AcDbBlockEnd
  0
BLOCK
  5
77
330
76
100
AcDbEntity
  8
0
100
AcDbBlockBegin
  2
FXTIP_CIVIL_E
 70
     0
 71
     0
 10
0.0
 20
0.0
 30
0.0
  3
FXTIP_CIVIL_E
  1

  0
LINE
  5
79
330
76
100
AcDbEntity
  8
0
  6
CONTINUOUS
 62
     0
100
AcDbLine
 10
0.0
 20
0.0
 30
0.0
 11
-1.0
 21
0.0
 31
0.0
  0
LINE
  5
7A
330
76
100
AcDbEntity
  8
0
  6
CONTINUOUS
 62
     0
100
AcDbLine
 10
0.0
 20
0.125
 30
0.0
 11
-1.0
 21
0.125
 31
0.0
  0
LINE
  5
7B
330
76
100
AcDbEntity
  8
0
  6
CONTINUOUS
 62
     0
100
AcDbLine
 10
0.0
 20
0.25
 30
0.0
 11
-1.0
 21
0.25
 31
0.0
  0
ENDBLK
  5
78
330
76
100
AcDbEntity
  8
0
100
AcDbBlockEnd
  0
BLOCK
  5
7D
330
7C
100
AcDbEntity
  8
0
100
AcDbBlockBegin
  2
FXTIP_WHITEDOT_S
 70
     0
 71
     0
 10
0.0
 20
0.0
 30
0.0
  3
FXTIP_WHITEDOT_S
  1

  0
LINE
  5
7F
330
7C
100
AcDbEntity
  8
0
  6
CONTINUOUS
 62
     0
100
AcDbLine
 10
0.0
 20
0.0
 30
0.0
 11
-1.0
 21
0.0
 31
0.0
  0
CIRCLE
  5
80
330
7C
100
AcDbEntity
  8
0
  6
CONTINUOUS
 62
     0
100
AcDbCircle
 10
0.0
 20
0.0
 30
0.0
 40
0.5
  0
ENDBLK
  5
7E
330
7C
100
AcDbEntity
  8
0
100
AcDbBlockEnd
  0
BLOCK
  5
82
330
81
100
AcDbEntity
  8
0
100
AcDbBlockBegin
  2
FXTIP_WHITEDOT_E
 70
     0
 71
     0
 10
0.0
 20
0.0
 30
0.0
  3
FXTIP_WHITEDOT_E
  1

  0
LINE
  5
84
330
81
100
AcDbEntity
  8
0
  6
CONTINUOUS
 62
     0
100
AcDbLine
 10
0.0
 20
0.0
 30
0.0
 11
-1.0
 21
0.0
 31
0.0
  0
CIRCLE
  5
85
330
81
100
AcDbEntity
  8
0
  6
CONTINUOUS
 62
     0
100
AcDbCircle
 10
0.0
 20
0.0
 30
0.0
 40
0.5
  0
ENDBLK
  5
83
330
81
100
AcDbEntity
  8
0
100
AcDbBlockEnd
  0
BLOCK
  5
87
330
86
100
AcDbEntity
  8
0
100
AcDbBlockBegin
  2
FXTIP_UPARROW_S
 70
     0
 71
     0
 10
0.0
 20
0.0
 30
0.0
  3
FXTIP_UPARROW_S
  1

  0
LINE
  5
89
330
86
100
AcDbEntity
  8
0
  6
CONTINUOUS
 62
     0
100
AcDbLine
 10
0.0
 20
0.0
 30
0.0
 11
-1.0
 21
0.0
 31
0.0
  0
LINE
  5
8A
330
86
100
AcDbEntity
  8
0
  6
CONTINUOUS
 62
     0
100
AcDbLine
 10
0.0
 20
0.0
 30
0.0
 11
-0.965926
 21
-0.258819
 31
0.0
  0
ENDBLK
  5
88
330
86
100
AcDbEntity
  8
0
100
AcDbBlockEnd
  0
BLOCK
  5
8C
330
8B
100
AcDbEntity
  8
0
100
AcDbBlockBegin
  2
FXTIP_UPARROW_E
 70
     0
 71
     0
 10
0.0
 20
0.0
 30
0.0
  3
FXTIP_UPARROW_E
  1

  0
LINE
  5
8E
330
8B
100
AcDbEntity
  8
0
  6
CONTINUOUS
 62
     0
100
AcDbLine
 10
0.0
 20
0.0
 30
0.0
 11
-1.0
 21
0.0
 31
0.0
  0
LINE
  5
8F
330
8B
100
AcDbEntity
  8
0
  6
CONTINUOUS
 62
     0
100
AcDbLine
 10
0.0
 20
0.0
 30
0.0
 11
-0.965926
 21
0.258819
 31
0.0
  0
ENDBLK
  5
8D
330
8B
100
AcDbEntity
  8
0
100
AcDbBlockEnd
  0
BLOCK
  5
91
330
90
100
AcDbEntity
  8
0
100
AcDbBlockBegin
  2
FXTIP_DOWNARROW_S
 70
     0
 71
     0
 10
0.0
 20
0.0
 30
0.0
  3
FXTIP_DOWNARROW_S
  1

  0
LINE
  5
93
330
90
100
AcDbEntity
  8
0
  6
CONTINUOUS
 62
     0
100
AcDbLine
 10
0.0
 20
0.0
 30
0.0
 11
-1.0
 21
0.0
 31
0.0
  0
LINE
  5
94
330
90
100
AcDbEntity
  8
0
  6
CONTINUOUS
 62
     0
100
AcDbLine
 10
0.0
 20
0.0
 30
0.0
 11
-0.965926
 21
0.258819
 31
0.0
  0
ENDBLK
  5
92
330
90
100
AcDbEntity
  8
0
100
AcDbBlockEnd
  0
BLOCK
  5
96
330
95
100
AcDbEntity
  8
0
100
AcDbBlockBegin
  2
FXTIP_DOWNARROW_E
 70
     0
 71
     0
 10
0.0
 20
0.0
 30
0.0
  3
FXTIP_DOWNARROW_E
  1

  0
LINE
  5
98
330
95
100
AcDbEntity
  8
0
  6
CONTINUOUS
 62
     0
100
AcDbLine
 10
0.0
 20
0.0
 30
0.0
 11
-1.0
 21
0.0
 31
0.0
  0
LINE
  5
99
330
95
100
AcDbEntity
  8
0
  6
CONTINUOUS
 62
     0
100
AcDbLine
 10
0.0
 20
0.0
 30
0.0
 11
-0.965926
 21
-0.258819
 31
0.0
  0
ENDBLK
  5
97
330
95
100
AcDbEntity
  8
0
100
AcDbBlockEnd
  0
BLOCK
  5
9B
330
9A
100
AcDbEntity
  8
0
100
AcDbBlockBegin
  2
FXTIP_BLACKTRIANGLE_S
 70
     0
 71
     0
 10
0.0
 20
0.0
 30
0.0
  3
FXTIP_BLACKTRIANGLE_S
  1

  0
LINE
  5
9D
330
9A
100
AcDbEntity
  8
0
  6
CONTINUOUS
 62
     0
100
AcDbLine
 10
0.0
 20
0.0
 30
0.0
 11
-1.0
 21
0.0
 31
0.0
  0
SOLID
  5
9E
330
9A
100
AcDbEntity
  8
0
  6
CONTINUOUS
 62
     0
100
AcDbTrace
 10
0.0
 20
0.0
 30
0.0
 11
-0.965926
 21
-0.258819
 31
0.0
 12
-0.965926
 22
0.258819
 32
0.0
 13
-0.965926
 23
0.258819
 33
0.0
  0
ENDBLK
  5
9C
330
9A
100
AcDbEntity
  8
0
100
AcDbBlockEnd
  0
BLOCK
  5
A0
330
9F
100
AcDbEntity
  8
0
100
AcDbBlockBegin
  2
FXTIP_BLACKTRIANGLE_E
 70
     0
 71
     0
 10
0.0
 20
0.0
 30
0.0
  3
FXTIP_BLACKTRIANGLE_E
  1

  0
LINE
  5
A2
330
9F
100
AcDbEntity
  8
0
  6
CONTINUOUS
 62
     0
100
AcDbLine
 10
0.0
 20
0.0
 30
0.0
 11
-1.0
 21
0.0
 31
0.0
  0
SOLID
  5
A3
330
9F
100
AcDbEntity
  8
0
  6
CONTINUOUS
 62
     0
100
AcDbTrace
 10
0.0
 20
0.0
 30
0.0
 11
-0.965926
 21
0.258819
 31
0.0
 12
-0.965926
 22
-0.258819
 32
0.0
 13
-0.965926
 23
-0.258819
 33
0.0
  0
ENDBLK
  5
A1
330
9F
100
AcDbEntity
  8
0
100
AcDbBlockEnd
  0
BLOCK
  5
DD
330
DC
100
AcDbEntity
  8
0
100
AcDbBlockBegin
  2
BLKF021
 70
     0
 71
     0
 10
0.0
 20
0.0
 30
0.0
  3
BLKF021
  1

  0
LINE
  5
E0
330
DC
100
AcDbEntity
  8
GR1-1
  6
細い実線
 62
     2
100
AcDbLine
 10
679.863387
 20
183.503677
 30
0.0
 11
679.863387
 21
188.318702
 31
0.0
  0
LINE
  5
E1
330
DC
100
AcDbEntity
  8
GR1-1
  6
細い実線
 62
     2
100
AcDbLine
 10
681.663387
 20
183.503677
 30
0.0
 11
681.663387
 21
188.318702
 31
0.0
  0
LINE
  5
E2
330
DC
100
AcDbEntity
  8
GR1-1
  6
細い実線
 62
     2
100
AcDbLine
 10
679.083387
 20
187.718702
 30
0.0
 11
678.303387
 21
187.718702
 31
0.0
  0
LINE
  5
E3
330
DC
100
AcDbEntity
  8
GR1-1
  6
細い実線
 62
     2
100
AcDbLine
 10
682.443387
 20
187.718702
 30
0.0
 11
683.223387
 21
187.718702
 31
0.0
  0
TEXT
  5
E4
330
DC
100
AcDbEntity
  8
GR1-1
  6
細い実線
 62
     4
100
AcDbText
 10
679.188359
 20
189.218711
 30
0.0
 40
1.5
  1
%%c30
 41
0.7
  7
FX_VECTOR
 72
     5
 11
682.338359
 21
189.218711
 31
0.0
100
AcDbText
  0
LINE
  5
E5
330
DC
100
AcDbEntity
  8
GR1-1
  6
細い実線
 62
     2
100
AcDbLine
 10
679.083387
 20
187.848702
 30
0.0
 11
679.083387
 21
187.588702
 31
0.0
  0
LINE
  5
E6
330
DC
100
AcDbEntity
  8
GR1-1
  6
細い実線
 62
     2
100
AcDbLine
 10
679.083387
 20
187.588702
 30
0.0
 11
679.863387
 21
187.718702
 31
0.0
  0
LINE
  5
E7
330
DC
100
AcDbEntity
  8
GR1-1
  6
細い実線
 62
     2
100
AcDbLine
 10
679.863387
 20
187.718702
 30
0.0
 11
679.083387
 21
187.848702
 31
0.0
  0
LINE
  5
E8
330
DC
100
AcDbEntity
  8
GR1-1
  6
細い実線
 62
     2
100
AcDbLine
 10
682.443387
 20
187.848702
 30
0.0
 11
682.443387
 21
187.588702
 31
0.0
  0
LINE
  5
E9
330
DC
100
AcDbEntity
  8
GR1-1
  6
細い実線
 62
     2
100
AcDbLine
 10
682.443387
 20
187.588702
 30
0.0
 11
681.663387
 21
187.718702
 31
0.0
  0
LINE
  5
EA
330
DC
100
AcDbEntity
  8
GR1-1
  6
細い実線
 62
     2
100
AcDbLine
 10
681.663387
 20
187.718702
 30
0.0
 11
682.443387
 21
187.848702
 31
0.0
  0
ENDBLK
  5
DE
330
DC
100
AcDbEntity
  8
0
100
AcDbBlockEnd
  0
BLOCK
  5
EC
330
EB
100
AcDbEntity
  8
0
100
AcDbBlockBegin
  2
BLKF022
 70
     0
 71
     0
 10
0.0
 20
0.0
 30
0.0
  3
BLKF022
  1

  0
LINE
  5
EF
330
EB
100
AcDbEntity
  8
GR1-1
  6
細い実線
 62
     2
100
AcDbLine
 10
680.388387
 20
178.703677
 30
0.0
 11
680.388387
 21
176.140071
 31
0.0
  0
LINE
  5
F0
330
EB
100
AcDbEntity
  8
GR1-1
  6
細い実線
 62
     2
100
AcDbLine
 10
681.138387
 20
178.703677
 30
0.0
 11
681.138387
 21
176.140071
 31
0.0
  0
LINE
  5
F1
330
EB
100
AcDbEntity
  8
GR1-1
  6
細い実線
 62
     2
100
AcDbLine
 10
679.608387
 20
176.740071
 30
0.0
 11
678.828387
 21
176.740071
 31
0.0
  0
LINE
  5
F2
330
EB
100
AcDbEntity
  8
GR1-1
  6
細い実線
 62
     2
100
AcDbLine
 10
681.918387
 20
176.740071
 30
0.0
 11
682.698387
 21
176.740071
 31
0.0
  0
TEXT
  5
F3
330
EB
100
AcDbEntity
  8
GR1-1
  6
細い実線
 62
     4
100
AcDbText
 10
681.239453
 20
177.285684
 30
0.0
 40
1.5
  1
%%c12.5
 41
0.7
  7
FX_VECTOR
 72
     5
 11
686.489453
 21
177.285684
 31
0.0
100
AcDbText
  0
LINE
  5
F4
330
EB
100
AcDbEntity
  8
GR1-1
  6
細い実線
 62
     2
100
AcDbLine
 10
679.608387
 20
176.870071
 30
0.0
 11
679.608387
 21
176.610071
 31
0.0
  0
LINE
  5
F5
330
EB
100
AcDbEntity
  8
GR1-1
  6
細い実線
 62
     2
100
AcDbLine
 10
679.608387
 20
176.610071
 30
0.0
 11
680.388387
 21
176.740071
 31
0.0
  0
LINE
  5
F6
330
EB
100
AcDbEntity
  8
GR1-1
  6
細い実線
 62
     2
100
AcDbLine
 10
680.388387
 20
176.740071
 30
0.0
 11
679.608387
 21
176.870071
 31
0.0
  0
LINE
  5
F7
330
EB
100
AcDbEntity
  8
GR1-1
  6
細い実線
 62
     2
100
AcDbLine
 10
681.918387
 20
176.870071
 30
0.0
 11
681.918387
 21
176.610071
 31
0.0
  0
LINE
  5
F8
330
EB
100
AcDbEntity
  8
GR1-1
  6
細い実線
 62
     2
100
AcDbLine
 10
681.918387
 20
176.610071
 30
0.0
 11
681.138387
 21
176.740071
 31
0.0
  0
LINE
  5
F9
330
EB
100
AcDbEntity
  8
GR1-1
  6
細い実線
 62
     2
100
AcDbLine
 10
681.138387
 20
176.740071
 30
0.0
 11
681.918387
 21
176.870071
 31
0.0
  0
ENDBLK
  5
ED
330
EB
100
AcDbEntity
  8
0
100
AcDbBlockEnd
  0
BLOCK
  5
FF
330
FE
100
AcDbEntity
  8
0
100
AcDbBlockBegin
  2
BLKF023
 70
     0
 71
     0
 10
0.0
 20
0.0
 30
0.0
  3
BLKF023
  1

  0
LINE
  5
102
330
FE
100
AcDbEntity
  8
GR1-1
  6
細い実線
 62
     2
100
AcDbLine
 10
697.592263
 20
186.718822
 30
0.0
 11
697.592263
 21
188.85793
 31
0.0
  0
LINE
  5
103
330
FE
100
AcDbEntity
  8
GR1-1
  6
細い実線
 62
     2
100
AcDbLine
 10
698.342263
 20
186.718822
 30
0.0
 11
698.342263
 21
188.85793
 31
0.0
  0
LINE
  5
104
330
FE
100
AcDbEntity
  8
GR1-1
  6
細い実線
 62
     2
100
AcDbLine
 10
696.812263
 20
188.25793
 30
0.0
 11
696.032263
 21
188.25793
 31
0.0
  0
LINE
  5
105
330
FE
100
AcDbEntity
  8
GR1-1
  6
細い実線
 62
     2
100
AcDbLine
 10
699.122263
 20
188.25793
 30
0.0
 11
699.902263
 21
188.25793
 31
0.0
  0
TEXT
  5
106
330
FE
100
AcDbEntity
  8
GR1-1
  6
細い実線
 62
     4
100
AcDbText
 10
695.867266
 20
189.75793
 30
0.0
 40
1.5
  1
12.5
 41
0.7
  7
FX_VECTOR
 72
     5
 11
700.067266
 21
189.75793
 31
0.0
100
AcDbText
  0
LINE
  5
107
330
FE
100
AcDbEntity
  8
GR1-1
  6
細い実線
 62
     2
100
AcDbLine
 10
696.812263
 20
188.38793
 30
0.0
 11
696.812263
 21
188.12793
 31
0.0
  0
LINE
  5
108
330
FE
100
AcDbEntity
  8
GR1-1
  6
細い実線
 62
     2
100
AcDbLine
 10
696.812263
 20
188.12793
 30
0.0
 11
697.592263
 21
188.25793
 31
0.0
  0
LINE
  5
109
330
FE
100
AcDbEntity
  8
GR1-1
  6
細い実線
 62
     2
100
AcDbLine
 10
697.592263
 20
188.25793
 30
0.0
 11
696.812263
 21
188.38793
 31
0.0
  0
LINE
  5
10A
330
FE
100
AcDbEntity
  8
GR1-1
  6
細い実線
 62
     2
100
AcDbLine
 10
699.122263
 20
188.38793
 30
0.0
 11
699.122263
 21
188.12793
 31
0.0
  0
LINE
  5
10B
330
FE
100
AcDbEntity
  8
GR1-1
  6
細い実線
 62
     2
100
AcDbLine
 10
699.122263
 20
188.12793
 30
0.0
 11
698.342263
 21
188.25793
 31
0.0
  0
LINE
  5
10C
330
FE
100
AcDbEntity
  8
GR1-1
  6
細い実線
 62
     2
100
AcDbLine
 10
698.342263
 20
188.25793
 30
0.0
 11
699.122263
 21
188.38793
 31
0.0
  0
ENDBLK
  5
100
330
FE
100
AcDbEntity
  8
0
100
AcDbBlockEnd
  0
BLOCK
  5
10E
330
10D
100
AcDbEntity
  8
0
100
AcDbBlockBegin
  2
BLKF024
 70
     0
 71
     0
 10
0.0
 20
0.0
 30
0.0
  3
BLKF024
  1

  0
LINE
  5
111
330
10D
100
AcDbEntity
  8
GR1-1
  6
細い実線
 62
     4
100
AcDbLine
 10
697.067263
 20
181.261561
 30
0.0
 11
698.867263
 21
181.261561
 31
0.0
  0
LINE
  5
112
330
10D
100
AcDbEntity
  8
GR1-1
  6
細い実線
 62
     4
100
AcDbLine
 10
698.867263
 20
181.261561
 30
0.0
 11
698.867263
 21
177.961561
 31
0.0
  0
LINE
  5
113
330
10D
100
AcDbEntity
  8
GR1-1
  6
細い実線
 62
     4
100
AcDbLine
 10
698.867263
 20
177.961561
 30
0.0
 11
697.067263
 21
177.961561
 31
0.0
  0
LINE
  5
114
330
10D
100
AcDbEntity
  8
GR1-1
  6
細い実線
 62
     4
100
AcDbLine
 10
697.067263
 20
177.961561
 30
0.0
 11
697.067263
 21
181.261561
 31
0.0
  0
ENDBLK
  5
10F
330
10D
100
AcDbEntity
  8
0
100
AcDbBlockEnd
  0
BLOCK
  5
116
330
115
100
AcDbEntity
  8
0
100
AcDbBlockBegin
  2
BLKF025
 70
     0
 71
     0
 10
0.0
 20
0.0
 30
0.0
  3
BLKF025
  1

  0
LINE
  5
119
330
115
100
AcDbEntity
  8
GR1-1
  6
細い実線
 62
     4
100
AcDbLine
 10
697.592263
 20
180.661561
 30
0.0
 11
698.342263
 21
180.661561
 31
0.0
  0
LINE
  5
11A
330
115
100
AcDbEntity
  8
GR1-1
  6
細い実線
 62
     4
100
AcDbLine
 10
698.342263
 20
180.661561
 30
0.0
 11
698.342263
 21
178.561561
 31
0.0
  0
LINE
  5
11B
330
115
100
AcDbEntity
  8
GR1-1
  6
細い実線
 62
     4
100
AcDbLine
 10
698.342263
 20
178.561561
 30
0.0
 11
697.592263
 21
178.561561
 31
0.0
  0
LINE
  5
11C
330
115
100
AcDbEntity
  8
GR1-1
  6
細い実線
 62
     4
100
AcDbLine
 10
697.592263
 20
178.561561
 30
0.0
 11
697.592263
 21
180.661561
 31
0.0
  0
ENDBLK
  5
117
330
115
100
AcDbEntity
  8
0
100
AcDbBlockEnd
  0
BLOCK
  5
122
330
121
100
AcDbEntity
  8
0
100
AcDbBlockBegin
  2
BLKF026
 70
     0
 71
     0
 10
0.0
 20
0.0
 30
0.0
  3
BLKF026
  1

  0
LINE
  5
125
330
121
100
AcDbEntity
  8
GR1-1
  6
細い実線
 62
     2
100
AcDbLine
 10
698.342263
 20
177.661561
 30
0.0
 11
698.342263
 21
172.945628
 31
0.0
  0
LINE
  5
126
330
121
100
AcDbEntity
  8
GR1-1
  6
細い実線
 62
     2
100
AcDbLine
 10
698.867263
 20
177.061561
 30
0.0
 11
698.867263
 21
172.945628
 31
0.0
  0
LINE
  5
127
330
121
100
AcDbEntity
  8
GR1-1
  6
細い実線
 62
     2
100
AcDbLine
 10
697.562263
 20
173.545628
 30
0.0
 11
696.782263
 21
173.545628
 31
0.0
  0
LINE
  5
128
330
121
100
AcDbEntity
  8
GR1-1
  6
細い実線
 62
     2
100
AcDbLine
 10
699.647263
 20
173.545628
 30
0.0
 11
700.427263
 21
173.545628
 31
0.0
  0
TEXT
  5
129
330
121
100
AcDbEntity
  8
GR1-1
  6
細い実線
 62
     4
100
AcDbText
 10
698.848438
 20
173.98041
 30
0.0
 40
1.5
  1
8.75
 41
0.7
  7
FX_VECTOR
 72
     5
 11
703.048438
 21
173.98041
 31
0.0
100
AcDbText
  0
LINE
  5
12A
330
121
100
AcDbEntity
  8
GR1-1
  6
細い実線
 62
     2
100
AcDbLine
 10
697.562263
 20
173.675628
 30
0.0
 11
697.562263
 21
173.415628
 31
0.0
  0
LINE
  5
12B
330
121
100
AcDbEntity
  8
GR1-1
  6
細い実線
 62
     2
100
AcDbLine
 10
697.562263
 20
173.415628
 30
0.0
 11
698.342263
 21
173.545628
 31
0.0
  0
LINE
  5
12C
330
121
100
AcDbEntity
  8
GR1-1
  6
細い実線
 62
     2
100
AcDbLine
 10
698.342263
 20
173.545628
 30
0.0
 11
697.562263
 21
173.675628
 31
0.0
  0
LINE
  5
12D
330
121
100
AcDbEntity
  8
GR1-1
  6
細い実線
 62
     2
100
AcDbLine
 10
699.647263
 20
173.675628
 30
0.0
 11
699.647263
 21
173.415628
 31
0.0
  0
LINE
  5
12E
330
121
100
AcDbEntity
  8
GR1-1
  6
細い実線
 62
     2
100
AcDbLine
 10
699.647263
 20
173.415628
 30
0.0
 11
698.867263
 21
173.545628
 31
0.0
  0
LINE
  5
12F
330
121
100
AcDbEntity
  8
GR1-1
  6
細い実線
 62
     2
100
AcDbLine
 10
698.867263
 20
173.545628
 30
0.0
 11
699.647263
 21
173.675628
 31
0.0
  0
ENDBLK
  5
123
330
121
100
AcDbEntity
  8
0
100
AcDbBlockEnd
  0
BLOCK
  5
131
330
130
100
AcDbEntity
  8
0
100
AcDbBlockBegin
  2
BLKF027
 70
     0
 71
     0
 10
0.0
 20
0.0
 30
0.0
  3
BLKF027
  1

  0
LINE
  5
134
330
130
100
AcDbEntity
  8
GR1-1
  6
細い実線
 62
     2
100
AcDbLine
 10
698.342263
 20
177.661561
 30
0.0
 11
698.342263
 21
172.945628
 31
0.0
  0
LINE
  5
135
330
130
100
AcDbEntity
  8
GR1-1
  6
細い実線
 62
     2
100
AcDbLine
 10
697.592263
 20
177.661561
 30
0.0
 11
697.592263
 21
172.945628
 31
0.0
  0
LINE
  5
136
330
130
100
AcDbEntity
  8
GR1-1
  6
細い実線
 62
     2
100
AcDbLine
 10
699.122263
 20
173.545628
 30
0.0
 11
699.902263
 21
173.545628
 31
0.0
  0
LINE
  5
137
330
130
100
AcDbEntity
  8
GR1-1
  6
細い実線
 62
     2
100
AcDbLine
 10
696.812263
 20
173.545628
 30
0.0
 11
696.032263
 21
173.545628
 31
0.0
  0
TEXT
  5
138
330
130
100
AcDbEntity
  8
GR1-1
  6
細い実線
 62
     4
100
AcDbText
 10
695.750313
 20
171.241387
 30
0.0
 40
1.5
  1
12.5
 41
0.7
  7
FX_VECTOR
 72
     5
 11
699.950313
 21
171.241387
 31
0.0
100
AcDbText
  0
LINE
  5
139
330
130
100
AcDbEntity
  8
GR1-1
  6
細い実線
 62
     2
100
AcDbLine
 10
699.122263
 20
173.675628
 30
0.0
 11
699.122263
 21
173.415628
 31
0.0
  0
LINE
  5
13A
330
130
100
AcDbEntity
  8
GR1-1
  6
細い実線
 62
     2
100
AcDbLine
 10
699.122263
 20
173.415628
 30
0.0
 11
698.342263
 21
173.545628
 31
0.0
  0
LINE
  5
13B
330
130
100
AcDbEntity
  8
GR1-1
  6
細い実線
 62
     2
100
AcDbLine
 10
698.342263
 20
173.545628
 30
0.0
 11
699.122263
 21
173.675628
 31
0.0
  0
LINE
  5
13C
330
130
100
AcDbEntity
  8
GR1-1
  6
細い実線
 62
     2
100
AcDbLine
 10
696.812263
 20
173.675628
 30
0.0
 11
696.812263
 21
173.415628
 31
0.0
  0
LINE
  5
13D
330
130
100
AcDbEntity
  8
GR1-1
  6
細い実線
 62
     2
100
AcDbLine
 10
696.812263
 20
173.415628
 30
0.0
 11
697.592263
 21
173.545628
 31
0.0
  0
LINE
  5
13E
330
130
100
AcDbEntity
  8
GR1-1
  6
細い実線
 62
     2
100
AcDbLine
 10
697.592263
 20
173.545628
 30
0.0
 11
696.812263
 21
173.675628
 31
0.0
  0
ENDBLK
  5
132
330
130
100
AcDbEntity
  8
0
100
AcDbBlockEnd
  0
BLOCK
  5
140
330
13F
100
AcDbEntity
  8
0
100
AcDbBlockBegin
  2
BLKF028
 70
     0
 71
     0
 10
0.0
 20
0.0
 30
0.0
  3
BLKF028
  1

  0
LINE
  5
143
330
13F
100
AcDbEntity
  8
GR1-1
  6
細い実線
 62
     2
100
AcDbLine
 10
697.592263
 20
177.661561
 30
0.0
 11
697.592263
 21
172.945628
 31
0.0
  0
LINE
  5
144
330
13F
100
AcDbEntity
  8
GR1-1
  6
細い実線
 62
     2
100
AcDbLine
 10
697.067263
 20
177.061561
 30
0.0
 11
697.067263
 21
172.945628
 31
0.0
  0
LINE
  5
145
330
13F
100
AcDbEntity
  8
GR1-1
  6
細い実線
 62
     2
100
AcDbLine
 10
698.372263
 20
173.545628
 30
0.0
 11
699.152263
 21
173.545628
 31
0.0
  0
LINE
  5
146
330
13F
100
AcDbEntity
  8
GR1-1
  6
細い実線
 62
     2
100
AcDbLine
 10
696.287263
 20
173.545628
 30
0.0
 11
695.507263
 21
173.545628
 31
0.0
  0
TEXT
  5
147
330
13F
100
AcDbEntity
  8
GR1-1
  6
細い実線
 62
     4
100
AcDbText
 10
692.964219
 20
173.869063
 30
0.0
 40
1.5
  1
8.75
 41
0.7
  7
FX_VECTOR
 72
     5
 11
697.164219
 21
173.869063
 31
0.0
100
AcDbText
  0
LINE
  5
148
330
13F
100
AcDbEntity
  8
GR1-1
  6
細い実線
 62
     2
100
AcDbLine
 10
698.372263
 20
173.675628
 30
0.0
 11
698.372263
 21
173.415628
 31
0.0
  0
LINE
  5
149
330
13F
100
AcDbEntity
  8
GR1-1
  6
細い実線
 62
     2
100
AcDbLine
 10
698.372263
 20
173.415628
 30
0.0
 11
697.592263
 21
173.545628
 31
0.0
  0
LINE
  5
14A
330
13F
100
AcDbEntity
  8
GR1-1
  6
細い実線
 62
     2
100
AcDbLine
 10
697.592263
 20
173.545628
 30
0.0
 11
698.372263
 21
173.675628
 31
0.0
  0
LINE
  5
14B
330
13F
100
AcDbEntity
  8
GR1-1
  6
細い実線
 62
     2
100
AcDbLine
 10
696.287263
 20
173.675628
 30
0.0
 11
696.287263
 21
173.415628
 31
0.0
  0
LINE
  5
14C
330
13F
100
AcDbEntity
  8
GR1-1
  6
細い実線
 62
     2
100
AcDbLine
 10
696.287263
 20
173.415628
 30
0.0
 11
697.067263
 21
173.545628
 31
0.0
  0
LINE
  5
14D
330
13F
100
AcDbEntity
  8
GR1-1
  6
細い実線
 62
     2
100
AcDbLine
 10
697.067263
 20
173.545628
 30
0.0
 11
696.287263
 21
173.675628
 31
0.0
  0
ENDBLK
  5
141
330
13F
100
AcDbEntity
  8
0
100
AcDbBlockEnd
  0
BLOCK
  5
14F
330
14E
100
AcDbEntity
  8
0
100
AcDbBlockBegin
  2
BLKF029
 70
     0
 71
     0
 10
0.0
 20
0.0
 30
0.0
  3
BLKF029
  1

  0
LINE
  5
152
330
14E
100
AcDbEntity
  8
GR1-1
  6
細い実線
 62
     2
100
AcDbLine
 10
697.067263
 20
177.061561
 30
0.0
 11
697.067263
 21
167.862866
 31
0.0
  0
LINE
  5
153
330
14E
100
AcDbEntity
  8
GR1-1
  6
細い実線
 62
     2
100
AcDbLine
 10
698.867263
 20
177.061561
 30
0.0
 11
698.867263
 21
167.862866
 31
0.0
  0
LINE
  5
154
330
14E
100
AcDbEntity
  8
GR1-1
  6
細い実線
 62
     2
100
AcDbLine
 10
696.287263
 20
168.462866
 30
0.0
 11
695.507263
 21
168.462866
 31
0.0
  0
LINE
  5
155
330
14E
100
AcDbEntity
  8
GR1-1
  6
細い実線
 62
     2
100
AcDbLine
 10
699.647263
 20
168.462866
 30
0.0
 11
700.427263
 21
168.462866
 31
0.0
  0
TEXT
  5
156
330
14E
100
AcDbEntity
  8
GR1-1
  6
細い実線
 62
     4
100
AcDbText
 10
696.917266
 20
168.975996
 30
0.0
 40
1.5
  1
30
 41
0.7
  7
FX_VECTOR
 72
     5
 11
699.017266
 21
168.975996
 31
0.0
100
AcDbText
  0
LINE
  5
157
330
14E
100
AcDbEntity
  8
GR1-1
  6
細い実線
 62
     2
100
AcDbLine
 10
696.287263
 20
168.592866
 30
0.0
 11
696.287263
 21
168.332866
 31
0.0
  0
LINE
  5
158
330
14E
100
AcDbEntity
  8
GR1-1
  6
細い実線
 62
     2
100
AcDbLine
 10
696.287263
 20
168.332866
 30
0.0
 11
697.067263
 21
168.462866
 31
0.0
  0
LINE
  5
159
330
14E
100
AcDbEntity
  8
GR1-1
  6
細い実線
 62
     2
100
AcDbLine
 10
697.067263
 20
168.462866
 30
0.0
 11
696.287263
 21
168.592866
 31
0.0
  0
LINE
  5
15A
330
14E
100
AcDbEntity
  8
GR1-1
  6
細い実線
 62
     2
100
AcDbLine
 10
699.647263
 20
168.592866
 30
0.0
 11
699.647263
 21
168.332866
 31
0.0
  0
LINE
  5
15B
330
14E
100
AcDbEntity
  8
GR1-1
  6
細い実線
 62
     2
100
AcDbLine
 10
699.647263
 20
168.332866
 30
0.0
 11
698.867263
 21
168.462866
 31
0.0
  0
LINE
  5
15C
330
14E
100
AcDbEntity
  8
GR1-1
  6
細い実線
 62
     2
100
AcDbLine
 10
698.867263
 20
168.462866
 30
0.0
 11
699.647263
 21
168.592866
 31
0.0
  0
ENDBLK
  5
150
330
14E
100
AcDbEntity
  8
0
100
AcDbBlockEnd
  0
BLOCK
  5
15E
330
15D
100
AcDbEntity
  8
0
100
AcDbBlockBegin
  2
BLKF030
 70
     0
 71
     0
 10
0.0
 20
0.0
 30
0.0
  3
BLKF030
  1

  0
LINE
  5
161
330
15D
100
AcDbEntity
  8
GR1-1
  6
細い実線
 62
     2
100
AcDbLine
 10
699.242263
 20
180.661561
 30
0.0
 11
703.673689
 21
180.661561
 31
0.0
  0
LINE
  5
162
330
15D
100
AcDbEntity
  8
GR1-1
  6
細い実線
 62
     2
100
AcDbLine
 10
699.767263
 20
181.261561
 30
0.0
 11
703.673689
 21
181.261561
 31
0.0
  0
LINE
  5
163
330
15D
100
AcDbEntity
  8
GR1-1
  6
細い実線
 62
     2
100
AcDbLine
 10
703.073689
 20
179.881561
 30
0.0
 11
703.073689
 21
179.101561
 31
0.0
  0
LINE
  5
164
330
15D
100
AcDbEntity
  8
GR1-1
  6
細い実線
 62
     2
100
AcDbLine
 10
703.073689
 20
182.041561
 30
0.0
 11
703.073689
 21
182.821561
 31
0.0
  0
TEXT
  5
165
330
15D
100
AcDbEntity
  8
GR1-1
  6
細い実線
 62
     4
100
AcDbText
 10
702.512109
 20
181.246934
 30
0.0
 40
1.5
  1
10
 50
90.0
 41
0.7
  7
FX_VECTOR
 72
     5
 11
702.512109
 21
183.346934
 31
0.0
100
AcDbText
  0
LINE
  5
166
330
15D
100
AcDbEntity
  8
GR1-1
  6
細い実線
 62
     2
100
AcDbLine
 10
702.943689
 20
179.881561
 30
0.0
 11
703.203689
 21
179.881561
 31
0.0
  0
LINE
  5
167
330
15D
100
AcDbEntity
  8
GR1-1
  6
細い実線
 62
     2
100
AcDbLine
 10
703.203689
 20
179.881561
 30
0.0
 11
703.073689
 21
180.661561
 31
0.0
  0
LINE
  5
168
330
15D
100
AcDbEntity
  8
GR1-1
  6
細い実線
 62
     2
100
AcDbLine
 10
703.073689
 20
180.661561
 30
0.0
 11
702.943689
 21
179.881561
 31
0.0
  0
LINE
  5
169
330
15D
100
AcDbEntity
  8
GR1-1
  6
細い実線
 62
     2
100
AcDbLine
 10
702.943689
 20
182.041561
 30
0.0
 11
703.203689
 21
182.041561
 31
0.0
  0
LINE
  5
16A
330
15D
100
AcDbEntity
  8
GR1-1
  6
細い実線
 62
     2
100
AcDbLine
 10
703.203689
 20
182.041561
 30
0.0
 11
703.073689
 21
181.261561
 31
0.0
  0
LINE
  5
16B
330
15D
100
AcDbEntity
  8
GR1-1
  6
細い実線
 62
     2
100
AcDbLine
 10
703.073689
 20
181.261561
 30
0.0
 11
702.943689
 21
182.041561
 31
0.0
  0
ENDBLK
  5
15F
330
15D
100
AcDbEntity
  8
0
100
AcDbBlockEnd
  0
BLOCK
  5
16D
330
16C
100
AcDbEntity
  8
0
100
AcDbBlockBegin
  2
BLKF031
 70
     0
 71
     0
 10
0.0
 20
0.0
 30
0.0
  3
BLKF031
  1

  0
LINE
  5
170
330
16C
100
AcDbEntity
  8
GR1-1
  6
細い実線
 62
     2
100
AcDbLine
 10
699.242263
 20
180.661561
 30
0.0
 11
703.673689
 21
180.661561
 31
0.0
  0
LINE
  5
171
330
16C
100
AcDbEntity
  8
GR1-1
  6
細い実線
 62
     2
100
AcDbLine
 10
699.242263
 20
178.561561
 30
0.0
 11
703.673689
 21
178.561561
 31
0.0
  0
LINE
  5
172
330
16C
100
AcDbEntity
  8
GR1-1
  6
細い実線
 62
     2
100
AcDbLine
 10
703.073689
 20
181.441561
 30
0.0
 11
703.073689
 21
182.221561
 31
0.0
  0
LINE
  5
173
330
16C
100
AcDbEntity
  8
GR1-1
  6
細い実線
 62
     2
100
AcDbLine
 10
703.073689
 20
177.781561
 30
0.0
 11
703.073689
 21
177.001561
 31
0.0
  0
TEXT
  5
174
330
16C
100
AcDbEntity
  8
GR1-1
  6
細い実線
 62
     4
100
AcDbText
 10
702.628516
 20
178.501523
 30
0.0
 40
1.5
  1
35
 50
90.0
 41
0.7
  7
FX_VECTOR
 72
     5
 11
702.628516
 21
180.601523
 31
0.0
100
AcDbText
  0
LINE
  5
175
330
16C
100
AcDbEntity
  8
GR1-1
  6
細い実線
 62
     2
100
AcDbLine
 10
702.943689
 20
181.441561
 30
0.0
 11
703.203689
 21
181.441561
 31
0.0
  0
LINE
  5
176
330
16C
100
AcDbEntity
  8
GR1-1
  6
細い実線
 62
     2
100
AcDbLine
 10
703.203689
 20
181.441561
 30
0.0
 11
703.073689
 21
180.661561
 31
0.0
  0
LINE
  5
177
330
16C
100
AcDbEntity
  8
GR1-1
  6
細い実線
 62
     2
100
AcDbLine
 10
703.073689
 20
180.661561
 30
0.0
 11
702.943689
 21
181.441561
 31
0.0
  0
LINE
  5
178
330
16C
100
AcDbEntity
  8
GR1-1
  6
細い実線
 62
     2
100
AcDbLine
 10
702.943689
 20
177.781561
 30
0.0
 11
703.203689
 21
177.781561
 31
0.0
  0
LINE
  5
179
330
16C
100
AcDbEntity
  8
GR1-1
  6
細い実線
 62
     2
100
AcDbLine
 10
703.203689
 20
177.781561
 30
0.0
 11
703.073689
 21
178.561561
 31
0.0
  0
LINE
  5
17A
330
16C
100
AcDbEntity
  8
GR1-1
  6
細い実線
 62
     2
100
AcDbLine
 10
703.073689
 20
178.561561
 30
0.0
 11
702.943689
 21
177.781561
 31
0.0
  0
ENDBLK
  5
16E
330
16C
100
AcDbEntity
  8
0
100
AcDbBlockEnd
  0
BLOCK
  5
17C
330
17B
100
AcDbEntity
  8
0
100
AcDbBlockBegin
  2
BLKF032
 70
     0
 71
     0
 10
0.0
 20
0.0
 30
0.0
  3
BLKF032
  1

  0
LINE
  5
17F
330
17B
100
AcDbEntity
  8
GR1-1
  6
細い実線
 62
     2
100
AcDbLine
 10
699.242263
 20
178.561561
 30
0.0
 11
703.673689
 21
178.561561
 31
0.0
  0
LINE
  5
180
330
17B
100
AcDbEntity
  8
GR1-1
  6
細い実線
 62
     2
100
AcDbLine
 10
699.767263
 20
177.961561
 30
0.0
 11
703.673689
 21
177.961561
 31
0.0
  0
LINE
  5
181
330
17B
100
AcDbEntity
  8
GR1-1
  6
細い実線
 62
     2
100
AcDbLine
 10
703.073689
 20
179.341561
 30
0.0
 11
703.073689
 21
180.121561
 31
0.0
  0
LINE
  5
182
330
17B
100
AcDbEntity
  8
GR1-1
  6
細い実線
 62
     2
100
AcDbLine
 10
703.073689
 20
177.181561
 30
0.0
 11
703.073689
 21
176.401561
 31
0.0
  0
TEXT
  5
183
330
17B
100
AcDbEntity
  8
GR1-1
  6
細い実線
 62
     4
100
AcDbText
 10
702.605234
 20
175.942246
 30
0.0
 40
1.5
  1
10
 50
90.0
 41
0.7
  7
FX_VECTOR
 72
     5
 11
702.605234
 21
178.042246
 31
0.0
100
AcDbText
  0
LINE
  5
184
330
17B
100
AcDbEntity
  8
GR1-1
  6
細い実線
 62
     2
100
AcDbLine
 10
702.943689
 20
179.341561
 30
0.0
 11
703.203689
 21
179.341561
 31
0.0
  0
LINE
  5
185
330
17B
100
AcDbEntity
  8
GR1-1
  6
細い実線
 62
     2
100
AcDbLine
 10
703.203689
 20
179.341561
 30
0.0
 11
703.073689
 21
178.561561
 31
0.0
  0
LINE
  5
186
330
17B
100
AcDbEntity
  8
GR1-1
  6
細い実線
 62
     2
100
AcDbLine
 10
703.073689
 20
178.561561
 30
0.0
 11
702.943689
 21
179.341561
 31
0.0
  0
LINE
  5
187
330
17B
100
AcDbEntity
  8
GR1-1
  6
細い実線
 62
     2
100
AcDbLine
 10
702.943689
 20
177.181561
 30
0.0
 11
703.203689
 21
177.181561
 31
0.0
  0
LINE
  5
188
330
17B
100
AcDbEntity
  8
GR1-1
  6
細い実線
 62
     2
100
AcDbLine
 10
703.203689
 20
177.181561
 30
0.0
 11
703.073689
 21
177.961561
 31
0.0
  0
LINE
  5
189
330
17B
100
AcDbEntity
  8
GR1-1
  6
細い実線
 62
     2
100
AcDbLine
 10
703.073689
 20
177.961561
 30
0.0
 11
702.943689
 21
177.181561
 31
0.0
  0
ENDBLK
  5
17D
330
17B
100
AcDbEntity
  8
0
100
AcDbBlockEnd
  0
BLOCK
  5
18B
330
18A
100
AcDbEntity
  8
0
100
AcDbBlockBegin
  2
BLKF033
 70
     0
 71
     0
 10
0.0
 20
0.0
 30
0.0
  3
BLKF033
  1

  0
LINE
  5
18E
330
18A
100
AcDbEntity
  8
GR1-1
  6
細い実線
 62
     2
100
AcDbLine
 10
699.767263
 20
181.261561
 30
0.0
 11
706.836621
 21
181.261561
 31
0.0
  0
LINE
  5
18F
330
18A
100
AcDbEntity
  8
GR1-1
  6
細い実線
 62
     2
100
AcDbLine
 10
699.767263
 20
177.961561
 30
0.0
 11
706.836621
 21
177.961561
 31
0.0
  0
LINE
  5
190
330
18A
100
AcDbEntity
  8
GR1-1
  6
細い実線
 62
     2
100
AcDbLine
 10
706.236621
 20
180.481561
 30
0.0
 11
706.236621
 21
178.741561
 31
0.0
  0
LINE
  5
191
330
18A
100
AcDbEntity
  8
GR1-1
  6
細い実線
 62
     2
100
AcDbLine
 10
706.106621
 20
180.481561
 30
0.0
 11
706.366621
 21
180.481561
 31
0.0
  0
LINE
  5
192
330
18A
100
AcDbEntity
  8
GR1-1
  6
細い実線
 62
     2
100
AcDbLine
 10
706.366621
 20
180.481561
 30
0.0
 11
706.236621
 21
181.261561
 31
0.0
  0
LINE
  5
193
330
18A
100
AcDbEntity
  8
GR1-1
  6
細い実線
 62
     2
100
AcDbLine
 10
706.236621
 20
181.261561
 30
0.0
 11
706.106621
 21
180.481561
 31
0.0
  0
LINE
  5
194
330
18A
100
AcDbEntity
  8
GR1-1
  6
細い実線
 62
     2
100
AcDbLine
 10
706.106621
 20
178.741561
 30
0.0
 11
706.366621
 21
178.741561
 31
0.0
  0
LINE
  5
195
330
18A
100
AcDbEntity
  8
GR1-1
  6
細い実線
 62
     2
100
AcDbLine
 10
706.366621
 20
178.741561
 30
0.0
 11
706.236621
 21
177.961561
 31
0.0
  0
LINE
  5
196
330
18A
100
AcDbEntity
  8
GR1-1
  6
細い実線
 62
     2
100
AcDbLine
 10
706.236621
 20
177.961561
 30
0.0
 11
706.106621
 21
178.741561
 31
0.0
  0
TEXT
  5
197
330
18A
100
AcDbEntity
  8
GR1-1
  6
細い実線
 62
     4
100
AcDbText
 10
705.636562
 20
178.561563
 30
0.0
 40
1.5
  1
55
 50
90.0
 41
0.7
  7
FX_VECTOR
 72
     5
 11
705.636562
 21
180.661563
 31
0.0
100
AcDbText
  0
ENDBLK
  5
18C
330
18A
100
AcDbEntity
  8
0
100
AcDbBlockEnd
  0
BLOCK
  5
199
330
198
100
AcDbEntity
  8
0
100
AcDbBlockBegin
  2
BLKF034
 70
     0
 71
     0
 10
0.0
 20
0.0
 30
0.0
  3
BLKF034
  1

  0
LINE
  5
19C
330
198
100
AcDbEntity
  8
GR1-1
  6
細い実線
 62
     2
100
AcDbLine
 10
696.692263
 20
185.818822
 30
0.0
 11
693.055547
 21
185.818822
 31
0.0
  0
LINE
  5
19D
330
198
100
AcDbEntity
  8
GR1-1
  6
細い実線
 62
     2
100
AcDbLine
 10
695.277937
 20
182.818822
 30
0.0
 11
693.055547
 21
182.818822
 31
0.0
  0
LINE
  5
19E
330
198
100
AcDbEntity
  8
GR1-1
  6
細い実線
 62
     2
100
AcDbLine
 10
693.655547
 20
185.038822
 30
0.0
 11
693.655547
 21
183.598822
 31
0.0
  0
LINE
  5
19F
330
198
100
AcDbEntity
  8
GR1-1
  6
細い実線
 62
     2
100
AcDbLine
 10
693.525547
 20
185.038822
 30
0.0
 11
693.785547
 21
185.038822
 31
0.0
  0
LINE
  5
1A0
330
198
100
AcDbEntity
  8
GR1-1
  6
細い実線
 62
     2
100
AcDbLine
 10
693.785547
 20
185.038822
 30
0.0
 11
693.655547
 21
185.818822
 31
0.0
  0
LINE
  5
1A1
330
198
100
AcDbEntity
  8
GR1-1
  6
細い実線
 62
     2
100
AcDbLine
 10
693.655547
 20
185.818822
 30
0.0
 11
693.525547
 21
185.038822
 31
0.0
  0
LINE
  5
1A2
330
198
100
AcDbEntity
  8
GR1-1
  6
細い実線
 62
     2
100
AcDbLine
 10
693.525547
 20
183.598822
 30
0.0
 11
693.785547
 21
183.598822
 31
0.0
  0
LINE
  5
1A3
330
198
100
AcDbEntity
  8
GR1-1
  6
細い実線
 62
     2
100
AcDbLine
 10
693.785547
 20
183.598822
 30
0.0
 11
693.655547
 21
182.818822
 31
0.0
  0
LINE
  5
1A4
330
198
100
AcDbEntity
  8
GR1-1
  6
細い実線
 62
     2
100
AcDbLine
 10
693.655547
 20
182.818822
 30
0.0
 11
693.525547
 21
183.598822
 31
0.0
  0
TEXT
  5
1A5
330
198
100
AcDbEntity
  8
GR1-1
  6
細い実線
 62
     4
100
AcDbText
 10
693.055547
 20
183.268828
 30
0.0
 40
1.5
  1
50
 50
90.0
 41
0.7
  7
FX_VECTOR
 72
     5
 11
693.055547
 21
185.368828
 31
0.0
100
AcDbText
  0
ENDBLK
  5
19A
330
198
100
AcDbEntity
  8
0
100
AcDbBlockEnd
  0
BLOCK
  5
1A9
330
1A8
100
AcDbEntity
  8
0
100
AcDbBlockBegin
  2
BLKF035
 70
     0
 71
     0
 10
0.0
 20
0.0
 30
0.0
  3
BLKF035
  1

  0
LINE
  5
1AC
330
1A8
100
AcDbEntity
  8
GR1-1
  6
細い実線
 62
     2
100
AcDbLine
 10
683.452713
 20
182.603677
 30
0.0
 11
686.427091
 21
182.603677
 31
0.0
  0
LINE
  5
1AD
330
1A8
100
AcDbEntity
  8
GR1-1
  6
細い実線
 62
     2
100
AcDbLine
 10
682.038387
 20
179.603677
 30
0.0
 11
686.427091
 21
179.603677
 31
0.0
  0
LINE
  5
1AE
330
1A8
100
AcDbEntity
  8
GR1-1
  6
細い実線
 62
     2
100
AcDbLine
 10
685.827091
 20
181.823677
 30
0.0
 11
685.827091
 21
180.383677
 31
0.0
  0
LINE
  5
1AF
330
1A8
100
AcDbEntity
  8
GR1-1
  6
細い実線
 62
     2
100
AcDbLine
 10
685.697091
 20
181.823677
 30
0.0
 11
685.957091
 21
181.823677
 31
0.0
  0
LINE
  5
1B0
330
1A8
100
AcDbEntity
  8
GR1-1
  6
細い実線
 62
     2
100
AcDbLine
 10
685.957091
 20
181.823677
 30
0.0
 11
685.827091
 21
182.603677
 31
0.0
  0
LINE
  5
1B1
330
1A8
100
AcDbEntity
  8
GR1-1
  6
細い実線
 62
     2
100
AcDbLine
 10
685.827091
 20
182.603677
 30
0.0
 11
685.697091
 21
181.823677
 31
0.0
  0
LINE
  5
1B2
330
1A8
100
AcDbEntity
  8
GR1-1
  6
細い実線
 62
     2
100
AcDbLine
 10
685.697091
 20
180.383677
 30
0.0
 11
685.957091
 21
180.383677
 31
0.0
  0
LINE
  5
1B3
330
1A8
100
AcDbEntity
  8
GR1-1
  6
細い実線
 62
     2
100
AcDbLine
 10
685.957091
 20
180.383677
 30
0.0
 11
685.827091
 21
179.603677
 31
0.0
  0
LINE
  5
1B4
330
1A8
100
AcDbEntity
  8
GR1-1
  6
細い実線
 62
     2
100
AcDbLine
 10
685.827091
 20
179.603677
 30
0.0
 11
685.697091
 21
180.383677
 31
0.0
  0
TEXT
  5
1B5
330
1A8
100
AcDbEntity
  8
GR1-1
  6
細い実線
 62
     4
100
AcDbText
 10
685.227031
 20
180.053672
 30
0.0
 40
1.5
  1
50
 50
90.0
 41
0.7
  7
FX_VECTOR
 72
     5
 11
685.227031
 21
182.153672
 31
0.0
100
AcDbText
  0
ENDBLK
  5
1AA
330
1A8
100
AcDbEntity
  8
0
100
AcDbBlockEnd
  0
BLOCK
  5
1B7
330
1B6
100
AcDbEntity
  8
0
100
AcDbBlockBegin
  2
BLKF036
 70
     0
 71
     0
 10
0.0
 20
0.0
 30
0.0
  3
BLKF036
  1

  0
LINE
  5
1BA
330
1B6
100
AcDbEntity
  8
GR1-1
  6
細い実線
 62
     2
100
AcDbLine
 10
693.501493
 20
212.140298
 30
0.0
 11
693.501493
 21
208.171677
 31
0.0
  0
LINE
  5
1BB
330
1B6
100
AcDbEntity
  8
GR1-1
  6
細い実線
 62
     2
100
AcDbLine
 10
693.201493
 20
211.420298
 30
0.0
 11
693.201493
 21
208.171677
 31
0.0
  0
LINE
  5
1BC
330
1B6
100
AcDbEntity
  8
GR1-1
  6
細い実線
 62
     2
100
AcDbLine
 10
694.281493
 20
208.771677
 30
0.0
 11
695.061493
 21
208.771677
 31
0.0
  0
LINE
  5
1BD
330
1B6
100
AcDbEntity
  8
GR1-1
  6
細い実線
 62
     2
100
AcDbLine
 10
692.421493
 20
208.771677
 30
0.0
 11
691.641493
 21
208.771677
 31
0.0
  0
TEXT
  5
1BE
330
1B6
100
AcDbEntity
  8
GR1-1
  6
細い実線
 62
     4
100
AcDbText
 10
691.75
 20
209.1375
 30
0.0
 40
1.5
  1
5
 41
0.7
  7
FX_VECTOR
 72
     5
 11
692.8
 21
209.1375
 31
0.0
100
AcDbText
  0
LINE
  5
1BF
330
1B6
100
AcDbEntity
  8
GR1-1
  6
細い実線
 62
     2
100
AcDbLine
 10
694.281493
 20
208.901677
 30
0.0
 11
694.281493
 21
208.641677
 31
0.0
  0
LINE
  5
1C0
330
1B6
100
AcDbEntity
  8
GR1-1
  6
細い実線
 62
     2
100
AcDbLine
 10
694.281493
 20
208.641677
 30
0.0
 11
693.501493
 21
208.771677
 31
0.0
  0
LINE
  5
1C1
330
1B6
100
AcDbEntity
  8
GR1-1
  6
細い実線
 62
     2
100
AcDbLine
 10
693.501493
 20
208.771677
 30
0.0
 11
694.281493
 21
208.901677
 31
0.0
  0
LINE
  5
1C2
330
1B6
100
AcDbEntity
  8
GR1-1
  6
細い実線
 62
     2
100
AcDbLine
 10
692.421493
 20
208.901677
 30
0.0
 11
692.421493
 21
208.641677
 31
0.0
  0
LINE
  5
1C3
330
1B6
100
AcDbEntity
  8
GR1-1
  6
細い実線
 62
     2
100
AcDbLine
 10
692.421493
 20
208.641677
 30
0.0
 11
693.201493
 21
208.771677
 31
0.0
  0
LINE
  5
1C4
330
1B6
100
AcDbEntity
  8
GR1-1
  6
細い実線
 62
     2
100
AcDbLine
 10
693.201493
 20
208.771677
 30
0.0
 11
692.421493
 21
208.901677
 31
0.0
  0
ENDBLK
  5
1B8
330
1B6
100
AcDbEntity
  8
0
100
AcDbBlockEnd
  0
BLOCK
  5
1C6
330
1C5
100
AcDbEntity
  8
0
100
AcDbBlockBegin
  2
BLKF037
 70
     0
 71
     0
 10
0.0
 20
0.0
 30
0.0
  3
BLKF037
  1

  0
LINE
  5
1C9
330
1C5
100
AcDbEntity
  8
GR1-1
  6
細い実線
 62
     2
100
AcDbLine
 10
693.501493
 20
212.140298
 30
0.0
 11
693.501493
 21
208.171677
 31
0.0
  0
LINE
  5
1CA
330
1C5
100
AcDbEntity
  8
GR1-1
  6
細い実線
 62
     2
100
AcDbLine
 10
695.901493
 20
212.140298
 30
0.0
 11
695.901493
 21
208.171677
 31
0.0
  0
LINE
  5
1CB
330
1C5
100
AcDbEntity
  8
GR1-1
  6
細い実線
 62
     2
100
AcDbLine
 10
692.721493
 20
208.771677
 30
0.0
 11
691.941493
 21
208.771677
 31
0.0
  0
LINE
  5
1CC
330
1C5
100
AcDbEntity
  8
GR1-1
  6
細い実線
 62
     2
100
AcDbLine
 10
696.681493
 20
208.771677
 30
0.0
 11
697.461493
 21
208.771677
 31
0.0
  0
TEXT
  5
1CD
330
1C5
100
AcDbEntity
  8
GR1-1
  6
細い実線
 62
     4
100
AcDbText
 10
693.536563
 20
209.215352
 30
0.0
 40
1.5
  1
40
 41
0.7
  7
FX_VECTOR
 72
     5
 11
695.636563
 21
209.215352
 31
0.0
100
AcDbText
  0
LINE
  5
1CE
330
1C5
100
AcDbEntity
  8
GR1-1
  6
細い実線
 62
     2
100
AcDbLine
 10
692.721493
 20
208.901677
 30
0.0
 11
692.721493
 21
208.641677
 31
0.0
  0
LINE
  5
1CF
330
1C5
100
AcDbEntity
  8
GR1-1
  6
細い実線
 62
     2
100
AcDbLine
 10
692.721493
 20
208.641677
 30
0.0
 11
693.501493
 21
208.771677
 31
0.0
  0
LINE
  5
1D0
330
1C5
100
AcDbEntity
  8
GR1-1
  6
細い実線
 62
     2
100
AcDbLine
 10
693.501493
 20
208.771677
 30
0.0
 11
692.721493
 21
208.901677
 31
0.0
  0
LINE
  5
1D1
330
1C5
100
AcDbEntity
  8
GR1-1
  6
細い実線
 62
     2
100
AcDbLine
 10
696.681493
 20
208.901677
 30
0.0
 11
696.681493
 21
208.641677
 31
0.0
  0
LINE
  5
1D2
330
1C5
100
AcDbEntity
  8
GR1-1
  6
細い実線
 62
     2
100
AcDbLine
 10
696.681493
 20
208.641677
 30
0.0
 11
695.901493
 21
208.771677
 31
0.0
  0
LINE
  5
1D3
330
1C5
100
AcDbEntity
  8
GR1-1
  6
細い実線
 62
     2
100
AcDbLine
 10
695.901493
 20
208.771677
 30
0.0
 11
696.681493
 21
208.901677
 31
0.0
  0
ENDBLK
  5
1C7
330
1C5
100
AcDbEntity
  8
0
100
AcDbBlockEnd
  0
BLOCK
  5
1D5
330
1D4
100
AcDbEntity
  8
0
100
AcDbBlockBegin
  2
BLKF038
 70
     0
 71
     0
 10
0.0
 20
0.0
 30
0.0
  3
BLKF038
  1

  0
LINE
  5
1D8
330
1D4
100
AcDbEntity
  8
GR1-1
  6
細い実線
 62
     2
100
AcDbLine
 10
693.201493
 20
211.420298
 30
0.0
 11
693.201493
 21
204.528202
 31
0.0
  0
LINE
  5
1D9
330
1D4
100
AcDbEntity
  8
GR1-1
  6
細い実線
 62
     2
100
AcDbLine
 10
695.901493
 20
212.140298
 30
0.0
 11
695.901493
 21
204.528202
 31
0.0
  0
LINE
  5
1DA
330
1D4
100
AcDbEntity
  8
GR1-1
  6
細い実線
 62
     2
100
AcDbLine
 10
692.421493
 20
205.128202
 30
0.0
 11
691.641493
 21
205.128202
 31
0.0
  0
LINE
  5
1DB
330
1D4
100
AcDbEntity
  8
GR1-1
  6
細い実線
 62
     2
100
AcDbLine
 10
696.681493
 20
205.128202
 30
0.0
 11
697.461493
 21
205.128202
 31
0.0
  0
TEXT
  5
1DC
330
1D4
100
AcDbEntity
  8
GR1-1
  6
細い実線
 62
     4
100
AcDbText
 10
693.458594
 20
205.596563
 30
0.0
 40
1.5
  1
45
 41
0.7
  7
FX_VECTOR
 72
     5
 11
695.558594
 21
205.596563
 31
0.0
100
AcDbText
  0
LINE
  5
1DD
330
1D4
100
AcDbEntity
  8
GR1-1
  6
細い実線
 62
     2
100
AcDbLine
 10
692.421493
 20
205.258202
 30
0.0
 11
692.421493
 21
204.998202
 31
0.0
  0
LINE
  5
1DE
330
1D4
100
AcDbEntity
  8
GR1-1
  6
細い実線
 62
     2
100
AcDbLine
 10
692.421493
 20
204.998202
 30
0.0
 11
693.201493
 21
205.128202
 31
0.0
  0
LINE
  5
1DF
330
1D4
100
AcDbEntity
  8
GR1-1
  6
細い実線
 62
     2
100
AcDbLine
 10
693.201493
 20
205.128202
 30
0.0
 11
692.421493
 21
205.258202
 31
0.0
  0
LINE
  5
1E0
330
1D4
100
AcDbEntity
  8
GR1-1
  6
細い実線
 62
     2
100
AcDbLine
 10
696.681493
 20
205.258202
 30
0.0
 11
696.681493
 21
204.998202
 31
0.0
  0
LINE
  5
1E1
330
1D4
100
AcDbEntity
  8
GR1-1
  6
細い実線
 62
     2
100
AcDbLine
 10
696.681493
 20
204.998202
 30
0.0
 11
695.901493
 21
205.128202
 31
0.0
  0
LINE
  5
1E2
330
1D4
100
AcDbEntity
  8
GR1-1
  6
細い実線
 62
     2
100
AcDbLine
 10
695.901493
 20
205.128202
 30
0.0
 11
696.681493
 21
205.258202
 31
0.0
  0
ENDBLK
  5
1D6
330
1D4
100
AcDbEntity
  8
0
100
AcDbBlockEnd
  0
BLOCK
  5
1E4
330
1E3
100
AcDbEntity
  8
0
100
AcDbBlockBegin
  2
BLKF039
 70
     0
 71
     0
 10
0.0
 20
0.0
 30
0.0
  3
BLKF039
  1

  0
LINE
  5
1E7
330
1E3
100
AcDbEntity
  8
GR1-1
  6
細い実線
 62
     2
100
AcDbLine
 10
683.35119
 20
212.140298
 30
0.0
 11
683.35119
 21
208.171677
 31
0.0
  0
LINE
  5
1E8
330
1E3
100
AcDbEntity
  8
GR1-1
  6
細い実線
 62
     2
100
AcDbLine
 10
683.05119
 20
211.420298
 30
0.0
 11
683.05119
 21
208.171677
 31
0.0
  0
LINE
  5
1E9
330
1E3
100
AcDbEntity
  8
GR1-1
  6
細い実線
 62
     2
100
AcDbLine
 10
684.13119
 20
208.771677
 30
0.0
 11
684.91119
 21
208.771677
 31
0.0
  0
LINE
  5
1EA
330
1E3
100
AcDbEntity
  8
GR1-1
  6
細い実線
 62
     2
100
AcDbLine
 10
682.27119
 20
208.771677
 30
0.0
 11
681.49119
 21
208.771677
 31
0.0
  0
TEXT
  5
1EB
330
1E3
100
AcDbEntity
  8
GR1-1
  6
細い実線
 62
     4
100
AcDbText
 10
681.620625
 20
209.189395
 30
0.0
 40
1.5
  1
5
 41
0.7
  7
FX_VECTOR
 72
     5
 11
682.670625
 21
209.189395
 31
0.0
100
AcDbText
  0
LINE
  5
1EC
330
1E3
100
AcDbEntity
  8
GR1-1
  6
細い実線
 62
     2
100
AcDbLine
 10
684.13119
 20
208.901677
 30
0.0
 11
684.13119
 21
208.641677
 31
0.0
  0
LINE
  5
1ED
330
1E3
100
AcDbEntity
  8
GR1-1
  6
細い実線
 62
     2
100
AcDbLine
 10
684.13119
 20
208.641677
 30
0.0
 11
683.35119
 21
208.771677
 31
0.0
  0
LINE
  5
1EE
330
1E3
100
AcDbEntity
  8
GR1-1
  6
細い実線
 62
     2
100
AcDbLine
 10
683.35119
 20
208.771677
 30
0.0
 11
684.13119
 21
208.901677
 31
0.0
  0
LINE
  5
1EF
330
1E3
100
AcDbEntity
  8
GR1-1
  6
細い実線
 62
     2
100
AcDbLine
 10
682.27119
 20
208.901677
 30
0.0
 11
682.27119
 21
208.641677
 31
0.0
  0
LINE
  5
1F0
330
1E3
100
AcDbEntity
  8
GR1-1
  6
細い実線
 62
     2
100
AcDbLine
 10
682.27119
 20
208.641677
 30
0.0
 11
683.05119
 21
208.771677
 31
0.0
  0
LINE
  5
1F1
330
1E3
100
AcDbEntity
  8
GR1-1
  6
細い実線
 62
     2
100
AcDbLine
 10
683.05119
 20
208.771677
 30
0.0
 11
682.27119
 21
208.901677
 31
0.0
  0
ENDBLK
  5
1E5
330
1E3
100
AcDbEntity
  8
0
100
AcDbBlockEnd
  0
BLOCK
  5
1F3
330
1F2
100
AcDbEntity
  8
0
100
AcDbBlockBegin
  2
BLKF040
 70
     0
 71
     0
 10
0.0
 20
0.0
 30
0.0
  3
BLKF040
  1

  0
LINE
  5
1F6
330
1F2
100
AcDbEntity
  8
GR1-1
  6
細い実線
 62
     2
100
AcDbLine
 10
683.35119
 20
212.140298
 30
0.0
 11
683.35119
 21
208.171677
 31
0.0
  0
LINE
  5
1F7
330
1F2
100
AcDbEntity
  8
GR1-1
  6
細い実線
 62
     2
100
AcDbLine
 10
685.75119
 20
212.140298
 30
0.0
 11
685.75119
 21
208.171677
 31
0.0
  0
LINE
  5
1F8
330
1F2
100
AcDbEntity
  8
GR1-1
  6
細い実線
 62
     2
100
AcDbLine
 10
682.57119
 20
208.771677
 30
0.0
 11
681.79119
 21
208.771677
 31
0.0
  0
LINE
  5
1F9
330
1F2
100
AcDbEntity
  8
GR1-1
  6
細い実線
 62
     2
100
AcDbLine
 10
686.53119
 20
208.771677
 30
0.0
 11
687.31119
 21
208.771677
 31
0.0
  0
TEXT
  5
1FA
330
1F2
100
AcDbEntity
  8
GR1-1
  6
細い実線
 62
     4
100
AcDbText
 10
683.277344
 20
209.215352
 30
0.0
 40
1.5
  1
40
 41
0.7
  7
FX_VECTOR
 72
     5
 11
685.377344
 21
209.215352
 31
0.0
100
AcDbText
  0
LINE
  5
1FB
330
1F2
100
AcDbEntity
  8
GR1-1
  6
細い実線
 62
     2
100
AcDbLine
 10
682.57119
 20
208.901677
 30
0.0
 11
682.57119
 21
208.641677
 31
0.0
  0
LINE
  5
1FC
330
1F2
100
AcDbEntity
  8
GR1-1
  6
細い実線
 62
     2
100
AcDbLine
 10
682.57119
 20
208.641677
 30
0.0
 11
683.35119
 21
208.771677
 31
0.0
  0
LINE
  5
1FD
330
1F2
100
AcDbEntity
  8
GR1-1
  6
細い実線
 62
     2
100
AcDbLine
 10
683.35119
 20
208.771677
 30
0.0
 11
682.57119
 21
208.901677
 31
0.0
  0
LINE
  5
1FE
330
1F2
100
AcDbEntity
  8
GR1-1
  6
細い実線
 62
     2
100
AcDbLine
 10
686.53119
 20
208.901677
 30
0.0
 11
686.53119
 21
208.641677
 31
0.0
  0
LINE
  5
1FF
330
1F2
100
AcDbEntity
  8
GR1-1
  6
細い実線
 62
     2
100
AcDbLine
 10
686.53119
 20
208.641677
 30
0.0
 11
685.75119
 21
208.771677
 31
0.0
  0
LINE
  5
200
330
1F2
100
AcDbEntity
  8
GR1-1
  6
細い実線
 62
     2
100
AcDbLine
 10
685.75119
 20
208.771677
 30
0.0
 11
686.53119
 21
208.901677
 31
0.0
  0
ENDBLK
  5
1F4
330
1F2
100
AcDbEntity
  8
0
100
AcDbBlockEnd
  0
BLOCK
  5
202
330
201
100
AcDbEntity
  8
0
100
AcDbBlockBegin
  2
BLKF041
 70
     0
 71
     0
 10
0.0
 20
0.0
 30
0.0
  3
BLKF041
  1

  0
LINE
  5
205
330
201
100
AcDbEntity
  8
GR1-1
  6
細い実線
 62
     2
100
AcDbLine
 10
685.75119
 20
212.140298
 30
0.0
 11
685.75119
 21
208.171677
 31
0.0
  0
LINE
  5
206
330
201
100
AcDbEntity
  8
GR1-1
  6
細い実線
 62
     2
100
AcDbLine
 10
686.05119
 20
211.420298
 30
0.0
 11
686.05119
 21
208.171677
 31
0.0
  0
LINE
  5
207
330
201
100
AcDbEntity
  8
GR1-1
  6
細い実線
 62
     2
100
AcDbLine
 10
684.97119
 20
208.771677
 30
0.0
 11
684.19119
 21
208.771677
 31
0.0
  0
LINE
  5
208
330
201
100
AcDbEntity
  8
GR1-1
  6
細い実線
 62
     2
100
AcDbLine
 10
686.83119
 20
208.771677
 30
0.0
 11
687.61119
 21
208.771677
 31
0.0
  0
TEXT
  5
209
330
201
100
AcDbEntity
  8
GR1-1
  6
細い実線
 62
     4
100
AcDbText
 10
686.217813
 20
209.215352
 30
0.0
 40
1.5
  1
5
 41
0.7
  7
FX_VECTOR
 72
     5
 11
687.267812
 21
209.215352
 31
0.0
100
AcDbText
  0
LINE
  5
20A
330
201
100
AcDbEntity
  8
GR1-1
  6
細い実線
 62
     2
100
AcDbLine
 10
684.97119
 20
208.901677
 30
0.0
 11
684.97119
 21
208.641677
 31
0.0
  0
LINE
  5
20B
330
201
100
AcDbEntity
  8
GR1-1
  6
細い実線
 62
     2
100
AcDbLine
 10
684.97119
 20
208.641677
 30
0.0
 11
685.75119
 21
208.771677
 31
0.0
  0
LINE
  5
20C
330
201
100
AcDbEntity
  8
GR1-1
  6
細い実線
 62
     2
100
AcDbLine
 10
685.75119
 20
208.771677
 30
0.0
 11
684.97119
 21
208.901677
 31
0.0
  0
LINE
  5
20D
330
201
100
AcDbEntity
  8
GR1-1
  6
細い実線
 62
     2
100
AcDbLine
 10
686.83119
 20
208.901677
 30
0.0
 11
686.83119
 21
208.641677
 31
0.0
  0
LINE
  5
20E
330
201
100
AcDbEntity
  8
GR1-1
  6
細い実線
 62
     2
100
AcDbLine
 10
686.83119
 20
208.641677
 30
0.0
 11
686.05119
 21
208.771677
 31
0.0
  0
LINE
  5
20F
330
201
100
AcDbEntity
  8
GR1-1
  6
細い実線
 62
     2
100
AcDbLine
 10
686.05119
 20
208.771677
 30
0.0
 11
686.83119
 21
208.901677
 31
0.0
  0
ENDBLK
  5
203
330
201
100
AcDbEntity
  8
0
100
AcDbBlockEnd
  0
BLOCK
  5
211
330
210
100
AcDbEntity
  8
0
100
AcDbBlockBegin
  2
BLKF042
 70
     0
 71
     0
 10
0.0
 20
0.0
 30
0.0
  3
BLKF042
  1

  0
LINE
  5
214
330
210
100
AcDbEntity
  8
GR1-1
  6
細い実線
 62
     2
100
AcDbLine
 10
683.05119
 20
211.420298
 30
0.0
 11
683.05119
 21
204.528202
 31
0.0
  0
LINE
  5
215
330
210
100
AcDbEntity
  8
GR1-1
  6
細い実線
 62
     2
100
AcDbLine
 10
686.05119
 20
211.420298
 30
0.0
 11
686.05119
 21
204.528202
 31
0.0
  0
LINE
  5
216
330
210
100
AcDbEntity
  8
GR1-1
  6
細い実線
 62
     2
100
AcDbLine
 10
683.83119
 20
205.128202
 30
0.0
 11
685.27119
 21
205.128202
 31
0.0
  0
LINE
  5
217
330
210
100
AcDbEntity
  8
GR1-1
  6
細い実線
 62
     2
100
AcDbLine
 10
683.83119
 20
205.258202
 30
0.0
 11
683.83119
 21
204.998202
 31
0.0
  0
LINE
  5
218
330
210
100
AcDbEntity
  8
GR1-1
  6
細い実線
 62
     2
100
AcDbLine
 10
683.83119
 20
204.998202
 30
0.0
 11
683.05119
 21
205.128202
 31
0.0
  0
LINE
  5
219
330
210
100
AcDbEntity
  8
GR1-1
  6
細い実線
 62
     2
100
AcDbLine
 10
683.05119
 20
205.128202
 30
0.0
 11
683.83119
 21
205.258202
 31
0.0
  0
LINE
  5
21A
330
210
100
AcDbEntity
  8
GR1-1
  6
細い実線
 62
     2
100
AcDbLine
 10
685.27119
 20
205.258202
 30
0.0
 11
685.27119
 21
204.998202
 31
0.0
  0
LINE
  5
21B
330
210
100
AcDbEntity
  8
GR1-1
  6
細い実線
 62
     2
100
AcDbLine
 10
685.27119
 20
204.998202
 30
0.0
 11
686.05119
 21
205.128202
 31
0.0
  0
LINE
  5
21C
330
210
100
AcDbEntity
  8
GR1-1
  6
細い実線
 62
     2
100
AcDbLine
 10
686.05119
 20
205.128202
 30
0.0
 11
685.27119
 21
205.258202
 31
0.0
  0
TEXT
  5
21D
330
210
100
AcDbEntity
  8
GR1-1
  6
細い実線
 62
     4
100
AcDbText
 10
683.501172
 20
205.728203
 30
0.0
 40
1.5
  1
50
 41
0.7
  7
FX_VECTOR
 72
     5
 11
685.601172
 21
205.728203
 31
0.0
100
AcDbText
  0
ENDBLK
  5
212
330
210
100
AcDbEntity
  8
0
100
AcDbBlockEnd
  0
BLOCK
  5
21F
330
21E
100
AcDbEntity
  8
0
100
AcDbBlockBegin
  2
BLKF043
 70
     0
 71
     0
 10
0.0
 20
0.0
 30
0.0
  3
BLKF043
  1

  0
LINE
  5
222
330
21E
100
AcDbEntity
  8
GR1-1
  6
細い実線
 62
     2
100
AcDbLine
 10
692.301493
 20
212.320298
 30
0.0
 11
688.649178
 21
212.320298
 31
0.0
  0
LINE
  5
223
330
21E
100
AcDbEntity
  8
GR1-1
  6
細い実線
 62
     2
100
AcDbLine
 10
692.601493
 20
213.040298
 30
0.0
 11
688.649178
 21
213.040298
 31
0.0
  0
LINE
  5
224
330
21E
100
AcDbEntity
  8
GR1-1
  6
細い実線
 62
     2
100
AcDbLine
 10
689.249178
 20
211.540298
 30
0.0
 11
689.249178
 21
210.760298
 31
0.0
  0
LINE
  5
225
330
21E
100
AcDbEntity
  8
GR1-1
  6
細い実線
 62
     2
100
AcDbLine
 10
689.249178
 20
213.820298
 30
0.0
 11
689.249178
 21
214.600298
 31
0.0
  0
TEXT
  5
226
330
21E
100
AcDbEntity
  8
GR1-1
  6
細い実線
 62
     4
100
AcDbText
 10
688.700547
 20
213.391562
 30
0.0
 40
1.5
  1
12
 50
90.0
 41
0.7
  7
FX_VECTOR
 72
     5
 11
688.700547
 21
215.491563
 31
0.0
100
AcDbText
  0
LINE
  5
227
330
21E
100
AcDbEntity
  8
GR1-1
  6
細い実線
 62
     2
100
AcDbLine
 10
689.119178
 20
211.540298
 30
0.0
 11
689.379178
 21
211.540298
 31
0.0
  0
LINE
  5
228
330
21E
100
AcDbEntity
  8
GR1-1
  6
細い実線
 62
     2
100
AcDbLine
 10
689.379178
 20
211.540298
 30
0.0
 11
689.249178
 21
212.320298
 31
0.0
  0
LINE
  5
229
330
21E
100
AcDbEntity
  8
GR1-1
  6
細い実線
 62
     2
100
AcDbLine
 10
689.249178
 20
212.320298
 30
0.0
 11
689.119178
 21
211.540298
 31
0.0
  0
LINE
  5
22A
330
21E
100
AcDbEntity
  8
GR1-1
  6
細い実線
 62
     2
100
AcDbLine
 10
689.119178
 20
213.820298
 30
0.0
 11
689.379178
 21
213.820298
 31
0.0
  0
LINE
  5
22B
330
21E
100
AcDbEntity
  8
GR1-1
  6
細い実線
 62
     2
100
AcDbLine
 10
689.379178
 20
213.820298
 30
0.0
 11
689.249178
 21
213.040298
 31
0.0
  0
LINE
  5
22C
330
21E
100
AcDbEntity
  8
GR1-1
  6
細い実線
 62
     2
100
AcDbLine
 10
689.249178
 20
213.040298
 30
0.0
 11
689.119178
 21
213.820298
 31
0.0
  0
ENDBLK
  5
220
330
21E
100
AcDbEntity
  8
0
100
AcDbBlockEnd
  0
BLOCK
  5
264
330
263
100
AcDbEntity
  8
0
100
AcDbBlockBegin
  2
BLKF044
 70
     0
 71
     0
 10
0.0
 20
0.0
 30
0.0
  3
BLKF044
  1

  0
LINE
  5
267
330
263
100
AcDbEntity
  8
GR1-1
  6
CONTINUOUS
 62
     2
100
AcDbLine
 10
788.239318
 20
127.90971
 30
0.0
 11
785.727723
 21
122.886518
 31
0.0
  0
LINE
  5
268
330
263
100
AcDbEntity
  8
GR1-1
  6
CONTINUOUS
 62
     2
100
AcDbLine
 10
788.597089
 20
127.730824
 30
0.0
 11
786.085494
 21
122.707633
 31
0.0
  0
LINE
  5
269
330
263
100
AcDbEntity
  8
GR1-1
  6
CONTINUOUS
 62
     2
100
AcDbLine
 10
785.298398
 20
123.772001
 30
0.0
 11
784.600744
 21
124.120828
 31
0.0
  0
LINE
  5
26A
330
263
100
AcDbEntity
  8
GR1-1
  6
CONTINUOUS
 62
     2
100
AcDbLine
 10
787.051475
 20
122.895463
 30
0.0
 11
787.749128
 21
122.546636
 31
0.0
  0
TEXT
  5
26B
330
263
100
AcDbEntity
  8
GR1-1
  6
CONTINUOUS
 62
     4
100
AcDbText
 10
786.850312
 20
123.654043
 30
0.0
 40
1.5
  1
20
 50
333.434937
 41
0.7
  7
FX_VECTOR
 72
     5
 11
788.728609
 21
122.714894
 31
0.0
100
AcDbText
  0
LINE
  5
26C
330
263
100
AcDbEntity
  8
GR1-1
  6
CONTINUOUS
 62
     2
100
AcDbLine
 10
785.356535
 20
123.888277
 30
0.0
 11
785.24026
 21
123.655726
 31
0.0
  0
LINE
  5
26D
330
263
100
AcDbEntity
  8
GR1-1
  6
CONTINUOUS
 62
     2
100
AcDbLine
 10
785.24026
 20
123.655726
 30
0.0
 11
785.996051
 21
123.423175
 31
0.0
  0
LINE
  5
26E
330
263
100
AcDbEntity
  8
GR1-1
  6
CONTINUOUS
 62
     2
100
AcDbLine
 10
785.996051
 20
123.423175
 30
0.0
 11
785.356535
 21
123.888277
 31
0.0
  0
LINE
  5
26F
330
263
100
AcDbEntity
  8
GR1-1
  6
CONTINUOUS
 62
     2
100
AcDbLine
 10
787.109613
 20
123.011738
 30
0.0
 11
786.993337
 21
122.779187
 31
0.0
  0
LINE
  5
270
330
263
100
AcDbEntity
  8
GR1-1
  6
CONTINUOUS
 62
     2
100
AcDbLine
 10
786.993337
 20
122.779187
 30
0.0
 11
786.353822
 21
123.244289
 31
0.0
  0
LINE
  5
271
330
263
100
AcDbEntity
  8
GR1-1
  6
CONTINUOUS
 62
     2
100
AcDbLine
 10
786.353822
 20
123.244289
 30
0.0
 11
787.109613
 21
123.011738
 31
0.0
  0
ENDBLK
  5
265
330
263
100
AcDbEntity
  8
0
100
AcDbBlockEnd
  0
BLOCK
  5
273
330
272
100
AcDbEntity
  8
0
100
AcDbBlockBegin
  2
BLKF045
 70
     0
 71
     0
 10
0.0
 20
0.0
 30
0.0
  3
BLKF045
  1

  0
LINE
  5
276
330
272
100
AcDbEntity
  8
GR1-1
  6
CONTINUOUS
 62
     2
100
AcDbLine
 10
788.239318
 20
127.90971
 30
0.0
 11
785.727723
 21
122.886518
 31
0.0
  0
LINE
  5
277
330
272
100
AcDbEntity
  8
GR1-1
  6
CONTINUOUS
 62
     2
100
AcDbLine
 10
787.344891
 20
128.356923
 30
0.0
 11
784.833295
 21
123.333732
 31
0.0
  0
LINE
  5
278
330
272
100
AcDbEntity
  8
GR1-1
  6
CONTINUOUS
 62
     2
100
AcDbLine
 10
786.693704
 20
123.074348
 30
0.0
 11
787.391357
 21
122.725521
 31
0.0
  0
LINE
  5
279
330
272
100
AcDbEntity
  8
GR1-1
  6
CONTINUOUS
 62
     2
100
AcDbLine
 10
784.40397
 20
124.219215
 30
0.0
 11
783.706317
 21
124.568041
 31
0.0
  0
TEXT
  5
27A
330
272
100
AcDbEntity
  8
GR1-1
  6
CONTINUOUS
 62
     4
100
AcDbText
 10
784.757422
 20
124.678984
 30
0.0
 40
1.5
  1
50
 50
333.434937
 41
0.7
  7
FX_VECTOR
 72
     5
 11
786.635719
 21
123.739835
 31
0.0
100
AcDbText
  0
LINE
  5
27B
330
272
100
AcDbEntity
  8
GR1-1
  6
CONTINUOUS
 62
     2
100
AcDbLine
 10
786.751842
 20
123.190624
 30
0.0
 11
786.635566
 21
122.958072
 31
0.0
  0
LINE
  5
27C
330
272
100
AcDbEntity
  8
GR1-1
  6
CONTINUOUS
 62
     2
100
AcDbLine
 10
786.635566
 20
122.958072
 30
0.0
 11
785.996051
 21
123.423175
 31
0.0
  0
LINE
  5
27D
330
272
100
AcDbEntity
  8
GR1-1
  6
CONTINUOUS
 62
     2
100
AcDbLine
 10
785.996051
 20
123.423175
 30
0.0
 11
786.751842
 21
123.190624
 31
0.0
  0
LINE
  5
27E
330
272
100
AcDbEntity
  8
GR1-1
  6
CONTINUOUS
 62
     2
100
AcDbLine
 10
784.462108
 20
124.33549
 30
0.0
 11
784.345833
 21
124.102939
 31
0.0
  0
LINE
  5
27F
330
272
100
AcDbEntity
  8
GR1-1
  6
CONTINUOUS
 62
     2
100
AcDbLine
 10
784.345833
 20
124.102939
 30
0.0
 11
785.101624
 21
123.870388
 31
0.0
  0
LINE
  5
280
330
272
100
AcDbEntity
  8
GR1-1
  6
CONTINUOUS
 62
     2
100
AcDbLine
 10
785.101624
 20
123.870388
 30
0.0
 11
784.462108
 21
124.33549
 31
0.0
  0
ENDBLK
  5
274
330
272
100
AcDbEntity
  8
0
100
AcDbBlockEnd
  0
BLOCK
  5
282
330
281
100
AcDbEntity
  8
0
100
AcDbBlockBegin
  2
BLKF046
 70
     0
 71
     0
 10
0.0
 20
0.0
 30
0.0
  3
BLKF046
  1

  0
LINE
  5
285
330
281
100
AcDbEntity
  8
GR1-1
  6
CONTINUOUS
 62
     2
100
AcDbLine
 10
786.182136
 20
128.938301
 30
0.0
 11
781.890259
 21
120.354547
 31
0.0
  0
LINE
  5
286
330
281
100
AcDbEntity
  8
GR1-1
  6
CONTINUOUS
 62
     2
100
AcDbLine
 10
787.344891
 20
128.356923
 30
0.0
 11
783.053014
 21
119.773169
 31
0.0
  0
LINE
  5
287
330
281
100
AcDbEntity
  8
GR1-1
  6
CONTINUOUS
 62
     2
100
AcDbLine
 10
781.460934
 20
121.24003
 30
0.0
 11
780.763281
 21
121.588857
 31
0.0
  0
LINE
  5
288
330
281
100
AcDbEntity
  8
GR1-1
  6
CONTINUOUS
 62
     2
100
AcDbLine
 10
784.018996
 20
119.960999
 30
0.0
 11
784.716649
 21
119.612172
 31
0.0
  0
TEXT
  5
289
330
281
100
AcDbEntity
  8
GR1-1
  6
CONTINUOUS
 62
     4
100
AcDbText
 10
780.304844
 20
122.567598
 30
0.0
 40
1.5
  1
65
 50
333.434937
 41
0.7
  7
FX_VECTOR
 72
     5
 11
782.183141
 21
121.628449
 31
0.0
100
AcDbText
  0
LINE
  5
28A
330
281
100
AcDbEntity
  8
GR1-1
  6
CONTINUOUS
 62
     2
100
AcDbLine
 10
781.519072
 20
121.356305
 30
0.0
 11
781.402796
 21
121.123754
 31
0.0
  0
LINE
  5
28B
330
281
100
AcDbEntity
  8
GR1-1
  6
CONTINUOUS
 62
     2
100
AcDbLine
 10
781.402796
 20
121.123754
 30
0.0
 11
782.158587
 21
120.891203
 31
0.0
  0
LINE
  5
28C
330
281
100
AcDbEntity
  8
GR1-1
  6
CONTINUOUS
 62
     2
100
AcDbLine
 10
782.158587
 20
120.891203
 30
0.0
 11
781.519072
 21
121.356305
 31
0.0
  0
LINE
  5
28D
330
281
100
AcDbEntity
  8
GR1-1
  6
CONTINUOUS
 62
     2
100
AcDbLine
 10
784.077133
 20
120.077275
 30
0.0
 11
783.960858
 21
119.844723
 31
0.0
  0
LINE
  5
28E
330
281
100
AcDbEntity
  8
GR1-1
  6
CONTINUOUS
 62
     2
100
AcDbLine
 10
783.960858
 20
119.844723
 30
0.0
 11
783.321342
 21
120.309826
 31
0.0
  0
LINE
  5
28F
330
281
100
AcDbEntity
  8
GR1-1
  6
CONTINUOUS
 62
     2
100
AcDbLine
 10
783.321342
 20
120.309826
 30
0.0
 11
784.077133
 21
120.077275
 31
0.0
  0
ENDBLK
  5
283
330
281
100
AcDbEntity
  8
0
100
AcDbBlockEnd
  0
BLOCK
  5
291
330
290
100
AcDbEntity
  8
0
100
AcDbBlockBegin
  2
BLKF047
 70
     0
 71
     0
 10
0.0
 20
0.0
 30
0.0
  3
BLKF047
  1

  0
LINE
  5
294
330
290
100
AcDbEntity
  8
GR1-1
  6
CONTINUOUS
 62
     2
100
AcDbLine
 10
806.485633
 20
118.786552
 30
0.0
 11
803.974037
 21
113.763361
 31
0.0
  0
LINE
  5
295
330
290
100
AcDbEntity
  8
GR1-1
  6
CONTINUOUS
 62
     2
100
AcDbLine
 10
806.127862
 20
118.965438
 30
0.0
 11
803.616266
 21
113.942246
 31
0.0
  0
LINE
  5
296
330
290
100
AcDbEntity
  8
GR1-1
  6
CONTINUOUS
 62
     2
100
AcDbLine
 10
804.940019
 20
113.951191
 30
0.0
 11
805.637672
 21
113.602364
 31
0.0
  0
LINE
  5
297
330
290
100
AcDbEntity
  8
GR1-1
  6
CONTINUOUS
 62
     2
100
AcDbLine
 10
803.186941
 20
114.827729
 30
0.0
 11
802.489288
 21
115.176556
 31
0.0
  0
TEXT
  5
298
330
290
100
AcDbEntity
  8
GR1-1
  6
CONTINUOUS
 62
     4
100
AcDbText
 10
802.03625
 20
116.061094
 30
0.0
 40
1.5
  1
20
 50
333.434937
 41
0.7
  7
FX_VECTOR
 72
     5
 11
803.914547
 21
115.121945
 31
0.0
100
AcDbText
  0
LINE
  5
299
330
290
100
AcDbEntity
  8
GR1-1
  6
CONTINUOUS
 62
     2
100
AcDbLine
 10
804.998156
 20
114.067466
 30
0.0
 11
804.881881
 21
113.834915
 31
0.0
  0
LINE
  5
29A
330
290
100
AcDbEntity
  8
GR1-1
  6
CONTINUOUS
 62
     2
100
AcDbLine
 10
804.881881
 20
113.834915
 30
0.0
 11
804.242365
 21
114.300017
 31
0.0
  0
LINE
  5
29B
330
290
100
AcDbEntity
  8
GR1-1
  6
CONTINUOUS
 62
     2
100
AcDbLine
 10
804.242365
 20
114.300017
 30
0.0
 11
804.998156
 21
114.067466
 31
0.0
  0
LINE
  5
29C
330
290
100
AcDbEntity
  8
GR1-1
  6
CONTINUOUS
 62
     2
100
AcDbLine
 10
803.245079
 20
114.944005
 30
0.0
 11
803.128804
 21
114.711454
 31
0.0
  0
LINE
  5
29D
330
290
100
AcDbEntity
  8
GR1-1
  6
CONTINUOUS
 62
     2
100
AcDbLine
 10
803.128804
 20
114.711454
 30
0.0
 11
803.884595
 21
114.478903
 31
0.0
  0
LINE
  5
29E
330
290
100
AcDbEntity
  8
GR1-1
  6
CONTINUOUS
 62
     2
100
AcDbLine
 10
803.884595
 20
114.478903
 30
0.0
 11
803.245079
 21
114.944005
 31
0.0
  0
ENDBLK
  5
292
330
290
100
AcDbEntity
  8
0
100
AcDbBlockEnd
  0
BLOCK
  5
2A0
330
29F
100
AcDbEntity
  8
0
100
AcDbBlockBegin
  2
BLKF048
 70
     0
 71
     0
 10
0.0
 20
0.0
 30
0.0
  3
BLKF048
  1

  0
LINE
  5
2A3
330
29F
100
AcDbEntity
  8
GR1-1
  6
CONTINUOUS
 62
     2
100
AcDbLine
 10
808.542816
 20
117.757961
 30
0.0
 11
804.250939
 21
109.174207
 31
0.0
  0
LINE
  5
2A4
330
29F
100
AcDbEntity
  8
GR1-1
  6
CONTINUOUS
 62
     2
100
AcDbLine
 10
807.38006
 20
118.339339
 30
0.0
 11
803.088183
 21
109.755585
 31
0.0
  0
LINE
  5
2A5
330
29F
100
AcDbEntity
  8
GR1-1
  6
CONTINUOUS
 62
     2
100
AcDbLine
 10
805.21692
 20
109.362037
 30
0.0
 11
805.914573
 21
109.01321
 31
0.0
  0
LINE
  5
2A6
330
29F
100
AcDbEntity
  8
GR1-1
  6
CONTINUOUS
 62
     2
100
AcDbLine
 10
802.658858
 20
110.641068
 30
0.0
 11
801.961205
 21
110.989894
 31
0.0
  0
TEXT
  5
2A7
330
29F
100
AcDbEntity
  8
GR1-1
  6
CONTINUOUS
 62
     4
100
AcDbText
 10
805.094375
 20
110.172852
 30
0.0
 40
1.5
  1
65
 50
333.434937
 41
0.7
  7
FX_VECTOR
 72
     5
 11
806.972672
 21
109.233703
 31
0.0
100
AcDbText
  0
LINE
  5
2A8
330
29F
100
AcDbEntity
  8
GR1-1
  6
CONTINUOUS
 62
     2
100
AcDbLine
 10
805.275058
 20
109.478312
 30
0.0
 11
805.158782
 21
109.245761
 31
0.0
  0
LINE
  5
2A9
330
29F
100
AcDbEntity
  8
GR1-1
  6
CONTINUOUS
 62
     2
100
AcDbLine
 10
805.158782
 20
109.245761
 30
0.0
 11
804.519267
 21
109.710863
 31
0.0
  0
LINE
  5
2AA
330
29F
100
AcDbEntity
  8
GR1-1
  6
CONTINUOUS
 62
     2
100
AcDbLine
 10
804.519267
 20
109.710863
 30
0.0
 11
805.275058
 21
109.478312
 31
0.0
  0
LINE
  5
2AB
330
29F
100
AcDbEntity
  8
GR1-1
  6
CONTINUOUS
 62
     2
100
AcDbLine
 10
802.716996
 20
110.757343
 30
0.0
 11
802.60072
 21
110.524792
 31
0.0
  0
LINE
  5
2AC
330
29F
100
AcDbEntity
  8
GR1-1
  6
CONTINUOUS
 62
     2
100
AcDbLine
 10
802.60072
 20
110.524792
 30
0.0
 11
803.356511
 21
110.292241
 31
0.0
  0
LINE
  5
2AD
330
29F
100
AcDbEntity
  8
GR1-1
  6
CONTINUOUS
 62
     2
100
AcDbLine
 10
803.356511
 20
110.292241
 30
0.0
 11
802.716996
 21
110.757343
 31
0.0
  0
ENDBLK
  5
2A1
330
29F
100
AcDbEntity
  8
0
100
AcDbBlockEnd
  0
BLOCK
  5
2AF
330
2AE
100
AcDbEntity
  8
0
100
AcDbBlockBegin
  2
BLKF049
 70
     0
 71
     0
 10
0.0
 20
0.0
 30
0.0
  3
BLKF049
  1

  0
LINE
  5
2B2
330
2AE
100
AcDbEntity
  8
GR1-1
  6
CONTINUOUS
 62
     2
100
AcDbLine
 10
806.485633
 20
118.786552
 30
0.0
 11
803.974037
 21
113.763361
 31
0.0
  0
LINE
  5
2B3
330
2AE
100
AcDbEntity
  8
GR1-1
  6
CONTINUOUS
 62
     2
100
AcDbLine
 10
807.38006
 20
118.339339
 30
0.0
 11
804.868465
 21
113.316147
 31
0.0
  0
LINE
  5
2B4
330
2AE
100
AcDbEntity
  8
GR1-1
  6
CONTINUOUS
 62
     2
100
AcDbLine
 10
803.544712
 20
114.648844
 30
0.0
 11
802.847059
 21
114.99767
 31
0.0
  0
LINE
  5
2B5
330
2AE
100
AcDbEntity
  8
GR1-1
  6
CONTINUOUS
 62
     2
100
AcDbLine
 10
805.834446
 20
113.503977
 30
0.0
 11
806.532099
 21
113.15515
 31
0.0
  0
TEXT
  5
2B6
330
2AE
100
AcDbEntity
  8
GR1-1
  6
CONTINUOUS
 62
     4
100
AcDbText
 10
804.111953
 20
115.001719
 30
0.0
 40
1.5
  1
50
 50
333.434937
 41
0.7
  7
FX_VECTOR
 72
     5
 11
805.99025
 21
114.06257
 31
0.0
100
AcDbText
  0
LINE
  5
2B7
330
2AE
100
AcDbEntity
  8
GR1-1
  6
CONTINUOUS
 62
     2
100
AcDbLine
 10
803.60285
 20
114.765119
 30
0.0
 11
803.486575
 21
114.532568
 31
0.0
  0
LINE
  5
2B8
330
2AE
100
AcDbEntity
  8
GR1-1
  6
CONTINUOUS
 62
     2
100
AcDbLine
 10
803.486575
 20
114.532568
 30
0.0
 11
804.242365
 21
114.300017
 31
0.0
  0
LINE
  5
2B9
330
2AE
100
AcDbEntity
  8
GR1-1
  6
CONTINUOUS
 62
     2
100
AcDbLine
 10
804.242365
 20
114.300017
 30
0.0
 11
803.60285
 21
114.765119
 31
0.0
  0
LINE
  5
2BA
330
2AE
100
AcDbEntity
  8
GR1-1
  6
CONTINUOUS
 62
     2
100
AcDbLine
 10
805.892584
 20
113.620253
 30
0.0
 11
805.776308
 21
113.387702
 31
0.0
  0
LINE
  5
2BB
330
2AE
100
AcDbEntity
  8
GR1-1
  6
CONTINUOUS
 62
     2
100
AcDbLine
 10
805.776308
 20
113.387702
 30
0.0
 11
805.136793
 21
113.852804
 31
0.0
  0
LINE
  5
2BC
330
2AE
100
AcDbEntity
  8
GR1-1
  6
CONTINUOUS
 62
     2
100
AcDbLine
 10
805.136793
 20
113.852804
 30
0.0
 11
805.892584
 21
113.620253
 31
0.0
  0
ENDBLK
  5
2B0
330
2AE
100
AcDbEntity
  8
0
100
AcDbBlockEnd
  0
BLOCK
  5
2BE
330
2BD
100
AcDbEntity
  8
0
100
AcDbBlockBegin
  2
BLKF050
 70
     0
 71
     0
 10
0.0
 20
0.0
 30
0.0
  3
BLKF050
  1

  0
LINE
  5
2C1
330
2BD
100
AcDbEntity
  8
GR1-1
  6
CONTINUOUS
 62
     2
100
AcDbLine
 10
787.344891
 20
128.356923
 30
0.0
 11
783.053014
 21
119.773169
 31
0.0
  0
LINE
  5
2C2
330
2BD
100
AcDbEntity
  8
GR1-1
  6
CONTINUOUS
 62
     2
100
AcDbLine
 10
807.38006
 20
118.339339
 30
0.0
 11
803.088183
 21
109.755585
 31
0.0
  0
LINE
  5
2C3
330
2BD
100
AcDbEntity
  8
GR1-1
  6
CONTINUOUS
 62
     2
100
AcDbLine
 10
784.018996
 20
119.960999
 30
0.0
 11
802.658858
 21
110.641068
 31
0.0
  0
LINE
  5
2C4
330
2BD
100
AcDbEntity
  8
GR1-1
  6
CONTINUOUS
 62
     2
100
AcDbLine
 10
784.077133
 20
120.077275
 30
0.0
 11
783.960858
 21
119.844723
 31
0.0
  0
LINE
  5
2C5
330
2BD
100
AcDbEntity
  8
GR1-1
  6
CONTINUOUS
 62
     2
100
AcDbLine
 10
783.960858
 20
119.844723
 30
0.0
 11
783.321342
 21
120.309826
 31
0.0
  0
LINE
  5
2C6
330
2BD
100
AcDbEntity
  8
GR1-1
  6
CONTINUOUS
 62
     2
100
AcDbLine
 10
783.321342
 20
120.309826
 30
0.0
 11
784.077133
 21
120.077275
 31
0.0
  0
LINE
  5
2C7
330
2BD
100
AcDbEntity
  8
GR1-1
  6
CONTINUOUS
 62
     2
100
AcDbLine
 10
802.716996
 20
110.757343
 30
0.0
 11
802.60072
 21
110.524792
 31
0.0
  0
LINE
  5
2C8
330
2BD
100
AcDbEntity
  8
GR1-1
  6
CONTINUOUS
 62
     2
100
AcDbLine
 10
802.60072
 20
110.524792
 30
0.0
 11
803.356511
 21
110.292241
 31
0.0
  0
LINE
  5
2C9
330
2BD
100
AcDbEntity
  8
GR1-1
  6
CONTINUOUS
 62
     2
100
AcDbLine
 10
803.356511
 20
110.292241
 30
0.0
 11
802.716996
 21
110.757343
 31
0.0
  0
TEXT
  5
2CA
330
2BD
100
AcDbEntity
  8
GR1-1
  6
CONTINUOUS
 62
     4
100
AcDbText
 10
791.728984
 20
116.776836
 30
0.0
 40
1.5
  1
1120
 50
333.434937
 41
0.7
  7
FX_VECTOR
 72
     5
 11
795.485578
 21
114.898538
 31
0.0
100
AcDbText
  0
ENDBLK
  5
2BF
330
2BD
100
AcDbEntity
  8
0
100
AcDbBlockEnd
  0
BLOCK
  5
2CC
330
2CB
100
AcDbEntity
  8
0
100
AcDbBlockBegin
  2
BLKF051
 70
     0
 71
     0
 10
0.0
 20
0.0
 30
0.0
  3
BLKF051
  1

  0
LINE
  5
2CF
330
2CB
100
AcDbEntity
  8
GR1-1
  6
CONTINUOUS
 62
     2
100
AcDbLine
 10
786.182136
 20
128.938301
 30
0.0
 11
780.308153
 21
117.190335
 31
0.0
  0
LINE
  5
2D0
330
2CB
100
AcDbEntity
  8
GR1-1
  6
CONTINUOUS
 62
     2
100
AcDbLine
 10
808.542816
 20
117.757961
 30
0.0
 11
802.668832
 21
106.009995
 31
0.0
  0
LINE
  5
2D1
330
2CB
100
AcDbEntity
  8
GR1-1
  6
CONTINUOUS
 62
     2
100
AcDbLine
 10
781.274134
 20
117.378164
 30
0.0
 11
802.239507
 21
106.895478
 31
0.0
  0
LINE
  5
2D2
330
2CB
100
AcDbEntity
  8
GR1-1
  6
CONTINUOUS
 62
     2
100
AcDbLine
 10
781.332272
 20
117.49444
 30
0.0
 11
781.215996
 21
117.261889
 31
0.0
  0
LINE
  5
2D3
330
2CB
100
AcDbEntity
  8
GR1-1
  6
CONTINUOUS
 62
     2
100
AcDbLine
 10
781.215996
 20
117.261889
 30
0.0
 11
780.576481
 21
117.726991
 31
0.0
  0
LINE
  5
2D4
330
2CB
100
AcDbEntity
  8
GR1-1
  6
CONTINUOUS
 62
     2
100
AcDbLine
 10
780.576481
 20
117.726991
 30
0.0
 11
781.332272
 21
117.49444
 31
0.0
  0
LINE
  5
2D5
330
2CB
100
AcDbEntity
  8
GR1-1
  6
CONTINUOUS
 62
     2
100
AcDbLine
 10
802.297645
 20
107.011753
 30
0.0
 11
802.18137
 21
106.779202
 31
0.0
  0
LINE
  5
2D6
330
2CB
100
AcDbEntity
  8
GR1-1
  6
CONTINUOUS
 62
     2
100
AcDbLine
 10
802.18137
 20
106.779202
 30
0.0
 11
802.937161
 21
106.546651
 31
0.0
  0
LINE
  5
2D7
330
2CB
100
AcDbEntity
  8
GR1-1
  6
CONTINUOUS
 62
     2
100
AcDbLine
 10
802.937161
 20
106.546651
 30
0.0
 11
802.297645
 21
107.011753
 31
0.0
  0
TEXT
  5
2D8
330
2CB
100
AcDbEntity
  8
GR1-1
  6
CONTINUOUS
 62
     4
100
AcDbText
 10
790.146875
 20
113.612617
 30
0.0
 40
1.5
  1
1250
 50
333.434937
 41
0.7
  7
FX_VECTOR
 72
     5
 11
793.903469
 21
111.734319
 31
0.0
100
AcDbText
  0
ENDBLK
  5
2CD
330
2CB
100
AcDbEntity
  8
0
100
AcDbBlockEnd
  0
BLOCK
  5
2DA
330
2D9
100
AcDbEntity
  8
0
100
AcDbBlockBegin
  2
BLKF052
 70
     0
 71
     0
 10
0.0
 20
0.0
 30
0.0
  3
BLKF052
  1

  0
LINE
  5
2DD
330
2D9
100
AcDbEntity
  8
GR1-1
  6
CONTINUOUS
 62
     2
100
AcDbLine
 10
786.182136
 20
128.938301
 30
0.0
 11
780.308153
 21
117.190335
 31
0.0
  0
LINE
  5
2DE
330
2D9
100
AcDbEntity
  8
GR1-1
  6
CONTINUOUS
 62
     2
100
AcDbLine
 10
785.556037
 20
129.251351
 30
0.0
 11
779.682054
 21
117.503384
 31
0.0
  0
LINE
  5
2DF
330
2D9
100
AcDbEntity
  8
GR1-1
  6
CONTINUOUS
 62
     2
100
AcDbLine
 10
781.274134
 20
117.378164
 30
0.0
 11
781.971787
 21
117.029338
 31
0.0
  0
LINE
  5
2E0
330
2D9
100
AcDbEntity
  8
GR1-1
  6
CONTINUOUS
 62
     2
100
AcDbLine
 10
779.252729
 20
118.388867
 30
0.0
 11
778.555075
 21
118.737694
 31
0.0
  0
TEXT
  5
2E1
330
2D9
100
AcDbEntity
  8
GR1-1
  6
CONTINUOUS
 62
     4
100
AcDbText
 10
776.939766
 20
120.420195
 30
0.0
 40
1.5
  1
35
 50
333.434937
 41
0.7
  7
FX_VECTOR
 72
     5
 11
778.818063
 21
119.481046
 31
0.0
100
AcDbText
  0
LINE
  5
2E2
330
2D9
100
AcDbEntity
  8
GR1-1
  6
CONTINUOUS
 62
     2
100
AcDbLine
 10
781.332272
 20
117.49444
 30
0.0
 11
781.215996
 21
117.261889
 31
0.0
  0
LINE
  5
2E3
330
2D9
100
AcDbEntity
  8
GR1-1
  6
CONTINUOUS
 62
     2
100
AcDbLine
 10
781.215996
 20
117.261889
 30
0.0
 11
780.576481
 21
117.726991
 31
0.0
  0
LINE
  5
2E4
330
2D9
100
AcDbEntity
  8
GR1-1
  6
CONTINUOUS
 62
     2
100
AcDbLine
 10
780.576481
 20
117.726991
 30
0.0
 11
781.332272
 21
117.49444
 31
0.0
  0
LINE
  5
2E5
330
2D9
100
AcDbEntity
  8
GR1-1
  6
CONTINUOUS
 62
     2
100
AcDbLine
 10
779.310866
 20
118.505143
 30
0.0
 11
779.194591
 21
118.272591
 31
0.0
  0
LINE
  5
2E6
330
2D9
100
AcDbEntity
  8
GR1-1
  6
CONTINUOUS
 62
     2
100
AcDbLine
 10
779.194591
 20
118.272591
 30
0.0
 11
779.950382
 21
118.04004
 31
0.0
  0
LINE
  5
2E7
330
2D9
100
AcDbEntity
  8
GR1-1
  6
CONTINUOUS
 62
     2
100
AcDbLine
 10
779.950382
 20
118.04004
 30
0.0
 11
779.310866
 21
118.505143
 31
0.0
  0
ENDBLK
  5
2DB
330
2D9
100
AcDbEntity
  8
0
100
AcDbBlockEnd
  0
BLOCK
  5
2E9
330
2E8
100
AcDbEntity
  8
0
100
AcDbBlockBegin
  2
BLKF053
 70
     0
 71
     0
 10
0.0
 20
0.0
 30
0.0
  3
BLKF053
  1

  0
LINE
  5
2EC
330
2E8
100
AcDbEntity
  8
GR1-1
  6
CONTINUOUS
 62
     2
100
AcDbLine
 10
682.608333
 20
127.634572
 30
0.0
 11
684.82969
 21
123.191858
 31
0.0
  0
LINE
  5
2ED
330
2E8
100
AcDbEntity
  8
GR1-1
  6
CONTINUOUS
 62
     2
100
AcDbLine
 10
704.969012
 20
138.814912
 30
0.0
 11
707.190369
 21
134.372198
 31
0.0
  0
LINE
  5
2EE
330
2E8
100
AcDbEntity
  8
GR1-1
  6
CONTINUOUS
 62
     2
100
AcDbLine
 10
685.259015
 20
124.077341
 30
0.0
 11
706.224388
 21
134.560028
 31
0.0
  0
LINE
  5
2EF
330
2E8
100
AcDbEntity
  8
GR1-1
  6
CONTINUOUS
 62
     2
100
AcDbLine
 10
685.200877
 20
124.193617
 30
0.0
 11
685.317153
 21
123.961066
 31
0.0
  0
LINE
  5
2F0
330
2E8
100
AcDbEntity
  8
GR1-1
  6
CONTINUOUS
 62
     2
100
AcDbLine
 10
685.317153
 20
123.961066
 30
0.0
 11
684.561362
 21
123.728515
 31
0.0
  0
LINE
  5
2F1
330
2E8
100
AcDbEntity
  8
GR1-1
  6
CONTINUOUS
 62
     2
100
AcDbLine
 10
684.561362
 20
123.728515
 30
0.0
 11
685.200877
 21
124.193617
 31
0.0
  0
LINE
  5
2F2
330
2E8
100
AcDbEntity
  8
GR1-1
  6
CONTINUOUS
 62
     2
100
AcDbLine
 10
706.16625
 20
134.676303
 30
0.0
 11
706.282526
 21
134.443752
 31
0.0
  0
LINE
  5
2F3
330
2E8
100
AcDbEntity
  8
GR1-1
  6
CONTINUOUS
 62
     2
100
AcDbLine
 10
706.282526
 20
134.443752
 30
0.0
 11
706.922041
 21
134.908854
 31
0.0
  0
LINE
  5
2F4
330
2E8
100
AcDbEntity
  8
GR1-1
  6
CONTINUOUS
 62
     2
100
AcDbLine
 10
706.922041
 20
134.908854
 30
0.0
 11
706.16625
 21
134.676303
 31
0.0
  0
TEXT
  5
2F5
330
2E8
100
AcDbEntity
  8
GR1-1
  6
CONTINUOUS
 62
     4
100
AcDbText
 10
693.595078
 20
128.916191
 30
0.0
 40
1.5
  1
1250
 50
26.565052
 41
0.7
  7
FX_VECTOR
 72
     5
 11
697.351672
 21
130.794489
 31
0.0
100
AcDbText
  0
ENDBLK
  5
2EA
330
2E8
100
AcDbEntity
  8
0
100
AcDbBlockEnd
  0
BLOCK
  5
2F7
330
2F6
100
AcDbEntity
  8
0
100
AcDbBlockBegin
  2
BLKF054
 70
     0
 71
     0
 10
0.0
 20
0.0
 30
0.0
  3
BLKF054
  1

  0
LINE
  5
2FA
330
2F6
100
AcDbEntity
  8
GR1-1
  6
CONTINUOUS
 62
     2
100
AcDbLine
 10
703.154393
 20
142.444152
 30
0.0
 11
705.342117
 21
138.068702
 31
0.0
  0
LINE
  5
2FB
330
2F6
100
AcDbEntity
  8
GR1-1
  6
CONTINUOUS
 62
     2
100
AcDbLine
 10
703.780492
 20
142.757201
 30
0.0
 11
705.968216
 21
138.381752
 31
0.0
  0
LINE
  5
2FC
330
2F6
100
AcDbEntity
  8
GR1-1
  6
CONTINUOUS
 62
     2
100
AcDbLine
 10
704.376136
 20
138.256532
 30
0.0
 11
703.678483
 21
137.907705
 31
0.0
  0
LINE
  5
2FD
330
2F6
100
AcDbEntity
  8
GR1-1
  6
CONTINUOUS
 62
     2
100
AcDbLine
 10
706.397541
 20
139.267235
 30
0.0
 11
707.095195
 21
139.616061
 31
0.0
  0
TEXT
  5
2FE
330
2F6
100
AcDbEntity
  8
GR1-1
  6
CONTINUOUS
 62
     4
100
AcDbText
 10
706.602578
 20
139.996465
 30
0.0
 40
1.5
  1
35
 50
26.565052
 41
0.7
  7
FX_VECTOR
 72
     5
 11
708.480875
 21
140.935613
 31
0.0
100
AcDbText
  0
LINE
  5
2FF
330
2F6
100
AcDbEntity
  8
GR1-1
  6
CONTINUOUS
 62
     2
100
AcDbLine
 10
704.317998
 20
138.372808
 30
0.0
 11
704.434274
 21
138.140257
 31
0.0
  0
LINE
  5
300
330
2F6
100
AcDbEntity
  8
GR1-1
  6
CONTINUOUS
 62
     2
100
AcDbLine
 10
704.434274
 20
138.140257
 30
0.0
 11
705.073789
 21
138.605359
 31
0.0
  0
LINE
  5
301
330
2F6
100
AcDbEntity
  8
GR1-1
  6
CONTINUOUS
 62
     2
100
AcDbLine
 10
705.073789
 20
138.605359
 30
0.0
 11
704.317998
 21
138.372808
 31
0.0
  0
LINE
  5
302
330
2F6
100
AcDbEntity
  8
GR1-1
  6
CONTINUOUS
 62
     2
100
AcDbLine
 10
706.339404
 20
139.38351
 30
0.0
 11
706.455679
 21
139.150959
 31
0.0
  0
LINE
  5
303
330
2F6
100
AcDbEntity
  8
GR1-1
  6
CONTINUOUS
 62
     2
100
AcDbLine
 10
706.455679
 20
139.150959
 30
0.0
 11
705.699888
 21
138.918408
 31
0.0
  0
LINE
  5
304
330
2F6
100
AcDbEntity
  8
GR1-1
  6
CONTINUOUS
 62
     2
100
AcDbLine
 10
705.699888
 20
138.918408
 30
0.0
 11
706.339404
 21
139.38351
 31
0.0
  0
ENDBLK
  5
2F8
330
2F6
100
AcDbEntity
  8
0
100
AcDbBlockEnd
  0
BLOCK
  5
308
330
307
100
AcDbEntity
  8
0
100
AcDbBlockBegin
  2
BLKF055
 70
     0
 71
     0
 10
0.0
 20
0.0
 30
0.0
  3
BLKF055
  1

  0
LINE
  5
30B
330
307
100
AcDbEntity
  8
GR1-1
  6
CONTINUOUS
 62
     2
100
AcDbLine
 10
793.337553
 20
144.149136
 30
0.0
 11
793.337553
 21
149.748349
 31
0.0
  0
LINE
  5
30C
330
307
100
AcDbEntity
  8
GR1-1
  6
CONTINUOUS
 62
     2
100
AcDbLine
 10
821.288403
 20
144.149136
 30
0.0
 11
821.288403
 21
149.748349
 31
0.0
  0
LINE
  5
30D
330
307
100
AcDbEntity
  8
GR1-1
  6
CONTINUOUS
 62
     2
100
AcDbLine
 10
794.117553
 20
149.148349
 30
0.0
 11
820.508403
 21
149.148349
 31
0.0
  0
LINE
  5
30E
330
307
100
AcDbEntity
  8
GR1-1
  6
CONTINUOUS
 62
     2
100
AcDbLine
 10
794.117553
 20
149.278349
 30
0.0
 11
794.117553
 21
149.018349
 31
0.0
  0
LINE
  5
30F
330
307
100
AcDbEntity
  8
GR1-1
  6
CONTINUOUS
 62
     2
100
AcDbLine
 10
794.117553
 20
149.018349
 30
0.0
 11
793.337553
 21
149.148349
 31
0.0
  0
LINE
  5
310
330
307
100
AcDbEntity
  8
GR1-1
  6
CONTINUOUS
 62
     2
100
AcDbLine
 10
793.337553
 20
149.148349
 30
0.0
 11
794.117553
 21
149.278349
 31
0.0
  0
LINE
  5
311
330
307
100
AcDbEntity
  8
GR1-1
  6
CONTINUOUS
 62
     2
100
AcDbLine
 10
820.508403
 20
149.278349
 30
0.0
 11
820.508403
 21
149.018349
 31
0.0
  0
LINE
  5
312
330
307
100
AcDbEntity
  8
GR1-1
  6
CONTINUOUS
 62
     2
100
AcDbLine
 10
820.508403
 20
149.018349
 30
0.0
 11
821.288403
 21
149.148349
 31
0.0
  0
LINE
  5
313
330
307
100
AcDbEntity
  8
GR1-1
  6
CONTINUOUS
 62
     2
100
AcDbLine
 10
821.288403
 20
149.148349
 30
0.0
 11
820.508403
 21
149.278349
 31
0.0
  0
TEXT
  5
314
330
307
100
AcDbEntity
  8
GR1-1
  6
CONTINUOUS
 62
     4
100
AcDbText
 10
804.162969
 20
149.748359
 30
0.0
 40
1.5
  1
1397.5
 41
0.7
  7
FX_VECTOR
 72
     5
 11
810.462969
 21
149.748359
 31
0.0
100
AcDbText
  0
ENDBLK
  5
309
330
307
100
AcDbEntity
  8
0
100
AcDbBlockEnd
  0
BLOCK
  5
32C
330
32B
100
AcDbEntity
  8
0
100
AcDbBlockBegin
  2
BLKF056
 70
     0
 71
     0
 10
0.0
 20
0.0
 30
0.0
  3
BLKF056
  1

  0
LINE
  5
32F
330
32B
100
AcDbEntity
  8
GR1-1
  6
CONTINUOUS
 62
     2
100
AcDbLine
 10
817.263481
 20
135.870112
 30
0.0
 11
817.629802
 21
136.602755
 31
0.0
  0
LINE
  5
330
330
32B
100
AcDbEntity
  8
GR1-1
  6
CONTINUOUS
 62
     2
100
AcDbLine
 10
817.531809
 20
135.735948
 30
0.0
 11
817.898131
 21
136.468591
 31
0.0
  0
LINE
  5
331
330
32B
100
AcDbEntity
  8
GR1-1
  6
CONTINUOUS
 62
     2
100
AcDbLine
 10
816.663821
 20
136.414926
 30
0.0
 11
815.966168
 21
136.763752
 31
0.0
  0
LINE
  5
332
330
32B
100
AcDbEntity
  8
GR1-1
  6
CONTINUOUS
 62
     2
100
AcDbLine
 10
818.327456
 20
135.583108
 30
0.0
 11
819.025109
 21
135.234282
 31
0.0
  0
TEXT
  5
333
330
32B
100
AcDbEntity
  8
GR1-1
  6
CONTINUOUS
 62
     4
100
AcDbText
 10
818.052813
 20
136.210156
 30
0.0
 40
1.5
  1
15
 50
333.434937
 41
0.7
  7
FX_VECTOR
 72
     5
 11
819.931109
 21
135.271007
 31
0.0
100
AcDbText
  0
LINE
  5
334
330
32B
100
AcDbEntity
  8
GR1-1
  6
CONTINUOUS
 62
     2
100
AcDbLine
 10
816.721959
 20
136.531201
 30
0.0
 11
816.605683
 21
136.29865
 31
0.0
  0
LINE
  5
335
330
32B
100
AcDbEntity
  8
GR1-1
  6
CONTINUOUS
 62
     2
100
AcDbLine
 10
816.605683
 20
136.29865
 30
0.0
 11
817.361474
 21
136.066099
 31
0.0
  0
LINE
  5
336
330
32B
100
AcDbEntity
  8
GR1-1
  6
CONTINUOUS
 62
     2
100
AcDbLine
 10
817.361474
 20
136.066099
 30
0.0
 11
816.721959
 21
136.531201
 31
0.0
  0
LINE
  5
337
330
32B
100
AcDbEntity
  8
GR1-1
  6
CONTINUOUS
 62
     2
100
AcDbLine
 10
818.385593
 20
135.699384
 30
0.0
 11
818.269318
 21
135.466833
 31
0.0
  0
LINE
  5
338
330
32B
100
AcDbEntity
  8
GR1-1
  6
CONTINUOUS
 62
     2
100
AcDbLine
 10
818.269318
 20
135.466833
 30
0.0
 11
817.629802
 21
135.931935
 31
0.0
  0
LINE
  5
339
330
32B
100
AcDbEntity
  8
GR1-1
  6
CONTINUOUS
 62
     2
100
AcDbLine
 10
817.629802
 20
135.931935
 30
0.0
 11
818.385593
 21
135.699384
 31
0.0
  0
ENDBLK
  5
32D
330
32B
100
AcDbEntity
  8
0
100
AcDbBlockEnd
  0
BLOCK
  5
33B
330
33A
100
AcDbEntity
  8
0
100
AcDbBlockBegin
  2
BLKF057
 70
     0
 71
     0
 10
0.0
 20
0.0
 30
0.0
  3
BLKF057
  1

  0
LINE
  5
33E
330
33A
100
AcDbEntity
  8
GR1-1
  6
CONTINUOUS
 62
     2
100
AcDbLine
 10
816.145447
 20
131.621583
 30
0.0
 11
819.799758
 21
129.794427
 31
0.0
  0
LINE
  5
33F
330
33A
100
AcDbEntity
  8
GR1-1
  6
CONTINUOUS
 62
     2
100
AcDbLine
 10
817.665973
 20
134.662635
 30
0.0
 11
821.320284
 21
132.83548
 31
0.0
  0
LINE
  5
340
330
33A
100
AcDbEntity
  8
GR1-1
  6
CONTINUOUS
 62
     2
100
AcDbLine
 10
819.611928
 20
130.760409
 30
0.0
 11
820.434801
 21
132.406155
 31
0.0
  0
TEXT
  5
341
330
33A
100
AcDbEntity
  8
GR1-1
  6
CONTINUOUS
 62
     4
100
AcDbText
 10
818.63375
 20
130.567207
 30
0.0
 40
1.5
  1
170
 50
63.434952
 41
0.7
  7
FX_VECTOR
 72
     5
 11
820.042473
 21
133.384653
 31
0.0
100
AcDbText
  0
LINE
  5
342
330
33A
100
AcDbEntity
  8
GR1-1
  6
CONTINUOUS
 62
     2
100
AcDbLine
 10
819.495653
 20
130.818546
 30
0.0
 11
819.728204
 21
130.702271
 31
0.0
  0
LINE
  5
343
330
33A
100
AcDbEntity
  8
GR1-1
  6
CONTINUOUS
 62
     2
100
AcDbLine
 10
819.728204
 20
130.702271
 30
0.0
 11
819.263102
 21
130.062755
 31
0.0
  0
LINE
  5
344
330
33A
100
AcDbEntity
  8
GR1-1
  6
CONTINUOUS
 62
     2
100
AcDbLine
 10
819.263102
 20
130.062755
 30
0.0
 11
819.495653
 21
130.818546
 31
0.0
  0
LINE
  5
345
330
33A
100
AcDbEntity
  8
GR1-1
  6
CONTINUOUS
 62
     2
100
AcDbLine
 10
820.318526
 20
132.464293
 30
0.0
 11
820.551077
 21
132.348017
 31
0.0
  0
LINE
  5
346
330
33A
100
AcDbEntity
  8
GR1-1
  6
CONTINUOUS
 62
     2
100
AcDbLine
 10
820.551077
 20
132.348017
 30
0.0
 11
820.783628
 21
133.103808
 31
0.0
  0
LINE
  5
347
330
33A
100
AcDbEntity
  8
GR1-1
  6
CONTINUOUS
 62
     2
100
AcDbLine
 10
820.783628
 20
133.103808
 30
0.0
 11
820.318526
 21
132.464293
 31
0.0
  0
ENDBLK
  5
33C
330
33A
100
AcDbEntity
  8
0
100
AcDbBlockEnd
  0
BLOCK
  5
349
330
348
100
AcDbEntity
  8
0
100
AcDbBlockBegin
  2
BLKF058
 70
     0
 71
     0
 10
0.0
 20
0.0
 30
0.0
  3
BLKF058
  1

  0
LINE
  5
34C
330
348
100
AcDbEntity
  8
GR1-1
  6
CONTINUOUS
 62
     2
100
AcDbLine
 10
814.93797
 20
128.535809
 30
0.0
 11
822.181392
 21
124.914098
 31
0.0
  0
LINE
  5
34D
330
348
100
AcDbEntity
  8
GR1-1
  6
CONTINUOUS
 62
     2
100
AcDbLine
 10
817.174038
 20
133.007945
 30
0.0
 11
824.41746
 21
129.386234
 31
0.0
  0
LINE
  5
34E
330
348
100
AcDbEntity
  8
GR1-1
  6
CONTINUOUS
 62
     2
100
AcDbLine
 10
821.993562
 20
125.880079
 30
0.0
 11
823.531977
 21
128.956909
 31
0.0
  0
LINE
  5
34F
330
348
100
AcDbEntity
  8
GR1-1
  6
CONTINUOUS
 62
     2
100
AcDbLine
 10
821.877287
 20
125.938217
 30
0.0
 11
822.109838
 21
125.821941
 31
0.0
  0
LINE
  5
350
330
348
100
AcDbEntity
  8
GR1-1
  6
CONTINUOUS
 62
     2
100
AcDbLine
 10
822.109838
 20
125.821941
 30
0.0
 11
821.644736
 21
125.182426
 31
0.0
  0
LINE
  5
351
330
348
100
AcDbEntity
  8
GR1-1
  6
CONTINUOUS
 62
     2
100
AcDbLine
 10
821.644736
 20
125.182426
 30
0.0
 11
821.877287
 21
125.938217
 31
0.0
  0
LINE
  5
352
330
348
100
AcDbEntity
  8
GR1-1
  6
CONTINUOUS
 62
     2
100
AcDbLine
 10
823.415701
 20
129.015047
 30
0.0
 11
823.648252
 21
128.898771
 31
0.0
  0
LINE
  5
353
330
348
100
AcDbEntity
  8
GR1-1
  6
CONTINUOUS
 62
     2
100
AcDbLine
 10
823.648252
 20
128.898771
 30
0.0
 11
823.880803
 21
129.654562
 31
0.0
  0
LINE
  5
354
330
348
100
AcDbEntity
  8
GR1-1
  6
CONTINUOUS
 62
     2
100
AcDbLine
 10
823.880803
 20
129.654562
 30
0.0
 11
823.415701
 21
129.015047
 31
0.0
  0
TEXT
  5
355
330
348
100
AcDbEntity
  8
GR1-1
  6
CONTINUOUS
 62
     4
100
AcDbText
 10
821.521797
 20
126.278105
 30
0.0
 40
1.5
  1
250
 50
63.434948
 41
0.7
  7
FX_VECTOR
 72
     5
 11
822.93052
 21
129.095551
 31
0.0
100
AcDbText
  0
ENDBLK
  5
34A
330
348
100
AcDbEntity
  8
0
100
AcDbBlockEnd
  0
BLOCK
  5
35C
330
35B
100
AcDbEntity
  8
0
100
AcDbBlockBegin
  2
BLKF059
 70
     0
 71
     0
 10
0.0
 20
0.0
 30
0.0
  3
BLKF059
  1

  0
LINE
  5
35F
330
35B
100
AcDbEntity
  8
GR1-1
  6
CONTINUOUS
 62
     2
100
AcDbLine
 10
787.188366
 20
133.410437
 30
0.0
 11
781.93716
 21
136.03604
 31
0.0
  0
LINE
  5
360
330
35B
100
AcDbEntity
  8
GR1-1
  6
CONTINUOUS
 62
     2
100
AcDbLine
 10
785.198266
 20
129.430236
 30
0.0
 11
779.94706
 21
132.055839
 31
0.0
  0
LINE
  5
361
330
35B
100
AcDbEntity
  8
GR1-1
  6
CONTINUOUS
 62
     2
100
AcDbLine
 10
782.12499
 20
135.070059
 30
0.0
 11
780.832543
 21
132.485164
 31
0.0
  0
TEXT
  5
362
330
35B
100
AcDbEntity
  8
GR1-1
  6
CONTINUOUS
 62
     4
100
AcDbText
 10
779.657187
 20
131.809258
 30
0.0
 40
1.5
  1
222.5
 50
63.434948
 41
0.7
  7
FX_VECTOR
 72
     5
 11
782.005059
 21
136.505001
 31
0.0
100
AcDbText
  0
LINE
  5
363
330
35B
100
AcDbEntity
  8
GR1-1
  6
CONTINUOUS
 62
     2
100
AcDbLine
 10
782.008714
 20
135.128196
 30
0.0
 11
782.241265
 21
135.011921
 31
0.0
  0
LINE
  5
364
330
35B
100
AcDbEntity
  8
GR1-1
  6
CONTINUOUS
 62
     2
100
AcDbLine
 10
782.241265
 20
135.011921
 30
0.0
 11
782.473816
 21
135.767712
 31
0.0
  0
LINE
  5
365
330
35B
100
AcDbEntity
  8
GR1-1
  6
CONTINUOUS
 62
     2
100
AcDbLine
 10
782.473816
 20
135.767712
 30
0.0
 11
782.008714
 21
135.128196
 31
0.0
  0
LINE
  5
366
330
35B
100
AcDbEntity
  8
GR1-1
  6
CONTINUOUS
 62
     2
100
AcDbLine
 10
780.716267
 20
132.543302
 30
0.0
 11
780.948818
 21
132.427026
 31
0.0
  0
LINE
  5
367
330
35B
100
AcDbEntity
  8
GR1-1
  6
CONTINUOUS
 62
     2
100
AcDbLine
 10
780.948818
 20
132.427026
 30
0.0
 11
780.483716
 21
131.787511
 31
0.0
  0
LINE
  5
368
330
35B
100
AcDbEntity
  8
GR1-1
  6
CONTINUOUS
 62
     2
100
AcDbLine
 10
780.483716
 20
131.787511
 30
0.0
 11
780.716267
 21
132.543302
 31
0.0
  0
ENDBLK
  5
35D
330
35B
100
AcDbEntity
  8
0
100
AcDbBlockEnd
  0
BLOCK
  5
36A
330
369
100
AcDbEntity
  8
0
100
AcDbBlockBegin
  2
BLKF060
 70
     0
 71
     0
 10
0.0
 20
0.0
 30
0.0
  3
BLKF060
  1

  0
LINE
  5
36D
330
369
100
AcDbEntity
  8
GR1-1
  6
CONTINUOUS
 62
     2
100
AcDbLine
 10
787.94863
 20
134.930963
 30
0.0
 11
785.497619
 21
136.156468
 31
0.0
  0
LINE
  5
36E
330
369
100
AcDbEntity
  8
GR1-1
  6
CONTINUOUS
 62
     2
100
AcDbLine
 10
786.428103
 20
131.889911
 30
0.0
 11
783.977093
 21
133.115416
 31
0.0
  0
LINE
  5
36F
330
369
100
AcDbEntity
  8
GR1-1
  6
CONTINUOUS
 62
     2
100
AcDbLine
 10
785.685449
 20
135.190487
 30
0.0
 11
784.862576
 21
133.544741
 31
0.0
  0
TEXT
  5
370
330
369
100
AcDbEntity
  8
GR1-1
  6
CONTINUOUS
 62
     4
100
AcDbText
 10
783.977266
 20
133.241582
 30
0.0
 40
1.5
  1
170
 50
63.434948
 41
0.7
  7
FX_VECTOR
 72
     5
 11
785.385988
 21
136.059028
 31
0.0
100
AcDbText
  0
LINE
  5
371
330
369
100
AcDbEntity
  8
GR1-1
  6
CONTINUOUS
 62
     2
100
AcDbLine
 10
785.569173
 20
135.248625
 30
0.0
 11
785.801724
 21
135.132349
 31
0.0
  0
LINE
  5
372
330
369
100
AcDbEntity
  8
GR1-1
  6
CONTINUOUS
 62
     2
100
AcDbLine
 10
785.801724
 20
135.132349
 30
0.0
 11
786.034276
 21
135.88814
 31
0.0
  0
LINE
  5
373
330
369
100
AcDbEntity
  8
GR1-1
  6
CONTINUOUS
 62
     2
100
AcDbLine
 10
786.034276
 20
135.88814
 30
0.0
 11
785.569173
 21
135.248625
 31
0.0
  0
LINE
  5
374
330
369
100
AcDbEntity
  8
GR1-1
  6
CONTINUOUS
 62
     2
100
AcDbLine
 10
784.7463
 20
133.602879
 30
0.0
 11
784.978851
 21
133.486603
 31
0.0
  0
LINE
  5
375
330
369
100
AcDbEntity
  8
GR1-1
  6
CONTINUOUS
 62
     2
100
AcDbLine
 10
784.978851
 20
133.486603
 30
0.0
 11
784.513749
 21
132.847088
 31
0.0
  0
LINE
  5
376
330
369
100
AcDbEntity
  8
GR1-1
  6
CONTINUOUS
 62
     2
100
AcDbLine
 10
784.513749
 20
132.847088
 30
0.0
 11
784.7463
 21
133.602879
 31
0.0
  0
ENDBLK
  5
36B
330
369
100
AcDbEntity
  8
0
100
AcDbBlockEnd
  0
BLOCK
  5
378
330
377
100
AcDbEntity
  8
0
100
AcDbBlockBegin
  2
BLKF061
 70
     0
 71
     0
 10
0.0
 20
0.0
 30
0.0
  3
BLKF061
  1

  0
LINE
  5
37B
330
377
100
AcDbEntity
  8
GR1-1
  6
CONTINUOUS
 62
     2
100
AcDbLine
 10
785.377151
 20
129.340793
 30
0.0
 11
776.971223
 21
133.543758
 31
0.0
  0
LINE
  5
37C
330
377
100
AcDbEntity
  8
GR1-1
  6
CONTINUOUS
 62
     2
100
AcDbLine
 10
792.532569
 20
143.651628
 30
0.0
 11
784.12664
 21
147.854593
 31
0.0
  0
LINE
  5
37D
330
377
100
AcDbEntity
  8
GR1-1
  6
CONTINUOUS
 62
     2
100
AcDbLine
 10
777.856706
 20
133.973083
 30
0.0
 11
784.31447
 21
146.888611
 31
0.0
  0
LINE
  5
37E
330
377
100
AcDbEntity
  8
GR1-1
  6
CONTINUOUS
 62
     2
100
AcDbLine
 10
777.74043
 20
134.03122
 30
0.0
 11
777.972981
 21
133.914945
 31
0.0
  0
LINE
  5
37F
330
377
100
AcDbEntity
  8
GR1-1
  6
CONTINUOUS
 62
     2
100
AcDbLine
 10
777.972981
 20
133.914945
 30
0.0
 11
777.507879
 21
133.275429
 31
0.0
  0
LINE
  5
380
330
377
100
AcDbEntity
  8
GR1-1
  6
CONTINUOUS
 62
     2
100
AcDbLine
 10
777.507879
 20
133.275429
 30
0.0
 11
777.74043
 21
134.03122
 31
0.0
  0
LINE
  5
381
330
377
100
AcDbEntity
  8
GR1-1
  6
CONTINUOUS
 62
     2
100
AcDbLine
 10
784.198194
 20
146.946749
 30
0.0
 11
784.430746
 21
146.830473
 31
0.0
  0
LINE
  5
382
330
377
100
AcDbEntity
  8
GR1-1
  6
CONTINUOUS
 62
     2
100
AcDbLine
 10
784.430746
 20
146.830473
 30
0.0
 11
784.663297
 21
147.586264
 31
0.0
  0
LINE
  5
383
330
377
100
AcDbEntity
  8
GR1-1
  6
CONTINUOUS
 62
     2
100
AcDbLine
 10
784.663297
 20
147.586264
 30
0.0
 11
784.198194
 21
146.946749
 31
0.0
  0
TEXT
  5
384
330
377
100
AcDbEntity
  8
GR1-1
  6
CONTINUOUS
 62
     4
100
AcDbText
 10
779.844609
 20
139.290449
 30
0.0
 40
1.5
  1
800
 50
63.434948
 41
0.7
  7
FX_VECTOR
 72
     5
 11
781.253332
 21
142.107895
 31
0.0
100
AcDbText
  0
ENDBLK
  5
379
330
377
100
AcDbEntity
  8
0
100
AcDbBlockEnd
  0
BLOCK
  5
39B
330
39A
100
AcDbEntity
  8
0
100
AcDbBlockBegin
  2
BLKF062
 70
     0
 71
     0
 10
0.0
 20
0.0
 30
0.0
  3
BLKF062
  1

  0
LINE
  5
39E
330
39A
100
AcDbEntity
  8
GR1-1
  6
CONTINUOUS
 62
     2
100
AcDbLine
 10
733.203883
 20
172.85344
 30
0.0
 11
733.203883
 21
169.820785
 31
0.0
  0
LINE
  5
39F
330
39A
100
AcDbEntity
  8
GR1-1
  6
CONTINUOUS
 62
     2
100
AcDbLine
 10
739.453883
 20
172.85344
 30
0.0
 11
739.453883
 21
169.820785
 31
0.0
  0
LINE
  5
3A0
330
39A
100
AcDbEntity
  8
GR1-1
  6
CONTINUOUS
 62
     2
100
AcDbLine
 10
733.983883
 20
170.420785
 30
0.0
 11
738.673883
 21
170.420785
 31
0.0
  0
TEXT
  5
3A1
330
39A
100
AcDbEntity
  8
GR1-1
  6
CONTINUOUS
 62
     4
100
AcDbText
 10
733.728906
 20
171.020781
 30
0.0
 40
1.5
  1
312.5
 41
0.7
  7
FX_VECTOR
 72
     5
 11
738.978906
 21
171.020781
 31
0.0
100
AcDbText
  0
LINE
  5
3A2
330
39A
100
AcDbEntity
  8
GR1-1
  6
CONTINUOUS
 62
     2
100
AcDbLine
 10
733.983883
 20
170.550785
 30
0.0
 11
733.983883
 21
170.290785
 31
0.0
  0
LINE
  5
3A3
330
39A
100
AcDbEntity
  8
GR1-1
  6
CONTINUOUS
 62
     2
100
AcDbLine
 10
733.983883
 20
170.290785
 30
0.0
 11
733.203883
 21
170.420785
 31
0.0
  0
LINE
  5
3A4
330
39A
100
AcDbEntity
  8
GR1-1
  6
CONTINUOUS
 62
     2
100
AcDbLine
 10
733.203883
 20
170.420785
 30
0.0
 11
733.983883
 21
170.550785
 31
0.0
  0
LINE
  5
3A5
330
39A
100
AcDbEntity
  8
GR1-1
  6
CONTINUOUS
 62
     2
100
AcDbLine
 10
738.673883
 20
170.550785
 30
0.0
 11
738.673883
 21
170.290785
 31
0.0
  0
LINE
  5
3A6
330
39A
100
AcDbEntity
  8
GR1-1
  6
CONTINUOUS
 62
     2
100
AcDbLine
 10
738.673883
 20
170.290785
 30
0.0
 11
739.453883
 21
170.420785
 31
0.0
  0
LINE
  5
3A7
330
39A
100
AcDbEntity
  8
GR1-1
  6
CONTINUOUS
 62
     2
100
AcDbLine
 10
739.453883
 20
170.420785
 30
0.0
 11
738.673883
 21
170.550785
 31
0.0
  0
ENDBLK
  5
39C
330
39A
100
AcDbEntity
  8
0
100
AcDbBlockEnd
  0
BLOCK
  5
3A9
330
3A8
100
AcDbEntity
  8
0
100
AcDbBlockBegin
  2
BLKF063
 70
     0
 71
     0
 10
0.0
 20
0.0
 30
0.0
  3
BLKF063
  1

  0
LINE
  5
3AC
330
3A8
100
AcDbEntity
  8
GR1-1
  6
CONTINUOUS
 62
     2
100
AcDbLine
 10
732.303883
 20
173.75344
 30
0.0
 11
729.704435
 21
173.75344
 31
0.0
  0
LINE
  5
3AD
330
3A8
100
AcDbEntity
  8
GR1-1
  6
CONTINUOUS
 62
     2
100
AcDbLine
 10
736.553883
 20
175.75344
 30
0.0
 11
729.704435
 21
175.75344
 31
0.0
  0
LINE
  5
3AE
330
3A8
100
AcDbEntity
  8
GR1-1
  6
CONTINUOUS
 62
     2
100
AcDbLine
 10
730.304435
 20
172.97344
 30
0.0
 11
730.304435
 21
172.19344
 31
0.0
  0
LINE
  5
3AF
330
3A8
100
AcDbEntity
  8
GR1-1
  6
CONTINUOUS
 62
     2
100
AcDbLine
 10
730.304435
 20
176.53344
 30
0.0
 11
730.304435
 21
177.31344
 31
0.0
  0
TEXT
  5
3B0
330
3A8
100
AcDbEntity
  8
GR1-1
  6
CONTINUOUS
 62
     4
100
AcDbText
 10
728.804453
 20
172.287539
 30
0.0
 40
1.5
  1
100
 50
90.0
 41
0.7
  7
FX_VECTOR
 72
     5
 11
728.804453
 21
175.437539
 31
0.0
100
AcDbText
  0
LINE
  5
3B1
330
3A8
100
AcDbEntity
  8
GR1-1
  6
CONTINUOUS
 62
     2
100
AcDbLine
 10
730.174435
 20
172.97344
 30
0.0
 11
730.434435
 21
172.97344
 31
0.0
  0
LINE
  5
3B2
330
3A8
100
AcDbEntity
  8
GR1-1
  6
CONTINUOUS
 62
     2
100
AcDbLine
 10
730.434435
 20
172.97344
 30
0.0
 11
730.304435
 21
173.75344
 31
0.0
  0
LINE
  5
3B3
330
3A8
100
AcDbEntity
  8
GR1-1
  6
CONTINUOUS
 62
     2
100
AcDbLine
 10
730.304435
 20
173.75344
 30
0.0
 11
730.174435
 21
172.97344
 31
0.0
  0
LINE
  5
3B4
330
3A8
100
AcDbEntity
  8
GR1-1
  6
CONTINUOUS
 62
     2
100
AcDbLine
 10
730.174435
 20
176.53344
 30
0.0
 11
730.434435
 21
176.53344
 31
0.0
  0
LINE
  5
3B5
330
3A8
100
AcDbEntity
  8
GR1-1
  6
CONTINUOUS
 62
     2
100
AcDbLine
 10
730.434435
 20
176.53344
 30
0.0
 11
730.304435
 21
175.75344
 31
0.0
  0
LINE
  5
3B6
330
3A8
100
AcDbEntity
  8
GR1-1
  6
CONTINUOUS
 62
     2
100
AcDbLine
 10
730.304435
 20
175.75344
 30
0.0
 11
730.174435
 21
176.53344
 31
0.0
  0
ENDBLK
  5
3AA
330
3A8
100
AcDbEntity
  8
0
100
AcDbBlockEnd
  0
BLOCK
  5
3B8
330
3B7
100
AcDbEntity
  8
0
100
AcDbBlockBegin
  2
BLKF064
 70
     0
 71
     0
 10
0.0
 20
0.0
 30
0.0
  3
BLKF064
  1

  0
LINE
  5
3BB
330
3B7
100
AcDbEntity
  8
GR1-1
  6
CONTINUOUS
 62
     2
100
AcDbLine
 10
736.553883
 20
175.75344
 30
0.0
 11
729.704435
 21
175.75344
 31
0.0
  0
LINE
  5
3BC
330
3B7
100
AcDbEntity
  8
GR1-1
  6
CONTINUOUS
 62
     2
100
AcDbLine
 10
736.553883
 20
177.75344
 30
0.0
 11
729.704435
 21
177.75344
 31
0.0
  0
LINE
  5
3BD
330
3B7
100
AcDbEntity
  8
GR1-1
  6
CONTINUOUS
 62
     2
100
AcDbLine
 10
730.304435
 20
174.97344
 30
0.0
 11
730.304435
 21
174.19344
 31
0.0
  0
LINE
  5
3BE
330
3B7
100
AcDbEntity
  8
GR1-1
  6
CONTINUOUS
 62
     2
100
AcDbLine
 10
730.304435
 20
178.53344
 30
0.0
 11
730.304435
 21
179.31344
 31
0.0
  0
TEXT
  5
3BF
330
3B7
100
AcDbEntity
  8
GR1-1
  6
CONTINUOUS
 62
     4
100
AcDbText
 10
728.804453
 20
176.572227
 30
0.0
 40
1.5
  1
100
 50
90.0
 41
0.7
  7
FX_VECTOR
 72
     5
 11
728.804453
 21
179.722227
 31
0.0
100
AcDbText
  0
LINE
  5
3C0
330
3B7
100
AcDbEntity
  8
GR1-1
  6
CONTINUOUS
 62
     2
100
AcDbLine
 10
730.174435
 20
174.97344
 30
0.0
 11
730.434435
 21
174.97344
 31
0.0
  0
LINE
  5
3C1
330
3B7
100
AcDbEntity
  8
GR1-1
  6
CONTINUOUS
 62
     2
100
AcDbLine
 10
730.434435
 20
174.97344
 30
0.0
 11
730.304435
 21
175.75344
 31
0.0
  0
LINE
  5
3C2
330
3B7
100
AcDbEntity
  8
GR1-1
  6
CONTINUOUS
 62
     2
100
AcDbLine
 10
730.304435
 20
175.75344
 30
0.0
 11
730.174435
 21
174.97344
 31
0.0
  0
LINE
  5
3C3
330
3B7
100
AcDbEntity
  8
GR1-1
  6
CONTINUOUS
 62
     2
100
AcDbLine
 10
730.174435
 20
178.53344
 30
0.0
 11
730.434435
 21
178.53344
 31
0.0
  0
LINE
  5
3C4
330
3B7
100
AcDbEntity
  8
GR1-1
  6
CONTINUOUS
 62
     2
100
AcDbLine
 10
730.434435
 20
178.53344
 30
0.0
 11
730.304435
 21
177.75344
 31
0.0
  0
LINE
  5
3C5
330
3B7
100
AcDbEntity
  8
GR1-1
  6
CONTINUOUS
 62
     2
100
AcDbLine
 10
730.304435
 20
177.75344
 30
0.0
 11
730.174435
 21
178.53344
 31
0.0
  0
ENDBLK
  5
3B9
330
3B7
100
AcDbEntity
  8
0
100
AcDbBlockEnd
  0
BLOCK
  5
3C7
330
3C6
100
AcDbEntity
  8
0
100
AcDbBlockBegin
  2
BLKF065
 70
     0
 71
     0
 10
0.0
 20
0.0
 30
0.0
  3
BLKF065
  1

  0
LINE
  5
3CA
330
3C6
100
AcDbEntity
  8
GR1-1
  6
CONTINUOUS
 62
     2
100
AcDbLine
 10
739.839048
 20
176.067772
 30
0.0
 11
743.493158
 21
177.730547
 31
0.0
  0
INSERT
  5
3CB
330
3C6
100
AcDbEntity
  8
GR1-1
  6
CONTINUOUS
 62
     2
100
AcDbBlockReference
  2
FXTIP_BLACKTRIANGLE_S
 10
739.839048
 20
176.067772
 30
0.0
 41
2.0
 42
2.0
 50
204.467548
  0
LINE
  5
3CC
330
3C6
100
AcDbEntity
  8
GR1-1
  6
CONTINUOUS
 62
     2
100
AcDbLine
 10
743.493158
 20
177.730547
 30
0.0
 11
744.273158
 21
177.730547
 31
0.0
  0
TEXT
  5
3CD
330
3C6
100
AcDbEntity
  8
GR1-1
  6
CONTINUOUS
 62
     4
100
AcDbText
 10
743.555859
 20
178.082031
 30
0.0
 40
1.5
  1
ガイドピン４号
 41
0.7
  7
FX_VECTOR
 72
     5
 11
750.905859
 21
178.082031
 31
0.0
100
AcDbText
  0
ENDBLK
  5
3C8
330
3C6
100
AcDbEntity
  8
0
100
AcDbBlockEnd
  0
BLOCK
  5
3CF
330
3CE
100
AcDbEntity
  8
0
100
AcDbBlockBegin
  2
BLKF066
 70
     0
 71
     0
 10
0.0
 20
0.0
 30
0.0
  3
BLKF066
  1

  0
LINE
  5
3D2
330
3CE
100
AcDbEntity
  8
GR1-1
  6
CONTINUOUS
 62
     2
100
AcDbLine
 10
739.988488
 20
201.69446
 30
0.0
 11
741.631897
 21
201.69446
 31
0.0
  0
LINE
  5
3D3
330
3CE
100
AcDbEntity
  8
GR1-1
  6
CONTINUOUS
 62
     2
100
AcDbLine
 10
740.295681
 20
199.69446
 30
0.0
 11
741.631897
 21
199.69446
 31
0.0
  0
LINE
  5
3D4
330
3CE
100
AcDbEntity
  8
GR1-1
  6
CONTINUOUS
 62
     2
100
AcDbLine
 10
741.031897
 20
202.47446
 30
0.0
 11
741.031897
 21
203.25446
 31
0.0
  0
LINE
  5
3D5
330
3CE
100
AcDbEntity
  8
GR1-1
  6
CONTINUOUS
 62
     2
100
AcDbLine
 10
741.031897
 20
198.91446
 30
0.0
 11
741.031897
 21
198.13446
 31
0.0
  0
TEXT
  5
3D6
330
3CE
100
AcDbEntity
  8
GR1-1
  6
CONTINUOUS
 62
     4
100
AcDbText
 10
740.827188
 20
195.267031
 30
0.0
 40
1.5
  1
100
 50
90.0
 41
0.7
  7
FX_VECTOR
 72
     5
 11
740.827188
 21
198.417031
 31
0.0
100
AcDbText
  0
LINE
  5
3D7
330
3CE
100
AcDbEntity
  8
GR1-1
  6
CONTINUOUS
 62
     2
100
AcDbLine
 10
740.901897
 20
202.47446
 30
0.0
 11
741.161897
 21
202.47446
 31
0.0
  0
LINE
  5
3D8
330
3CE
100
AcDbEntity
  8
GR1-1
  6
CONTINUOUS
 62
     2
100
AcDbLine
 10
741.161897
 20
202.47446
 30
0.0
 11
741.031897
 21
201.69446
 31
0.0
  0
LINE
  5
3D9
330
3CE
100
AcDbEntity
  8
GR1-1
  6
CONTINUOUS
 62
     2
100
AcDbLine
 10
741.031897
 20
201.69446
 30
0.0
 11
740.901897
 21
202.47446
 31
0.0
  0
LINE
  5
3DA
330
3CE
100
AcDbEntity
  8
GR1-1
  6
CONTINUOUS
 62
     2
100
AcDbLine
 10
740.901897
 20
198.91446
 30
0.0
 11
741.161897
 21
198.91446
 31
0.0
  0
LINE
  5
3DB
330
3CE
100
AcDbEntity
  8
GR1-1
  6
CONTINUOUS
 62
     2
100
AcDbLine
 10
741.161897
 20
198.91446
 30
0.0
 11
741.031897
 21
199.69446
 31
0.0
  0
LINE
  5
3DC
330
3CE
100
AcDbEntity
  8
GR1-1
  6
CONTINUOUS
 62
     2
100
AcDbLine
 10
741.031897
 20
199.69446
 30
0.0
 11
740.901897
 21
198.91446
 31
0.0
  0
ENDBLK
  5
3D0
330
3CE
100
AcDbEntity
  8
0
100
AcDbBlockEnd
  0
BLOCK
  5
3DE
330
3DD
100
AcDbEntity
  8
0
100
AcDbBlockBegin
  2
BLKF067
 70
     0
 71
     0
 10
0.0
 20
0.0
 30
0.0
  3
BLKF067
  1

  0
LINE
  5
3E1
330
3DD
100
AcDbEntity
  8
GR1-1
  6
CONTINUOUS
 62
     2
100
AcDbLine
 10
737.053883
 20
202.59446
 30
0.0
 11
737.053883
 21
204.581341
 31
0.0
  0
LINE
  5
3E2
330
3DD
100
AcDbEntity
  8
GR1-1
  6
CONTINUOUS
 62
     2
100
AcDbLine
 10
733.253883
 20
202.59446
 30
0.0
 11
733.253883
 21
204.581341
 31
0.0
  0
LINE
  5
3E3
330
3DD
100
AcDbEntity
  8
GR1-1
  6
CONTINUOUS
 62
     2
100
AcDbLine
 10
736.273883
 20
203.981341
 30
0.0
 11
734.033883
 21
203.981341
 31
0.0
  0
TEXT
  5
3E4
330
3DD
100
AcDbEntity
  8
GR1-1
  6
CONTINUOUS
 62
     4
100
AcDbText
 10
733.398047
 20
204.656484
 30
0.0
 40
1.5
  1
190
 41
0.7
  7
FX_VECTOR
 72
     5
 11
736.548047
 21
204.656484
 31
0.0
100
AcDbText
  0
LINE
  5
3E5
330
3DD
100
AcDbEntity
  8
GR1-1
  6
CONTINUOUS
 62
     2
100
AcDbLine
 10
736.273883
 20
204.111341
 30
0.0
 11
736.273883
 21
203.851341
 31
0.0
  0
LINE
  5
3E6
330
3DD
100
AcDbEntity
  8
GR1-1
  6
CONTINUOUS
 62
     2
100
AcDbLine
 10
736.273883
 20
203.851341
 30
0.0
 11
737.053883
 21
203.981341
 31
0.0
  0
LINE
  5
3E7
330
3DD
100
AcDbEntity
  8
GR1-1
  6
CONTINUOUS
 62
     2
100
AcDbLine
 10
737.053883
 20
203.981341
 30
0.0
 11
736.273883
 21
204.111341
 31
0.0
  0
LINE
  5
3E8
330
3DD
100
AcDbEntity
  8
GR1-1
  6
CONTINUOUS
 62
     2
100
AcDbLine
 10
734.033883
 20
204.111341
 30
0.0
 11
734.033883
 21
203.851341
 31
0.0
  0
LINE
  5
3E9
330
3DD
100
AcDbEntity
  8
GR1-1
  6
CONTINUOUS
 62
     2
100
AcDbLine
 10
734.033883
 20
203.851341
 30
0.0
 11
733.253883
 21
203.981341
 31
0.0
  0
LINE
  5
3EA
330
3DD
100
AcDbEntity
  8
GR1-1
  6
CONTINUOUS
 62
     2
100
AcDbLine
 10
733.253883
 20
203.981341
 30
0.0
 11
734.033883
 21
204.111341
 31
0.0
  0
ENDBLK
  5
3DF
330
3DD
100
AcDbEntity
  8
0
100
AcDbBlockEnd
  0
BLOCK
  5
3EC
330
3EB
100
AcDbEntity
  8
0
100
AcDbBlockBegin
  2
BLKF068
 70
     0
 71
     0
 10
0.0
 20
0.0
 30
0.0
  3
BLKF068
  1

  0
LINE
  5
3EF
330
3EB
100
AcDbEntity
  8
GR1-1
  6
CONTINUOUS
 62
     2
100
AcDbLine
 10
737.053883
 20
202.59446
 30
0.0
 11
737.053883
 21
207.547321
 31
0.0
  0
LINE
  5
3F0
330
3EB
100
AcDbEntity
  8
GR1-1
  6
CONTINUOUS
 62
     2
100
AcDbLine
 10
737.453883
 20
202.59446
 30
0.0
 11
737.453883
 21
207.547321
 31
0.0
  0
LINE
  5
3F1
330
3EB
100
AcDbEntity
  8
GR1-1
  6
CONTINUOUS
 62
     2
100
AcDbLine
 10
736.273883
 20
206.947321
 30
0.0
 11
735.493883
 21
206.947321
 31
0.0
  0
LINE
  5
3F2
330
3EB
100
AcDbEntity
  8
GR1-1
  6
CONTINUOUS
 62
     2
100
AcDbLine
 10
738.233883
 20
206.947321
 30
0.0
 11
739.013883
 21
206.947321
 31
0.0
  0
TEXT
  5
3F3
330
3EB
100
AcDbEntity
  8
GR1-1
  6
CONTINUOUS
 62
     4
100
AcDbText
 10
736.194687
 20
207.474961
 30
0.0
 40
1.5
  1
20
 41
0.7
  7
FX_VECTOR
 72
     5
 11
738.294688
 21
207.474961
 31
0.0
100
AcDbText
  0
LINE
  5
3F4
330
3EB
100
AcDbEntity
  8
GR1-1
  6
CONTINUOUS
 62
     2
100
AcDbLine
 10
736.273883
 20
207.077321
 30
0.0
 11
736.273883
 21
206.817321
 31
0.0
  0
LINE
  5
3F5
330
3EB
100
AcDbEntity
  8
GR1-1
  6
CONTINUOUS
 62
     2
100
AcDbLine
 10
736.273883
 20
206.817321
 30
0.0
 11
737.053883
 21
206.947321
 31
0.0
  0
LINE
  5
3F6
330
3EB
100
AcDbEntity
  8
GR1-1
  6
CONTINUOUS
 62
     2
100
AcDbLine
 10
737.053883
 20
206.947321
 30
0.0
 11
736.273883
 21
207.077321
 31
0.0
  0
LINE
  5
3F7
330
3EB
100
AcDbEntity
  8
GR1-1
  6
CONTINUOUS
 62
     2
100
AcDbLine
 10
738.233883
 20
207.077321
 30
0.0
 11
738.233883
 21
206.817321
 31
0.0
  0
LINE
  5
3F8
330
3EB
100
AcDbEntity
  8
GR1-1
  6
CONTINUOUS
 62
     2
100
AcDbLine
 10
738.233883
 20
206.817321
 30
0.0
 11
737.453883
 21
206.947321
 31
0.0
  0
LINE
  5
3F9
330
3EB
100
AcDbEntity
  8
GR1-1
  6
CONTINUOUS
 62
     2
100
AcDbLine
 10
737.453883
 20
206.947321
 30
0.0
 11
738.233883
 21
207.077321
 31
0.0
  0
ENDBLK
  5
3ED
330
3EB
100
AcDbEntity
  8
0
100
AcDbBlockEnd
  0
BLOCK
  5
3FB
330
3FA
100
AcDbEntity
  8
0
100
AcDbBlockBegin
  2
BLKF069
 70
     0
 71
     0
 10
0.0
 20
0.0
 30
0.0
  3
BLKF069
  1

  0
LINE
  5
3FE
330
3FA
100
AcDbEntity
  8
GR1-1
  6
CONTINUOUS
 62
     2
100
AcDbLine
 10
737.453883
 20
202.59446
 30
0.0
 11
737.453883
 21
204.581341
 31
0.0
  0
LINE
  5
3FF
330
3FA
100
AcDbEntity
  8
GR1-1
  6
CONTINUOUS
 62
     2
100
AcDbLine
 10
741.453883
 20
202.59446
 30
0.0
 11
741.453883
 21
204.581341
 31
0.0
  0
LINE
  5
400
330
3FA
100
AcDbEntity
  8
GR1-1
  6
CONTINUOUS
 62
     2
100
AcDbLine
 10
738.233883
 20
203.981341
 30
0.0
 11
740.673883
 21
203.981341
 31
0.0
  0
TEXT
  5
401
330
3FA
100
AcDbEntity
  8
GR1-1
  6
CONTINUOUS
 62
     4
100
AcDbText
 10
737.867344
 20
204.662891
 30
0.0
 40
1.5
  1
200
 41
0.7
  7
FX_VECTOR
 72
     5
 11
741.017344
 21
204.662891
 31
0.0
100
AcDbText
  0
LINE
  5
402
330
3FA
100
AcDbEntity
  8
GR1-1
  6
CONTINUOUS
 62
     2
100
AcDbLine
 10
738.233883
 20
204.111341
 30
0.0
 11
738.233883
 21
203.851341
 31
0.0
  0
LINE
  5
403
330
3FA
100
AcDbEntity
  8
GR1-1
  6
CONTINUOUS
 62
     2
100
AcDbLine
 10
738.233883
 20
203.851341
 30
0.0
 11
737.453883
 21
203.981341
 31
0.0
  0
LINE
  5
404
330
3FA
100
AcDbEntity
  8
GR1-1
  6
CONTINUOUS
 62
     2
100
AcDbLine
 10
737.453883
 20
203.981341
 30
0.0
 11
738.233883
 21
204.111341
 31
0.0
  0
LINE
  5
405
330
3FA
100
AcDbEntity
  8
GR1-1
  6
CONTINUOUS
 62
     2
100
AcDbLine
 10
740.673883
 20
204.111341
 30
0.0
 11
740.673883
 21
203.851341
 31
0.0
  0
LINE
  5
406
330
3FA
100
AcDbEntity
  8
GR1-1
  6
CONTINUOUS
 62
     2
100
AcDbLine
 10
740.673883
 20
203.851341
 30
0.0
 11
741.453883
 21
203.981341
 31
0.0
  0
LINE
  5
407
330
3FA
100
AcDbEntity
  8
GR1-1
  6
CONTINUOUS
 62
     2
100
AcDbLine
 10
741.453883
 20
203.981341
 30
0.0
 11
740.673883
 21
204.111341
 31
0.0
  0
ENDBLK
  5
3FC
330
3FA
100
AcDbEntity
  8
0
100
AcDbBlockEnd
  0
BLOCK
  5
409
330
408
100
AcDbEntity
  8
0
100
AcDbBlockBegin
  2
BLKF070
 70
     0
 71
     0
 10
0.0
 20
0.0
 30
0.0
  3
BLKF070
  1

  0
LINE
  5
40C
330
408
100
AcDbEntity
  8
GR1-1
  6
CONTINUOUS
 62
     2
100
AcDbLine
 10
741.453883
 20
202.59446
 30
0.0
 11
741.453883
 21
207.547321
 31
0.0
  0
LINE
  5
40D
330
408
100
AcDbEntity
  8
GR1-1
  6
CONTINUOUS
 62
     2
100
AcDbLine
 10
741.853883
 20
202.59446
 30
0.0
 11
741.853883
 21
207.547321
 31
0.0
  0
LINE
  5
40E
330
408
100
AcDbEntity
  8
GR1-1
  6
CONTINUOUS
 62
     2
100
AcDbLine
 10
740.673883
 20
206.947321
 30
0.0
 11
739.893883
 21
206.947321
 31
0.0
  0
LINE
  5
40F
330
408
100
AcDbEntity
  8
GR1-1
  6
CONTINUOUS
 62
     2
100
AcDbLine
 10
742.633883
 20
206.947321
 30
0.0
 11
743.413883
 21
206.947321
 31
0.0
  0
TEXT
  5
410
330
408
100
AcDbEntity
  8
GR1-1
  6
CONTINUOUS
 62
     4
100
AcDbText
 10
740.576406
 20
207.474961
 30
0.0
 40
1.5
  1
20
 41
0.7
  7
FX_VECTOR
 72
     5
 11
742.676406
 21
207.474961
 31
0.0
100
AcDbText
  0
LINE
  5
411
330
408
100
AcDbEntity
  8
GR1-1
  6
CONTINUOUS
 62
     2
100
AcDbLine
 10
740.673883
 20
207.077321
 30
0.0
 11
740.673883
 21
206.817321
 31
0.0
  0
LINE
  5
412
330
408
100
AcDbEntity
  8
GR1-1
  6
CONTINUOUS
 62
     2
100
AcDbLine
 10
740.673883
 20
206.817321
 30
0.0
 11
741.453883
 21
206.947321
 31
0.0
  0
LINE
  5
413
330
408
100
AcDbEntity
  8
GR1-1
  6
CONTINUOUS
 62
     2
100
AcDbLine
 10
741.453883
 20
206.947321
 30
0.0
 11
740.673883
 21
207.077321
 31
0.0
  0
LINE
  5
414
330
408
100
AcDbEntity
  8
GR1-1
  6
CONTINUOUS
 62
     2
100
AcDbLine
 10
742.633883
 20
207.077321
 30
0.0
 11
742.633883
 21
206.817321
 31
0.0
  0
LINE
  5
415
330
408
100
AcDbEntity
  8
GR1-1
  6
CONTINUOUS
 62
     2
100
AcDbLine
 10
742.633883
 20
206.817321
 30
0.0
 11
741.853883
 21
206.947321
 31
0.0
  0
LINE
  5
416
330
408
100
AcDbEntity
  8
GR1-1
  6
CONTINUOUS
 62
     2
100
AcDbLine
 10
741.853883
 20
206.947321
 30
0.0
 11
742.633883
 21
207.077321
 31
0.0
  0
ENDBLK
  5
40A
330
408
100
AcDbEntity
  8
0
100
AcDbBlockEnd
  0
BLOCK
  5
418
330
417
100
AcDbEntity
  8
0
100
AcDbBlockBegin
  2
BLKF071
 70
     0
 71
     0
 10
0.0
 20
0.0
 30
0.0
  3
BLKF071
  1

  0
LINE
  5
41B
330
417
100
AcDbEntity
  8
GR1-1
  6
CONTINUOUS
 62
     2
100
AcDbLine
 10
741.853883
 20
202.59446
 30
0.0
 11
741.853883
 21
204.581341
 31
0.0
  0
LINE
  5
41C
330
417
100
AcDbEntity
  8
GR1-1
  6
CONTINUOUS
 62
     2
100
AcDbLine
 10
745.653883
 20
202.59446
 30
0.0
 11
745.653883
 21
204.581341
 31
0.0
  0
LINE
  5
41D
330
417
100
AcDbEntity
  8
GR1-1
  6
CONTINUOUS
 62
     2
100
AcDbLine
 10
742.633883
 20
203.981341
 30
0.0
 11
744.873883
 21
203.981341
 31
0.0
  0
TEXT
  5
41E
330
417
100
AcDbEntity
  8
GR1-1
  6
CONTINUOUS
 62
     4
100
AcDbText
 10
741.991484
 20
204.618906
 30
0.0
 40
1.5
  1
190
 41
0.7
  7
FX_VECTOR
 72
     5
 11
745.141484
 21
204.618906
 31
0.0
100
AcDbText
  0
LINE
  5
41F
330
417
100
AcDbEntity
  8
GR1-1
  6
CONTINUOUS
 62
     2
100
AcDbLine
 10
742.633883
 20
204.111341
 30
0.0
 11
742.633883
 21
203.851341
 31
0.0
  0
LINE
  5
420
330
417
100
AcDbEntity
  8
GR1-1
  6
CONTINUOUS
 62
     2
100
AcDbLine
 10
742.633883
 20
203.851341
 30
0.0
 11
741.853883
 21
203.981341
 31
0.0
  0
LINE
  5
421
330
417
100
AcDbEntity
  8
GR1-1
  6
CONTINUOUS
 62
     2
100
AcDbLine
 10
741.853883
 20
203.981341
 30
0.0
 11
742.633883
 21
204.111341
 31
0.0
  0
LINE
  5
422
330
417
100
AcDbEntity
  8
GR1-1
  6
CONTINUOUS
 62
     2
100
AcDbLine
 10
744.873883
 20
204.111341
 30
0.0
 11
744.873883
 21
203.851341
 31
0.0
  0
LINE
  5
423
330
417
100
AcDbEntity
  8
GR1-1
  6
CONTINUOUS
 62
     2
100
AcDbLine
 10
744.873883
 20
203.851341
 30
0.0
 11
745.653883
 21
203.981341
 31
0.0
  0
LINE
  5
424
330
417
100
AcDbEntity
  8
GR1-1
  6
CONTINUOUS
 62
     2
100
AcDbLine
 10
745.653883
 20
203.981341
 30
0.0
 11
744.873883
 21
204.111341
 31
0.0
  0
ENDBLK
  5
419
330
417
100
AcDbEntity
  8
0
100
AcDbBlockEnd
  0
BLOCK
  5
426
330
425
100
AcDbEntity
  8
0
100
AcDbBlockBegin
  2
BLKF072
 70
     0
 71
     0
 10
0.0
 20
0.0
 30
0.0
  3
BLKF072
  1

  0
LINE
  5
429
330
425
100
AcDbEntity
  8
GR1-1
  6
CONTINUOUS
 62
     2
100
AcDbLine
 10
733.253883
 20
202.59446
 30
0.0
 11
733.253883
 21
210.056997
 31
0.0
  0
LINE
  5
42A
330
425
100
AcDbEntity
  8
GR1-1
  6
CONTINUOUS
 62
     2
100
AcDbLine
 10
745.653883
 20
202.59446
 30
0.0
 11
745.653883
 21
210.056997
 31
0.0
  0
LINE
  5
42B
330
425
100
AcDbEntity
  8
GR1-1
  6
CONTINUOUS
 62
     2
100
AcDbLine
 10
734.033883
 20
209.456997
 30
0.0
 11
744.873883
 21
209.456997
 31
0.0
  0
LINE
  5
42C
330
425
100
AcDbEntity
  8
GR1-1
  6
CONTINUOUS
 62
     2
100
AcDbLine
 10
734.033883
 20
209.586997
 30
0.0
 11
734.033883
 21
209.326997
 31
0.0
  0
LINE
  5
42D
330
425
100
AcDbEntity
  8
GR1-1
  6
CONTINUOUS
 62
     2
100
AcDbLine
 10
734.033883
 20
209.326997
 30
0.0
 11
733.253883
 21
209.456997
 31
0.0
  0
LINE
  5
42E
330
425
100
AcDbEntity
  8
GR1-1
  6
CONTINUOUS
 62
     2
100
AcDbLine
 10
733.253883
 20
209.456997
 30
0.0
 11
734.033883
 21
209.586997
 31
0.0
  0
LINE
  5
42F
330
425
100
AcDbEntity
  8
GR1-1
  6
CONTINUOUS
 62
     2
100
AcDbLine
 10
744.873883
 20
209.586997
 30
0.0
 11
744.873883
 21
209.326997
 31
0.0
  0
LINE
  5
430
330
425
100
AcDbEntity
  8
GR1-1
  6
CONTINUOUS
 62
     2
100
AcDbLine
 10
744.873883
 20
209.326997
 30
0.0
 11
745.653883
 21
209.456997
 31
0.0
  0
LINE
  5
431
330
425
100
AcDbEntity
  8
GR1-1
  6
CONTINUOUS
 62
     2
100
AcDbLine
 10
745.653883
 20
209.456997
 30
0.0
 11
744.873883
 21
209.586997
 31
0.0
  0
TEXT
  5
432
330
425
100
AcDbEntity
  8
GR1-1
  6
CONTINUOUS
 62
     4
100
AcDbText
 10
737.878906
 20
210.056992
 30
0.0
 40
1.5
  1
620
 41
0.7
  7
FX_VECTOR
 72
     5
 11
741.028906
 21
210.056992
 31
0.0
100
AcDbText
  0
ENDBLK
  5
427
330
425
100
AcDbEntity
  8
0
100
AcDbBlockEnd
  0
BLOCK
  5
479
330
478
100
AcDbEntity
  8
0
100
AcDbBlockBegin
  2
BLKF073
 70
     0
 71
     0
 10
0.0
 20
0.0
 30
0.0
  3
BLKF073
  1

  0
LINE
  5
47C
330
478
100
AcDbEntity
  8
GR1-1
  6
CONTINUOUS
 62
     2
100
AcDbLine
 10
702.7519
 20
144.149136
 30
0.0
 11
702.7519
 21
145.815385
 31
0.0
  0
LINE
  5
47D
330
478
100
AcDbEntity
  8
GR1-1
  6
CONTINUOUS
 62
     2
100
AcDbLine
 10
700.7519
 20
142.583721
 30
0.0
 11
700.7519
 21
145.815385
 31
0.0
  0
LINE
  5
47E
330
478
100
AcDbEntity
  8
GR1-1
  6
CONTINUOUS
 62
     2
100
AcDbLine
 10
703.5319
 20
145.215385
 30
0.0
 11
704.3119
 21
145.215385
 31
0.0
  0
LINE
  5
47F
330
478
100
AcDbEntity
  8
GR1-1
  6
CONTINUOUS
 62
     2
100
AcDbLine
 10
699.9719
 20
145.215385
 30
0.0
 11
699.1919
 21
145.215385
 31
0.0
  0
TEXT
  5
480
330
478
100
AcDbEntity
  8
GR1-1
  6
CONTINUOUS
 62
     4
100
AcDbText
 10
700.176953
 20
146.715391
 30
0.0
 40
1.5
  1
100
 41
0.7
  7
FX_VECTOR
 72
     5
 11
703.326953
 21
146.715391
 31
0.0
100
AcDbText
  0
LINE
  5
481
330
478
100
AcDbEntity
  8
GR1-1
  6
CONTINUOUS
 62
     2
100
AcDbLine
 10
703.5319
 20
145.345385
 30
0.0
 11
703.5319
 21
145.085385
 31
0.0
  0
LINE
  5
482
330
478
100
AcDbEntity
  8
GR1-1
  6
CONTINUOUS
 62
     2
100
AcDbLine
 10
703.5319
 20
145.085385
 30
0.0
 11
702.7519
 21
145.215385
 31
0.0
  0
LINE
  5
483
330
478
100
AcDbEntity
  8
GR1-1
  6
CONTINUOUS
 62
     2
100
AcDbLine
 10
702.7519
 20
145.215385
 30
0.0
 11
703.5319
 21
145.345385
 31
0.0
  0
LINE
  5
484
330
478
100
AcDbEntity
  8
GR1-1
  6
CONTINUOUS
 62
     2
100
AcDbLine
 10
699.9719
 20
145.345385
 30
0.0
 11
699.9719
 21
145.085385
 31
0.0
  0
LINE
  5
485
330
478
100
AcDbEntity
  8
GR1-1
  6
CONTINUOUS
 62
     2
100
AcDbLine
 10
699.9719
 20
145.085385
 30
0.0
 11
700.7519
 21
145.215385
 31
0.0
  0
LINE
  5
486
330
478
100
AcDbEntity
  8
GR1-1
  6
CONTINUOUS
 62
     2
100
AcDbLine
 10
700.7519
 20
145.215385
 30
0.0
 11
699.9719
 21
145.345385
 31
0.0
  0
ENDBLK
  5
47A
330
478
100
AcDbEntity
  8
0
100
AcDbBlockEnd
  0
BLOCK
  5
488
330
487
100
AcDbEntity
  8
0
100
AcDbBlockBegin
  2
BLKF074
 70
     0
 71
     0
 10
0.0
 20
0.0
 30
0.0
  3
BLKF074
  1

  0
LINE
  5
48B
330
487
100
AcDbEntity
  8
GR1-1
  6
CONTINUOUS
 62
     2
100
AcDbLine
 10
707.907318
 20
129.509965
 30
0.0
 11
707.907318
 21
125.091882
 31
0.0
  0
LINE
  5
48C
330
487
100
AcDbEntity
  8
GR1-1
  6
CONTINUOUS
 62
     2
100
AcDbLine
 10
709.907318
 20
128.038301
 30
0.0
 11
709.907318
 21
125.091882
 31
0.0
  0
LINE
  5
48D
330
487
100
AcDbEntity
  8
GR1-1
  6
CONTINUOUS
 62
     2
100
AcDbLine
 10
707.127318
 20
125.691882
 30
0.0
 11
706.347318
 21
125.691882
 31
0.0
  0
LINE
  5
48E
330
487
100
AcDbEntity
  8
GR1-1
  6
CONTINUOUS
 62
     2
100
AcDbLine
 10
710.687318
 20
125.691882
 30
0.0
 11
711.467318
 21
125.691882
 31
0.0
  0
TEXT
  5
48F
330
487
100
AcDbEntity
  8
GR1-1
  6
CONTINUOUS
 62
     4
100
AcDbText
 10
707.332344
 20
126.176309
 30
0.0
 40
1.5
  1
100
 41
0.7
  7
FX_VECTOR
 72
     5
 11
710.482344
 21
126.176309
 31
0.0
100
AcDbText
  0
LINE
  5
490
330
487
100
AcDbEntity
  8
GR1-1
  6
CONTINUOUS
 62
     2
100
AcDbLine
 10
707.127318
 20
125.821882
 30
0.0
 11
707.127318
 21
125.561882
 31
0.0
  0
LINE
  5
491
330
487
100
AcDbEntity
  8
GR1-1
  6
CONTINUOUS
 62
     2
100
AcDbLine
 10
707.127318
 20
125.561882
 30
0.0
 11
707.907318
 21
125.691882
 31
0.0
  0
LINE
  5
492
330
487
100
AcDbEntity
  8
GR1-1
  6
CONTINUOUS
 62
     2
100
AcDbLine
 10
707.907318
 20
125.691882
 30
0.0
 11
707.127318
 21
125.821882
 31
0.0
  0
LINE
  5
493
330
487
100
AcDbEntity
  8
GR1-1
  6
CONTINUOUS
 62
     2
100
AcDbLine
 10
710.687318
 20
125.821882
 30
0.0
 11
710.687318
 21
125.561882
 31
0.0
  0
LINE
  5
494
330
487
100
AcDbEntity
  8
GR1-1
  6
CONTINUOUS
 62
     2
100
AcDbLine
 10
710.687318
 20
125.561882
 30
0.0
 11
709.907318
 21
125.691882
 31
0.0
  0
LINE
  5
495
330
487
100
AcDbEntity
  8
GR1-1
  6
CONTINUOUS
 62
     2
100
AcDbLine
 10
709.907318
 20
125.691882
 30
0.0
 11
710.687318
 21
125.821882
 31
0.0
  0
ENDBLK
  5
489
330
487
100
AcDbEntity
  8
0
100
AcDbBlockEnd
  0
BLOCK
  5
497
330
496
100
AcDbEntity
  8
0
100
AcDbBlockBegin
  2
BLKF075
 70
     0
 71
     0
 10
0.0
 20
0.0
 30
0.0
  3
BLKF075
  1

  0
LINE
  5
49A
330
496
100
AcDbEntity
  8
GR1-1
  6
CONTINUOUS
 62
     2
100
AcDbLine
 10
709.907318
 20
128.038301
 30
0.0
 11
709.907318
 21
118.576691
 31
0.0
  0
LINE
  5
49B
330
496
100
AcDbEntity
  8
GR1-1
  6
CONTINUOUS
 62
     2
100
AcDbLine
 10
704.507318
 20
128.038301
 30
0.0
 11
704.507318
 21
118.576691
 31
0.0
  0
LINE
  5
49C
330
496
100
AcDbEntity
  8
GR1-1
  6
CONTINUOUS
 62
     2
100
AcDbLine
 10
709.127318
 20
119.176691
 30
0.0
 11
705.287318
 21
119.176691
 31
0.0
  0
LINE
  5
49D
330
496
100
AcDbEntity
  8
GR1-1
  6
CONTINUOUS
 62
     2
100
AcDbLine
 10
709.127318
 20
119.306691
 30
0.0
 11
709.127318
 21
119.046691
 31
0.0
  0
LINE
  5
49E
330
496
100
AcDbEntity
  8
GR1-1
  6
CONTINUOUS
 62
     2
100
AcDbLine
 10
709.127318
 20
119.046691
 30
0.0
 11
709.907318
 21
119.176691
 31
0.0
  0
LINE
  5
49F
330
496
100
AcDbEntity
  8
GR1-1
  6
CONTINUOUS
 62
     2
100
AcDbLine
 10
709.907318
 20
119.176691
 30
0.0
 11
709.127318
 21
119.306691
 31
0.0
  0
LINE
  5
4A0
330
496
100
AcDbEntity
  8
GR1-1
  6
CONTINUOUS
 62
     2
100
AcDbLine
 10
705.287318
 20
119.306691
 30
0.0
 11
705.287318
 21
119.046691
 31
0.0
  0
LINE
  5
4A1
330
496
100
AcDbEntity
  8
GR1-1
  6
CONTINUOUS
 62
     2
100
AcDbLine
 10
705.287318
 20
119.046691
 30
0.0
 11
704.507318
 21
119.176691
 31
0.0
  0
LINE
  5
4A2
330
496
100
AcDbEntity
  8
GR1-1
  6
CONTINUOUS
 62
     2
100
AcDbLine
 10
704.507318
 20
119.176691
 30
0.0
 11
705.287318
 21
119.306691
 31
0.0
  0
TEXT
  5
4A3
330
496
100
AcDbEntity
  8
GR1-1
  6
CONTINUOUS
 62
     4
100
AcDbText
 10
705.632344
 20
119.77668
 30
0.0
 40
1.5
  1
270
 41
0.7
  7
FX_VECTOR
 72
     5
 11
708.782344
 21
119.77668
 31
0.0
100
AcDbText
  0
ENDBLK
  5
498
330
496
100
AcDbEntity
  8
0
100
AcDbBlockEnd
  0
BLOCK
  5
4A5
330
4A4
100
AcDbEntity
  8
0
100
AcDbBlockBegin
  2
BLKF076
 70
     0
 71
     0
 10
0.0
 20
0.0
 30
0.0
  3
BLKF076
  1

  0
LINE
  5
4A8
330
4A4
100
AcDbEntity
  8
GR1-1
  6
CONTINUOUS
 62
     2
100
AcDbLine
 10
686.156468
 20
128.038301
 30
0.0
 11
686.156468
 21
118.576691
 31
0.0
  0
LINE
  5
4A9
330
4A4
100
AcDbEntity
  8
GR1-1
  6
CONTINUOUS
 62
     2
100
AcDbLine
 10
681.956468
 20
128.038301
 30
0.0
 11
681.956468
 21
118.576691
 31
0.0
  0
LINE
  5
4AA
330
4A4
100
AcDbEntity
  8
GR1-1
  6
CONTINUOUS
 62
     2
100
AcDbLine
 10
685.376468
 20
119.176691
 30
0.0
 11
682.736468
 21
119.176691
 31
0.0
  0
LINE
  5
4AB
330
4A4
100
AcDbEntity
  8
GR1-1
  6
CONTINUOUS
 62
     2
100
AcDbLine
 10
685.376468
 20
119.306691
 30
0.0
 11
685.376468
 21
119.046691
 31
0.0
  0
LINE
  5
4AC
330
4A4
100
AcDbEntity
  8
GR1-1
  6
CONTINUOUS
 62
     2
100
AcDbLine
 10
685.376468
 20
119.046691
 30
0.0
 11
686.156468
 21
119.176691
 31
0.0
  0
LINE
  5
4AD
330
4A4
100
AcDbEntity
  8
GR1-1
  6
CONTINUOUS
 62
     2
100
AcDbLine
 10
686.156468
 20
119.176691
 30
0.0
 11
685.376468
 21
119.306691
 31
0.0
  0
LINE
  5
4AE
330
4A4
100
AcDbEntity
  8
GR1-1
  6
CONTINUOUS
 62
     2
100
AcDbLine
 10
682.736468
 20
119.306691
 30
0.0
 11
682.736468
 21
119.046691
 31
0.0
  0
LINE
  5
4AF
330
4A4
100
AcDbEntity
  8
GR1-1
  6
CONTINUOUS
 62
     2
100
AcDbLine
 10
682.736468
 20
119.046691
 30
0.0
 11
681.956468
 21
119.176691
 31
0.0
  0
LINE
  5
4B0
330
4A4
100
AcDbEntity
  8
GR1-1
  6
CONTINUOUS
 62
     2
100
AcDbLine
 10
681.956468
 20
119.176691
 30
0.0
 11
682.736468
 21
119.306691
 31
0.0
  0
TEXT
  5
4B1
330
4A4
100
AcDbEntity
  8
GR1-1
  6
CONTINUOUS
 62
     4
100
AcDbText
 10
682.481484
 20
119.77668
 30
0.0
 40
1.5
  1
210
 41
0.7
  7
FX_VECTOR
 72
     5
 11
685.631484
 21
119.77668
 31
0.0
100
AcDbText
  0
ENDBLK
  5
4A6
330
4A4
100
AcDbEntity
  8
0
100
AcDbBlockEnd
  0
BLOCK
  5
4B3
330
4B2
100
AcDbEntity
  8
0
100
AcDbBlockBegin
  2
BLKF077
 70
     0
 71
     0
 10
0.0
 20
0.0
 30
0.0
  3
BLKF077
  1

  0
LINE
  5
4B6
330
4B2
100
AcDbEntity
  8
GR1-1
  6
CONTINUOUS
 62
     2
100
AcDbLine
 10
682.249018
 20
129.365317
 30
0.0
 11
689.007918
 21
135.094942
 31
0.0
  0
INSERT
  5
4B7
330
4B2
100
AcDbEntity
  8
GR1-1
  6
CONTINUOUS
 62
     2
100
AcDbBlockReference
  2
FXTIP_ARROW_S
 10
682.249018
 20
129.365317
 30
0.0
 41
2.0
 42
2.0
 50
220.288466
  0
LINE
  5
4B8
330
4B2
100
AcDbEntity
  8
GR1-1
  6
CONTINUOUS
 62
     2
100
AcDbLine
 10
689.007918
 20
135.094942
 30
0.0
 11
688.688753
 21
135.094942
 31
0.0
  0
LINE
  5
4B9
330
4B2
100
AcDbEntity
  8
GR1-1
  6
CONTINUOUS
 62
     2
100
AcDbLine
 10
688.688753
 20
135.094942
 30
0.0
 11
696.748753
 21
135.094942
 31
0.0
  0
TEXT
  5
4BA
330
4B2
100
AcDbEntity
  8
GR1-1
  6
CONTINUOUS
 62
     4
100
AcDbText
 10
690.06875
 20
135.694941
 30
0.0
 40
1.5
  1
バール挿入孔
 41
0.7
  7
FX_VECTOR
 72
     5
 11
696.36875
 21
135.694941
 31
0.0
100
AcDbText
  0
ENDBLK
  5
4B4
330
4B2
100
AcDbEntity
  8
0
100
AcDbBlockEnd
  0
BLOCK
  5
4C4
330
4C3
100
AcDbEntity
  8
0
100
AcDbBlockBegin
  2
BLKF078
 70
     0
 71
     0
 10
0.0
 20
0.0
 30
0.0
  3
BLKF078
  1

  0
LINE
  5
4C7
330
4C3
100
AcDbEntity
  8
GR1-1
  6
CONTINUOUS
 62
     2
100
AcDbLine
 10
733.203883
 20
165.698022
 30
0.0
 11
733.203883
 21
158.647687
 31
0.0
  0
LINE
  5
4C8
330
4C3
100
AcDbEntity
  8
GR1-1
  6
CONTINUOUS
 62
     2
100
AcDbLine
 10
745.703883
 20
165.698022
 30
0.0
 11
745.703883
 21
158.647687
 31
0.0
  0
LINE
  5
4C9
330
4C3
100
AcDbEntity
  8
GR1-1
  6
CONTINUOUS
 62
     2
100
AcDbLine
 10
733.983883
 20
159.247687
 30
0.0
 11
744.923883
 21
159.247687
 31
0.0
  0
LINE
  5
4CA
330
4C3
100
AcDbEntity
  8
GR1-1
  6
CONTINUOUS
 62
     2
100
AcDbLine
 10
733.983883
 20
159.377687
 30
0.0
 11
733.983883
 21
159.117687
 31
0.0
  0
LINE
  5
4CB
330
4C3
100
AcDbEntity
  8
GR1-1
  6
CONTINUOUS
 62
     2
100
AcDbLine
 10
733.983883
 20
159.117687
 30
0.0
 11
733.203883
 21
159.247687
 31
0.0
  0
LINE
  5
4CC
330
4C3
100
AcDbEntity
  8
GR1-1
  6
CONTINUOUS
 62
     2
100
AcDbLine
 10
733.203883
 20
159.247687
 30
0.0
 11
733.983883
 21
159.377687
 31
0.0
  0
LINE
  5
4CD
330
4C3
100
AcDbEntity
  8
GR1-1
  6
CONTINUOUS
 62
     2
100
AcDbLine
 10
744.923883
 20
159.377687
 30
0.0
 11
744.923883
 21
159.117687
 31
0.0
  0
LINE
  5
4CE
330
4C3
100
AcDbEntity
  8
GR1-1
  6
CONTINUOUS
 62
     2
100
AcDbLine
 10
744.923883
 20
159.117687
 30
0.0
 11
745.703883
 21
159.247687
 31
0.0
  0
LINE
  5
4CF
330
4C3
100
AcDbEntity
  8
GR1-1
  6
CONTINUOUS
 62
     2
100
AcDbLine
 10
745.703883
 20
159.247687
 30
0.0
 11
744.923883
 21
159.377687
 31
0.0
  0
TEXT
  5
4D0
330
4C3
100
AcDbEntity
  8
GR1-1
  6
CONTINUOUS
 62
     4
100
AcDbText
 10
737.878906
 20
159.847695
 30
0.0
 40
1.5
  1
625
 41
0.7
  7
FX_VECTOR
 72
     5
 11
741.028906
 21
159.847695
 31
0.0
100
AcDbText
  0
ENDBLK
  5
4C5
330
4C3
100
AcDbEntity
  8
0
100
AcDbBlockEnd
  0
BLOCK
  5
4D2
330
4D1
100
AcDbEntity
  8
0
100
AcDbBlockBegin
  2
BLKF079
 70
     0
 71
     0
 10
0.0
 20
0.0
 30
0.0
  3
BLKF079
  1

  0
LINE
  5
4D5
330
4D1
100
AcDbEntity
  8
GR1-1
  6
CONTINUOUS
 62
     2
100
AcDbLine
 10
745.653883
 20
202.59446
 30
0.0
 11
745.653883
 21
210.056997
 31
0.0
  0
LINE
  5
4D6
330
4D1
100
AcDbEntity
  8
GR1-1
  6
CONTINUOUS
 62
     2
100
AcDbLine
 10
745.703883
 20
184.892619
 30
0.0
 11
745.703883
 21
210.056997
 31
0.0
  0
LINE
  5
4D7
330
4D1
100
AcDbEntity
  8
GR1-1
  6
CONTINUOUS
 62
     2
100
AcDbLine
 10
744.873883
 20
209.456997
 30
0.0
 11
744.093883
 21
209.456997
 31
0.0
  0
LINE
  5
4D8
330
4D1
100
AcDbEntity
  8
GR1-1
  6
CONTINUOUS
 62
     2
100
AcDbLine
 10
746.483883
 20
209.456997
 30
0.0
 11
747.263883
 21
209.456997
 31
0.0
  0
TEXT
  5
4D9
330
4D1
100
AcDbEntity
  8
GR1-1
  6
CONTINUOUS
 62
     4
100
AcDbText
 10
745.814375
 20
210.076602
 30
0.0
 40
1.5
  1
2.5
 41
0.7
  7
FX_VECTOR
 72
     5
 11
748.964375
 21
210.076602
 31
0.0
100
AcDbText
  0
LINE
  5
4DA
330
4D1
100
AcDbEntity
  8
GR1-1
  6
CONTINUOUS
 62
     2
100
AcDbLine
 10
744.873883
 20
209.586997
 30
0.0
 11
744.873883
 21
209.326997
 31
0.0
  0
LINE
  5
4DB
330
4D1
100
AcDbEntity
  8
GR1-1
  6
CONTINUOUS
 62
     2
100
AcDbLine
 10
744.873883
 20
209.326997
 30
0.0
 11
745.653883
 21
209.456997
 31
0.0
  0
LINE
  5
4DC
330
4D1
100
AcDbEntity
  8
GR1-1
  6
CONTINUOUS
 62
     2
100
AcDbLine
 10
745.653883
 20
209.456997
 30
0.0
 11
744.873883
 21
209.586997
 31
0.0
  0
LINE
  5
4DD
330
4D1
100
AcDbEntity
  8
GR1-1
  6
CONTINUOUS
 62
     2
100
AcDbLine
 10
746.483883
 20
209.586997
 30
0.0
 11
746.483883
 21
209.326997
 31
0.0
  0
LINE
  5
4DE
330
4D1
100
AcDbEntity
  8
GR1-1
  6
CONTINUOUS
 62
     2
100
AcDbLine
 10
746.483883
 20
209.326997
 30
0.0
 11
745.703883
 21
209.456997
 31
0.0
  0
LINE
  5
4DF
330
4D1
100
AcDbEntity
  8
GR1-1
  6
CONTINUOUS
 62
     2
100
AcDbLine
 10
745.703883
 20
209.456997
 30
0.0
 11
746.483883
 21
209.586997
 31
0.0
  0
ENDBLK
  5
4D3
330
4D1
100
AcDbEntity
  8
0
100
AcDbBlockEnd
  0
BLOCK
  5
4E1
330
4E0
100
AcDbEntity
  8
0
100
AcDbBlockBegin
  2
BLKF080
 70
     0
 71
     0
 10
0.0
 20
0.0
 30
0.0
  3
BLKF080
  1

  0
LINE
  5
4E4
330
4E0
100
AcDbEntity
  8
GR1-1
  6
CONTINUOUS
 62
     2
100
AcDbLine
 10
733.253883
 20
202.59446
 30
0.0
 11
733.253883
 21
210.056997
 31
0.0
  0
LINE
  5
4E5
330
4E0
100
AcDbEntity
  8
GR1-1
  6
CONTINUOUS
 62
     2
100
AcDbLine
 10
733.203883
 20
184.892619
 30
0.0
 11
733.203883
 21
210.056997
 31
0.0
  0
LINE
  5
4E6
330
4E0
100
AcDbEntity
  8
GR1-1
  6
CONTINUOUS
 62
     2
100
AcDbLine
 10
734.033883
 20
209.456997
 30
0.0
 11
734.813883
 21
209.456997
 31
0.0
  0
LINE
  5
4E7
330
4E0
100
AcDbEntity
  8
GR1-1
  6
CONTINUOUS
 62
     2
100
AcDbLine
 10
732.423883
 20
209.456997
 30
0.0
 11
731.643883
 21
209.456997
 31
0.0
  0
TEXT
  5
4E8
330
4E0
100
AcDbEntity
  8
GR1-1
  6
CONTINUOUS
 62
     4
100
AcDbText
 10
729.970625
 20
209.967461
 30
0.0
 40
1.5
  1
2.5
 41
0.7
  7
FX_VECTOR
 72
     5
 11
733.120625
 21
209.967461
 31
0.0
100
AcDbText
  0
LINE
  5
4E9
330
4E0
100
AcDbEntity
  8
GR1-1
  6
CONTINUOUS
 62
     2
100
AcDbLine
 10
734.033883
 20
209.586997
 30
0.0
 11
734.033883
 21
209.326997
 31
0.0
  0
LINE
  5
4EA
330
4E0
100
AcDbEntity
  8
GR1-1
  6
CONTINUOUS
 62
     2
100
AcDbLine
 10
734.033883
 20
209.326997
 30
0.0
 11
733.253883
 21
209.456997
 31
0.0
  0
LINE
  5
4EB
330
4E0
100
AcDbEntity
  8
GR1-1
  6
CONTINUOUS
 62
     2
100
AcDbLine
 10
733.253883
 20
209.456997
 30
0.0
 11
734.033883
 21
209.586997
 31
0.0
  0
LINE
  5
4EC
330
4E0
100
AcDbEntity
  8
GR1-1
  6
CONTINUOUS
 62
     2
100
AcDbLine
 10
732.423883
 20
209.586997
 30
0.0
 11
732.423883
 21
209.326997
 31
0.0
  0
LINE
  5
4ED
330
4E0
100
AcDbEntity
  8
GR1-1
  6
CONTINUOUS
 62
     2
100
AcDbLine
 10
732.423883
 20
209.326997
 30
0.0
 11
733.203883
 21
209.456997
 31
0.0
  0
LINE
  5
4EE
330
4E0
100
AcDbEntity
  8
GR1-1
  6
CONTINUOUS
 62
     2
100
AcDbLine
 10
733.203883
 20
209.456997
 30
0.0
 11
732.423883
 21
209.586997
 31
0.0
  0
ENDBLK
  5
4E2
330
4E0
100
AcDbEntity
  8
0
100
AcDbBlockEnd
  0
BLOCK
  5
4FE
330
4FD
100
AcDbEntity
  8
0
100
AcDbBlockBegin
  2
BLKF081
 70
     0
 71
     0
 10
0.0
 20
0.0
 30
0.0
  3
BLKF081
  1

  0
LINE
  5
501
330
4FD
100
AcDbEntity
  8
GR1-1
  6
CONTINUOUS
 62
     2
100
AcDbLine
 10
817.110694
 20
133.093719
 30
0.0
 11
828.438608
 21
133.093719
 31
0.0
  0
LINE
  5
502
330
4FD
100
AcDbEntity
  8
GR1-1
  6
CONTINUOUS
 62
     2
100
AcDbLine
 10
820.110694
 20
139.093719
 30
0.0
 11
828.438608
 21
139.093719
 31
0.0
  0
LINE
  5
503
330
4FD
100
AcDbEntity
  8
GR1-1
  6
CONTINUOUS
 62
     2
100
AcDbLine
 10
827.838608
 20
133.873719
 30
0.0
 11
827.838608
 21
138.313719
 31
0.0
  0
LINE
  5
504
330
4FD
100
AcDbEntity
  8
GR1-1
  6
CONTINUOUS
 62
     2
100
AcDbLine
 10
827.708608
 20
133.873719
 30
0.0
 11
827.968608
 21
133.873719
 31
0.0
  0
LINE
  5
505
330
4FD
100
AcDbEntity
  8
GR1-1
  6
CONTINUOUS
 62
     2
100
AcDbLine
 10
827.968608
 20
133.873719
 30
0.0
 11
827.838608
 21
133.093719
 31
0.0
  0
LINE
  5
506
330
4FD
100
AcDbEntity
  8
GR1-1
  6
CONTINUOUS
 62
     2
100
AcDbLine
 10
827.838608
 20
133.093719
 30
0.0
 11
827.708608
 21
133.873719
 31
0.0
  0
LINE
  5
507
330
4FD
100
AcDbEntity
  8
GR1-1
  6
CONTINUOUS
 62
     2
100
AcDbLine
 10
827.708608
 20
138.313719
 30
0.0
 11
827.968608
 21
138.313719
 31
0.0
  0
LINE
  5
508
330
4FD
100
AcDbEntity
  8
GR1-1
  6
CONTINUOUS
 62
     2
100
AcDbLine
 10
827.968608
 20
138.313719
 30
0.0
 11
827.838608
 21
139.093719
 31
0.0
  0
LINE
  5
509
330
4FD
100
AcDbEntity
  8
GR1-1
  6
CONTINUOUS
 62
     2
100
AcDbLine
 10
827.838608
 20
139.093719
 30
0.0
 11
827.708608
 21
138.313719
 31
0.0
  0
TEXT
  5
50A
330
4FD
100
AcDbEntity
  8
GR1-1
  6
CONTINUOUS
 62
     4
100
AcDbText
 10
827.238594
 20
134.518711
 30
0.0
 40
1.5
  1
300
 50
90.0
 41
0.7
  7
FX_VECTOR
 72
     5
 11
827.238594
 21
137.668711
 31
0.0
100
AcDbText
  0
ENDBLK
  5
4FF
330
4FD
100
AcDbEntity
  8
0
100
AcDbBlockEnd
  0
BLOCK
  5
50C
330
50B
100
AcDbEntity
  8
0
100
AcDbBlockBegin
  2
BLKF082
 70
     0
 71
     0
 10
0.0
 20
0.0
 30
0.0
  3
BLKF082
  1

  0
LINE
  5
50F
330
50B
100
AcDbEntity
  8
GR1-1
  6
CONTINUOUS
 62
     2
100
AcDbLine
 10
815.032986
 20
128.938301
 30
0.0
 11
828.438608
 21
128.938301
 31
0.0
  0
LINE
  5
510
330
50B
100
AcDbEntity
  8
GR1-1
  6
CONTINUOUS
 62
     2
100
AcDbLine
 10
816.810694
 20
132.493719
 30
0.0
 11
828.438608
 21
132.493719
 31
0.0
  0
LINE
  5
511
330
50B
100
AcDbEntity
  8
GR1-1
  6
CONTINUOUS
 62
     2
100
AcDbLine
 10
827.838608
 20
129.718301
 30
0.0
 11
827.838608
 21
131.713719
 31
0.0
  0
TEXT
  5
512
330
50B
100
AcDbEntity
  8
GR1-1
  6
CONTINUOUS
 62
     4
100
AcDbText
 10
827.295
 20
127.925313
 30
0.0
 40
1.5
  1
177.8
 50
90.0
 41
0.7
  7
FX_VECTOR
 72
     5
 11
827.295
 21
133.175313
 31
0.0
100
AcDbText
  0
LINE
  5
513
330
50B
100
AcDbEntity
  8
GR1-1
  6
CONTINUOUS
 62
     2
100
AcDbLine
 10
827.708608
 20
129.718301
 30
0.0
 11
827.968608
 21
129.718301
 31
0.0
  0
LINE
  5
514
330
50B
100
AcDbEntity
  8
GR1-1
  6
CONTINUOUS
 62
     2
100
AcDbLine
 10
827.968608
 20
129.718301
 30
0.0
 11
827.838608
 21
128.938301
 31
0.0
  0
LINE
  5
515
330
50B
100
AcDbEntity
  8
GR1-1
  6
CONTINUOUS
 62
     2
100
AcDbLine
 10
827.838608
 20
128.938301
 30
0.0
 11
827.708608
 21
129.718301
 31
0.0
  0
LINE
  5
516
330
50B
100
AcDbEntity
  8
GR1-1
  6
CONTINUOUS
 62
     2
100
AcDbLine
 10
827.708608
 20
131.713719
 30
0.0
 11
827.968608
 21
131.713719
 31
0.0
  0
LINE
  5
517
330
50B
100
AcDbEntity
  8
GR1-1
  6
CONTINUOUS
 62
     2
100
AcDbLine
 10
827.968608
 20
131.713719
 30
0.0
 11
827.838608
 21
132.493719
 31
0.0
  0
LINE
  5
518
330
50B
100
AcDbEntity
  8
GR1-1
  6
CONTINUOUS
 62
     2
100
AcDbLine
 10
827.838608
 20
132.493719
 30
0.0
 11
827.708608
 21
131.713719
 31
0.0
  0
ENDBLK
  5
50D
330
50B
100
AcDbEntity
  8
0
100
AcDbBlockEnd
  0
BLOCK
  5
51A
330
519
100
AcDbEntity
  8
0
100
AcDbBlockBegin
  2
BLKF083
 70
     0
 71
     0
 10
0.0
 20
0.0
 30
0.0
  3
BLKF083
  1

  0
LINE
  5
51D
330
519
100
AcDbEntity
  8
GR1-1
  6
CONTINUOUS
 62
     2
100
AcDbLine
 10
816.810694
 20
132.493719
 30
0.0
 11
828.438608
 21
132.493719
 31
0.0
  0
LINE
  5
51E
330
519
100
AcDbEntity
  8
GR1-1
  6
CONTINUOUS
 62
     2
100
AcDbLine
 10
817.110694
 20
133.093719
 30
0.0
 11
828.438608
 21
133.093719
 31
0.0
  0
LINE
  5
51F
330
519
100
AcDbEntity
  8
GR1-1
  6
CONTINUOUS
 62
     2
100
AcDbLine
 10
827.838608
 20
131.713719
 30
0.0
 11
827.838608
 21
130.933719
 31
0.0
  0
LINE
  5
520
330
519
100
AcDbEntity
  8
GR1-1
  6
CONTINUOUS
 62
     2
100
AcDbLine
 10
827.838608
 20
133.873719
 30
0.0
 11
827.838608
 21
134.653719
 31
0.0
  0
TEXT
  5
521
330
519
100
AcDbEntity
  8
GR1-1
  6
CONTINUOUS
 62
     4
100
AcDbText
 10
830.347969
 20
131.578027
 30
0.0
 40
1.5
  1
30
 50
90.0
 41
0.7
  7
FX_VECTOR
 72
     5
 11
830.347969
 21
133.678027
 31
0.0
100
AcDbText
  0
LINE
  5
522
330
519
100
AcDbEntity
  8
GR1-1
  6
CONTINUOUS
 62
     2
100
AcDbLine
 10
827.708608
 20
131.713719
 30
0.0
 11
827.968608
 21
131.713719
 31
0.0
  0
LINE
  5
523
330
519
100
AcDbEntity
  8
GR1-1
  6
CONTINUOUS
 62
     2
100
AcDbLine
 10
827.968608
 20
131.713719
 30
0.0
 11
827.838608
 21
132.493719
 31
0.0
  0
LINE
  5
524
330
519
100
AcDbEntity
  8
GR1-1
  6
CONTINUOUS
 62
     2
100
AcDbLine
 10
827.838608
 20
132.493719
 30
0.0
 11
827.708608
 21
131.713719
 31
0.0
  0
LINE
  5
525
330
519
100
AcDbEntity
  8
GR1-1
  6
CONTINUOUS
 62
     2
100
AcDbLine
 10
827.708608
 20
133.873719
 30
0.0
 11
827.968608
 21
133.873719
 31
0.0
  0
LINE
  5
526
330
519
100
AcDbEntity
  8
GR1-1
  6
CONTINUOUS
 62
     2
100
AcDbLine
 10
827.968608
 20
133.873719
 30
0.0
 11
827.838608
 21
133.093719
 31
0.0
  0
LINE
  5
527
330
519
100
AcDbEntity
  8
GR1-1
  6
CONTINUOUS
 62
     2
100
AcDbLine
 10
827.838608
 20
133.093719
 30
0.0
 11
827.708608
 21
133.873719
 31
0.0
  0
ENDBLK
  5
51B
330
519
100
AcDbEntity
  8
0
100
AcDbBlockEnd
  0
BLOCK
  5
529
330
528
100
AcDbEntity
  8
0
100
AcDbBlockBegin
  2
BLKF084
 70
     0
 71
     0
 10
0.0
 20
0.0
 30
0.0
  3
BLKF084
  1

  0
LINE
  5
52C
330
528
100
AcDbEntity
  8
GR1-1
  6
CONTINUOUS
 62
     2
100
AcDbLine
 10
822.188403
 20
143.249136
 30
0.0
 11
833.975416
 21
143.249136
 31
0.0
  0
LINE
  5
52D
330
528
100
AcDbEntity
  8
GR1-1
  6
CONTINUOUS
 62
     2
100
AcDbLine
 10
815.032986
 20
128.938301
 30
0.0
 11
833.975416
 21
128.938301
 31
0.0
  0
LINE
  5
52E
330
528
100
AcDbEntity
  8
GR1-1
  6
CONTINUOUS
 62
     2
100
AcDbLine
 10
833.375416
 20
142.469136
 30
0.0
 11
833.375416
 21
129.718301
 31
0.0
  0
LINE
  5
52F
330
528
100
AcDbEntity
  8
GR1-1
  6
CONTINUOUS
 62
     2
100
AcDbLine
 10
833.245416
 20
142.469136
 30
0.0
 11
833.505416
 21
142.469136
 31
0.0
  0
LINE
  5
530
330
528
100
AcDbEntity
  8
GR1-1
  6
CONTINUOUS
 62
     2
100
AcDbLine
 10
833.505416
 20
142.469136
 30
0.0
 11
833.375416
 21
143.249136
 31
0.0
  0
LINE
  5
531
330
528
100
AcDbEntity
  8
GR1-1
  6
CONTINUOUS
 62
     2
100
AcDbLine
 10
833.375416
 20
143.249136
 30
0.0
 11
833.245416
 21
142.469136
 31
0.0
  0
LINE
  5
532
330
528
100
AcDbEntity
  8
GR1-1
  6
CONTINUOUS
 62
     2
100
AcDbLine
 10
833.245416
 20
129.718301
 30
0.0
 11
833.505416
 21
129.718301
 31
0.0
  0
LINE
  5
533
330
528
100
AcDbEntity
  8
GR1-1
  6
CONTINUOUS
 62
     2
100
AcDbLine
 10
833.505416
 20
129.718301
 30
0.0
 11
833.375416
 21
128.938301
 31
0.0
  0
LINE
  5
534
330
528
100
AcDbEntity
  8
GR1-1
  6
CONTINUOUS
 62
     2
100
AcDbLine
 10
833.375416
 20
128.938301
 30
0.0
 11
833.245416
 21
129.718301
 31
0.0
  0
TEXT
  5
535
330
528
100
AcDbEntity
  8
GR1-1
  6
CONTINUOUS
 62
     4
100
AcDbText
 10
832.775391
 20
133.468711
 30
0.0
 40
1.5
  1
715.5
 50
90.0
 41
0.7
  7
FX_VECTOR
 72
     5
 11
832.775391
 21
138.718711
 31
0.0
100
AcDbText
  0
ENDBLK
  5
52A
330
528
100
AcDbEntity
  8
0
100
AcDbBlockEnd
  0
BLOCK
  5
537
330
536
100
AcDbEntity
  8
0
100
AcDbBlockBegin
  2
BLKF085
 70
     0
 71
     0
 10
0.0
 20
0.0
 30
0.0
  3
BLKF085
  1

  0
LINE
  5
53A
330
536
100
AcDbEntity
  8
GR1-1
  6
CONTINUOUS
 62
     2
100
AcDbLine
 10
820.110694
 20
139.093719
 30
0.0
 11
828.438608
 21
139.093719
 31
0.0
  0
LINE
  5
53B
330
536
100
AcDbEntity
  8
GR1-1
  6
CONTINUOUS
 62
     2
100
AcDbLine
 10
820.410694
 20
139.693719
 30
0.0
 11
828.438608
 21
139.693719
 31
0.0
  0
LINE
  5
53C
330
536
100
AcDbEntity
  8
GR1-1
  6
CONTINUOUS
 62
     2
100
AcDbLine
 10
827.838608
 20
138.313719
 30
0.0
 11
827.838608
 21
137.533719
 31
0.0
  0
LINE
  5
53D
330
536
100
AcDbEntity
  8
GR1-1
  6
CONTINUOUS
 62
     2
100
AcDbLine
 10
827.838608
 20
140.473719
 30
0.0
 11
827.838608
 21
141.253719
 31
0.0
  0
TEXT
  5
53E
330
536
100
AcDbEntity
  8
GR1-1
  6
CONTINUOUS
 62
     4
100
AcDbText
 10
830.399688
 20
138.178027
 30
0.0
 40
1.5
  1
30
 50
90.0
 41
0.7
  7
FX_VECTOR
 72
     5
 11
830.399688
 21
140.278027
 31
0.0
100
AcDbText
  0
LINE
  5
53F
330
536
100
AcDbEntity
  8
GR1-1
  6
CONTINUOUS
 62
     2
100
AcDbLine
 10
827.708608
 20
138.313719
 30
0.0
 11
827.968608
 21
138.313719
 31
0.0
  0
LINE
  5
540
330
536
100
AcDbEntity
  8
GR1-1
  6
CONTINUOUS
 62
     2
100
AcDbLine
 10
827.968608
 20
138.313719
 30
0.0
 11
827.838608
 21
139.093719
 31
0.0
  0
LINE
  5
541
330
536
100
AcDbEntity
  8
GR1-1
  6
CONTINUOUS
 62
     2
100
AcDbLine
 10
827.838608
 20
139.093719
 30
0.0
 11
827.708608
 21
138.313719
 31
0.0
  0
LINE
  5
542
330
536
100
AcDbEntity
  8
GR1-1
  6
CONTINUOUS
 62
     2
100
AcDbLine
 10
827.708608
 20
140.473719
 30
0.0
 11
827.968608
 21
140.473719
 31
0.0
  0
LINE
  5
543
330
536
100
AcDbEntity
  8
GR1-1
  6
CONTINUOUS
 62
     2
100
AcDbLine
 10
827.968608
 20
140.473719
 30
0.0
 11
827.838608
 21
139.693719
 31
0.0
  0
LINE
  5
544
330
536
100
AcDbEntity
  8
GR1-1
  6
CONTINUOUS
 62
     2
100
AcDbLine
 10
827.838608
 20
139.693719
 30
0.0
 11
827.708608
 21
140.473719
 31
0.0
  0
ENDBLK
  5
538
330
536
100
AcDbEntity
  8
0
100
AcDbBlockEnd
  0
BLOCK
  5
546
330
545
100
AcDbEntity
  8
0
100
AcDbBlockBegin
  2
BLKF086
 70
     0
 71
     0
 10
0.0
 20
0.0
 30
0.0
  3
BLKF086
  1

  0
LINE
  5
549
330
545
100
AcDbEntity
  8
GR1-1
  6
CONTINUOUS
 62
     2
100
AcDbLine
 10
820.410694
 20
139.693719
 30
0.0
 11
828.438608
 21
139.693719
 31
0.0
  0
LINE
  5
54A
330
545
100
AcDbEntity
  8
GR1-1
  6
CONTINUOUS
 62
     2
100
AcDbLine
 10
822.188403
 20
143.249136
 30
0.0
 11
828.438608
 21
143.249136
 31
0.0
  0
LINE
  5
54B
330
545
100
AcDbEntity
  8
GR1-1
  6
CONTINUOUS
 62
     2
100
AcDbLine
 10
827.838608
 20
140.473719
 30
0.0
 11
827.838608
 21
142.469136
 31
0.0
  0
TEXT
  5
54C
330
545
100
AcDbEntity
  8
GR1-1
  6
CONTINUOUS
 62
     4
100
AcDbText
 10
827.191484
 20
138.680723
 30
0.0
 40
1.5
  1
177.8
 50
90.0
 41
0.7
  7
FX_VECTOR
 72
     5
 11
827.191484
 21
143.930723
 31
0.0
100
AcDbText
  0
LINE
  5
54D
330
545
100
AcDbEntity
  8
GR1-1
  6
CONTINUOUS
 62
     2
100
AcDbLine
 10
827.708608
 20
140.473719
 30
0.0
 11
827.968608
 21
140.473719
 31
0.0
  0
LINE
  5
54E
330
545
100
AcDbEntity
  8
GR1-1
  6
CONTINUOUS
 62
     2
100
AcDbLine
 10
827.968608
 20
140.473719
 30
0.0
 11
827.838608
 21
139.693719
 31
0.0
  0
LINE
  5
54F
330
545
100
AcDbEntity
  8
GR1-1
  6
CONTINUOUS
 62
     2
100
AcDbLine
 10
827.838608
 20
139.693719
 30
0.0
 11
827.708608
 21
140.473719
 31
0.0
  0
LINE
  5
550
330
545
100
AcDbEntity
  8
GR1-1
  6
CONTINUOUS
 62
     2
100
AcDbLine
 10
827.708608
 20
142.469136
 30
0.0
 11
827.968608
 21
142.469136
 31
0.0
  0
LINE
  5
551
330
545
100
AcDbEntity
  8
GR1-1
  6
CONTINUOUS
 62
     2
100
AcDbLine
 10
827.968608
 20
142.469136
 30
0.0
 11
827.838608
 21
143.249136
 31
0.0
  0
LINE
  5
552
330
545
100
AcDbEntity
  8
GR1-1
  6
CONTINUOUS
 62
     2
100
AcDbLine
 10
827.838608
 20
143.249136
 30
0.0
 11
827.708608
 21
142.469136
 31
0.0
  0
ENDBLK
  5
547
330
545
100
AcDbEntity
  8
0
100
AcDbBlockEnd
  0
BLOCK
  5
554
330
553
100
AcDbEntity
  8
0
100
AcDbBlockBegin
  2
BLKF087
 70
     0
 71
     0
 10
0.0
 20
0.0
 30
0.0
  3
BLKF087
  1

  0
LINE
  5
557
330
553
100
AcDbEntity
  8
GR1-1
  6
CONTINUOUS
 62
     2
100
AcDbLine
 10
794.578536
 20
144.123369
 30
0.0
 11
794.578536
 21
146.6572
 31
0.0
  0
LINE
  5
558
330
553
100
AcDbEntity
  8
GR1-1
  6
CONTINUOUS
 62
     2
100
AcDbLine
 10
793.337553
 20
144.149136
 30
0.0
 11
793.337553
 21
146.6572
 31
0.0
  0
LINE
  5
559
330
553
100
AcDbEntity
  8
GR1-1
  6
CONTINUOUS
 62
     2
100
AcDbLine
 10
795.358536
 20
146.0572
 30
0.0
 11
796.138536
 21
146.0572
 31
0.0
  0
LINE
  5
55A
330
553
100
AcDbEntity
  8
GR1-1
  6
CONTINUOUS
 62
     2
100
AcDbLine
 10
792.557553
 20
146.0572
 30
0.0
 11
791.777553
 21
146.0572
 31
0.0
  0
TEXT
  5
55B
330
553
100
AcDbEntity
  8
GR1-1
  6
CONTINUOUS
 62
     4
100
AcDbText
 10
790.724922
 20
146.781523
 30
0.0
 40
1.5
  1
62
 41
0.7
  7
FX_VECTOR
 72
     5
 11
792.824922
 21
146.781523
 31
0.0
100
AcDbText
  0
LINE
  5
55C
330
553
100
AcDbEntity
  8
GR1-1
  6
CONTINUOUS
 62
     2
100
AcDbLine
 10
795.358536
 20
146.1872
 30
0.0
 11
795.358536
 21
145.9272
 31
0.0
  0
LINE
  5
55D
330
553
100
AcDbEntity
  8
GR1-1
  6
CONTINUOUS
 62
     2
100
AcDbLine
 10
795.358536
 20
145.9272
 30
0.0
 11
794.578536
 21
146.0572
 31
0.0
  0
LINE
  5
55E
330
553
100
AcDbEntity
  8
GR1-1
  6
CONTINUOUS
 62
     2
100
AcDbLine
 10
794.578536
 20
146.0572
 30
0.0
 11
795.358536
 21
146.1872
 31
0.0
  0
LINE
  5
55F
330
553
100
AcDbEntity
  8
GR1-1
  6
CONTINUOUS
 62
     2
100
AcDbLine
 10
792.557553
 20
146.1872
 30
0.0
 11
792.557553
 21
145.9272
 31
0.0
  0
LINE
  5
560
330
553
100
AcDbEntity
  8
GR1-1
  6
CONTINUOUS
 62
     2
100
AcDbLine
 10
792.557553
 20
145.9272
 30
0.0
 11
793.337553
 21
146.0572
 31
0.0
  0
LINE
  5
561
330
553
100
AcDbEntity
  8
GR1-1
  6
CONTINUOUS
 62
     2
100
AcDbLine
 10
793.337553
 20
146.0572
 30
0.0
 11
792.557553
 21
146.1872
 31
0.0
  0
ENDBLK
  5
555
330
553
100
AcDbEntity
  8
0
100
AcDbBlockEnd
  0
BLOCK
  5
563
330
562
100
AcDbEntity
  8
0
100
AcDbBlockBegin
  2
BLKF088
 70
     0
 71
     0
 10
0.0
 20
0.0
 30
0.0
  3
BLKF088
  1

  0
LINE
  5
566
330
562
100
AcDbEntity
  8
GR1-1
  6
CONTINUOUS
 62
     2
100
AcDbLine
 10
794.578536
 20
144.123369
 30
0.0
 11
794.578536
 21
146.6572
 31
0.0
  0
LINE
  5
567
330
562
100
AcDbEntity
  8
GR1-1
  6
CONTINUOUS
 62
     2
100
AcDbLine
 10
795.178536
 20
144.149136
 30
0.0
 11
795.178536
 21
146.6572
 31
0.0
  0
LINE
  5
568
330
562
100
AcDbEntity
  8
GR1-1
  6
CONTINUOUS
 62
     2
100
AcDbLine
 10
793.798536
 20
146.0572
 30
0.0
 11
793.018536
 21
146.0572
 31
0.0
  0
LINE
  5
569
330
562
100
AcDbEntity
  8
GR1-1
  6
CONTINUOUS
 62
     2
100
AcDbLine
 10
795.958536
 20
146.0572
 30
0.0
 11
796.738536
 21
146.0572
 31
0.0
  0
TEXT
  5
56A
330
562
100
AcDbEntity
  8
GR1-1
  6
CONTINUOUS
 62
     4
100
AcDbText
 10
793.810391
 20
147.138945
 30
0.0
 40
1.5
  1
30
 41
0.7
  7
FX_VECTOR
 72
     5
 11
795.910391
 21
147.138945
 31
0.0
100
AcDbText
  0
LINE
  5
56B
330
562
100
AcDbEntity
  8
GR1-1
  6
CONTINUOUS
 62
     2
100
AcDbLine
 10
793.798536
 20
146.1872
 30
0.0
 11
793.798536
 21
145.9272
 31
0.0
  0
LINE
  5
56C
330
562
100
AcDbEntity
  8
GR1-1
  6
CONTINUOUS
 62
     2
100
AcDbLine
 10
793.798536
 20
145.9272
 30
0.0
 11
794.578536
 21
146.0572
 31
0.0
  0
LINE
  5
56D
330
562
100
AcDbEntity
  8
GR1-1
  6
CONTINUOUS
 62
     2
100
AcDbLine
 10
794.578536
 20
146.0572
 30
0.0
 11
793.798536
 21
146.1872
 31
0.0
  0
LINE
  5
56E
330
562
100
AcDbEntity
  8
GR1-1
  6
CONTINUOUS
 62
     2
100
AcDbLine
 10
795.958536
 20
146.1872
 30
0.0
 11
795.958536
 21
145.9272
 31
0.0
  0
LINE
  5
56F
330
562
100
AcDbEntity
  8
GR1-1
  6
CONTINUOUS
 62
     2
100
AcDbLine
 10
795.958536
 20
145.9272
 30
0.0
 11
795.178536
 21
146.0572
 31
0.0
  0
LINE
  5
570
330
562
100
AcDbEntity
  8
GR1-1
  6
CONTINUOUS
 62
     2
100
AcDbLine
 10
795.178536
 20
146.0572
 30
0.0
 11
795.958536
 21
146.1872
 31
0.0
  0
ENDBLK
  5
564
330
562
100
AcDbEntity
  8
0
100
AcDbBlockEnd
  0
BLOCK
  5
572
330
571
100
AcDbEntity
  8
0
100
AcDbBlockBegin
  2
BLKF089
 70
     0
 71
     0
 10
0.0
 20
0.0
 30
0.0
  3
BLKF089
  1

  0
LINE
  5
575
330
571
100
AcDbEntity
  8
GR1-1
  6
CONTINUOUS
 62
     2
100
AcDbLine
 10
795.178536
 20
144.149136
 30
0.0
 11
795.178536
 21
146.6572
 31
0.0
  0
LINE
  5
576
330
571
100
AcDbEntity
  8
GR1-1
  6
CONTINUOUS
 62
     2
100
AcDbLine
 10
812.292003
 20
144.149136
 30
0.0
 11
812.292003
 21
146.6572
 31
0.0
  0
LINE
  5
577
330
571
100
AcDbEntity
  8
GR1-1
  6
CONTINUOUS
 62
     2
100
AcDbLine
 10
795.958536
 20
146.0572
 30
0.0
 11
811.512003
 21
146.0572
 31
0.0
  0
LINE
  5
578
330
571
100
AcDbEntity
  8
GR1-1
  6
CONTINUOUS
 62
     2
100
AcDbLine
 10
795.958536
 20
146.1872
 30
0.0
 11
795.958536
 21
145.9272
 31
0.0
  0
LINE
  5
579
330
571
100
AcDbEntity
  8
GR1-1
  6
CONTINUOUS
 62
     2
100
AcDbLine
 10
795.958536
 20
145.9272
 30
0.0
 11
795.178536
 21
146.0572
 31
0.0
  0
LINE
  5
57A
330
571
100
AcDbEntity
  8
GR1-1
  6
CONTINUOUS
 62
     2
100
AcDbLine
 10
795.178536
 20
146.0572
 30
0.0
 11
795.958536
 21
146.1872
 31
0.0
  0
LINE
  5
57B
330
571
100
AcDbEntity
  8
GR1-1
  6
CONTINUOUS
 62
     2
100
AcDbLine
 10
811.512003
 20
146.1872
 30
0.0
 11
811.512003
 21
145.9272
 31
0.0
  0
LINE
  5
57C
330
571
100
AcDbEntity
  8
GR1-1
  6
CONTINUOUS
 62
     2
100
AcDbLine
 10
811.512003
 20
145.9272
 30
0.0
 11
812.292003
 21
146.0572
 31
0.0
  0
LINE
  5
57D
330
571
100
AcDbEntity
  8
GR1-1
  6
CONTINUOUS
 62
     2
100
AcDbLine
 10
812.292003
 20
146.0572
 30
0.0
 11
811.512003
 21
146.1872
 31
0.0
  0
TEXT
  5
57E
330
571
100
AcDbEntity
  8
GR1-1
  6
CONTINUOUS
 62
     4
100
AcDbText
 10
801.110312
 20
146.657187
 30
0.0
 40
1.5
  1
855.5
 41
0.7
  7
FX_VECTOR
 72
     5
 11
806.360312
 21
146.657187
 31
0.0
100
AcDbText
  0
ENDBLK
  5
573
330
571
100
AcDbEntity
  8
0
100
AcDbBlockEnd
  0
BLOCK
  5
580
330
57F
100
AcDbEntity
  8
0
100
AcDbBlockBegin
  2
BLKF090
 70
     0
 71
     0
 10
0.0
 20
0.0
 30
0.0
  3
BLKF090
  1

  0
LINE
  5
583
330
57F
100
AcDbEntity
  8
GR1-1
  6
CONTINUOUS
 62
     2
100
AcDbLine
 10
812.292003
 20
144.149136
 30
0.0
 11
812.292003
 21
146.6572
 31
0.0
  0
LINE
  5
584
330
57F
100
AcDbEntity
  8
GR1-1
  6
CONTINUOUS
 62
     2
100
AcDbLine
 10
812.892003
 20
144.149136
 30
0.0
 11
812.892003
 21
146.6572
 31
0.0
  0
LINE
  5
585
330
57F
100
AcDbEntity
  8
GR1-1
  6
CONTINUOUS
 62
     2
100
AcDbLine
 10
811.512003
 20
146.0572
 30
0.0
 11
810.732003
 21
146.0572
 31
0.0
  0
LINE
  5
586
330
57F
100
AcDbEntity
  8
GR1-1
  6
CONTINUOUS
 62
     2
100
AcDbLine
 10
813.672003
 20
146.0572
 30
0.0
 11
814.452003
 21
146.0572
 31
0.0
  0
TEXT
  5
587
330
57F
100
AcDbEntity
  8
GR1-1
  6
CONTINUOUS
 62
     4
100
AcDbText
 10
811.473672
 20
147.049609
 30
0.0
 40
1.5
  1
30
 41
0.7
  7
FX_VECTOR
 72
     5
 11
813.573672
 21
147.049609
 31
0.0
100
AcDbText
  0
LINE
  5
588
330
57F
100
AcDbEntity
  8
GR1-1
  6
CONTINUOUS
 62
     2
100
AcDbLine
 10
811.512003
 20
146.1872
 30
0.0
 11
811.512003
 21
145.9272
 31
0.0
  0
LINE
  5
589
330
57F
100
AcDbEntity
  8
GR1-1
  6
CONTINUOUS
 62
     2
100
AcDbLine
 10
811.512003
 20
145.9272
 30
0.0
 11
812.292003
 21
146.0572
 31
0.0
  0
LINE
  5
58A
330
57F
100
AcDbEntity
  8
GR1-1
  6
CONTINUOUS
 62
     2
100
AcDbLine
 10
812.292003
 20
146.0572
 30
0.0
 11
811.512003
 21
146.1872
 31
0.0
  0
LINE
  5
58B
330
57F
100
AcDbEntity
  8
GR1-1
  6
CONTINUOUS
 62
     2
100
AcDbLine
 10
813.672003
 20
146.1872
 30
0.0
 11
813.672003
 21
145.9272
 31
0.0
  0
LINE
  5
58C
330
57F
100
AcDbEntity
  8
GR1-1
  6
CONTINUOUS
 62
     2
100
AcDbLine
 10
813.672003
 20
145.9272
 30
0.0
 11
812.892003
 21
146.0572
 31
0.0
  0
LINE
  5
58D
330
57F
100
AcDbEntity
  8
GR1-1
  6
CONTINUOUS
 62
     2
100
AcDbLine
 10
812.892003
 20
146.0572
 30
0.0
 11
813.672003
 21
146.1872
 31
0.0
  0
ENDBLK
  5
581
330
57F
100
AcDbEntity
  8
0
100
AcDbBlockEnd
  0
BLOCK
  5
58F
330
58E
100
AcDbEntity
  8
0
100
AcDbBlockBegin
  2
BLKF091
 70
     0
 71
     0
 10
0.0
 20
0.0
 30
0.0
  3
BLKF091
  1

  0
LINE
  5
592
330
58E
100
AcDbEntity
  8
GR1-1
  6
CONTINUOUS
 62
     2
100
AcDbLine
 10
812.892003
 20
144.149136
 30
0.0
 11
812.892003
 21
146.6572
 31
0.0
  0
LINE
  5
593
330
58E
100
AcDbEntity
  8
GR1-1
  6
CONTINUOUS
 62
     2
100
AcDbLine
 10
821.288403
 20
144.149136
 30
0.0
 11
821.288403
 21
146.6572
 31
0.0
  0
LINE
  5
594
330
58E
100
AcDbEntity
  8
GR1-1
  6
CONTINUOUS
 62
     2
100
AcDbLine
 10
813.672003
 20
146.0572
 30
0.0
 11
820.508403
 21
146.0572
 31
0.0
  0
LINE
  5
595
330
58E
100
AcDbEntity
  8
GR1-1
  6
CONTINUOUS
 62
     2
100
AcDbLine
 10
813.672003
 20
146.1872
 30
0.0
 11
813.672003
 21
145.9272
 31
0.0
  0
LINE
  5
596
330
58E
100
AcDbEntity
  8
GR1-1
  6
CONTINUOUS
 62
     2
100
AcDbLine
 10
813.672003
 20
145.9272
 30
0.0
 11
812.892003
 21
146.0572
 31
0.0
  0
LINE
  5
597
330
58E
100
AcDbEntity
  8
GR1-1
  6
CONTINUOUS
 62
     2
100
AcDbLine
 10
812.892003
 20
146.0572
 30
0.0
 11
813.672003
 21
146.1872
 31
0.0
  0
LINE
  5
598
330
58E
100
AcDbEntity
  8
GR1-1
  6
CONTINUOUS
 62
     2
100
AcDbLine
 10
820.508403
 20
146.1872
 30
0.0
 11
820.508403
 21
145.9272
 31
0.0
  0
LINE
  5
599
330
58E
100
AcDbEntity
  8
GR1-1
  6
CONTINUOUS
 62
     2
100
AcDbLine
 10
820.508403
 20
145.9272
 30
0.0
 11
821.288403
 21
146.0572
 31
0.0
  0
LINE
  5
59A
330
58E
100
AcDbEntity
  8
GR1-1
  6
CONTINUOUS
 62
     2
100
AcDbLine
 10
821.288403
 20
146.0572
 30
0.0
 11
820.508403
 21
146.1872
 31
0.0
  0
TEXT
  5
59B
330
58E
100
AcDbEntity
  8
GR1-1
  6
CONTINUOUS
 62
     4
100
AcDbText
 10
815.515234
 20
146.657187
 30
0.0
 40
1.5
  1
420
 41
0.7
  7
FX_VECTOR
 72
     5
 11
818.665234
 21
146.657187
 31
0.0
100
AcDbText
  0
ENDBLK
  5
590
330
58E
100
AcDbEntity
  8
0
100
AcDbBlockEnd
  0
BLOCK
  5
5A2
330
5A1
100
AcDbEntity
  8
0
100
AcDbBlockBegin
  2
BLKF092
 70
     0
 71
     0
 10
0.0
 20
0.0
 30
0.0
  3
BLKF092
  1

  0
LINE
  5
5A5
330
5A1
100
AcDbEntity
  8
GR1-1
  6
CONTINUOUS
 62
     2
100
AcDbLine
 10
739.691641
 20
178.106596
 30
0.0
 11
746.59358
 21
183.712981
 31
0.0
  0
INSERT
  5
5A6
330
5A1
100
AcDbEntity
  8
GR1-1
  6
CONTINUOUS
 62
     2
100
AcDbBlockReference
  2
FXTIP_BLACKTRIANGLE_S
 10
739.691641
 20
178.106596
 30
0.0
 41
2.0
 42
2.0
 50
219.086655
  0
LINE
  5
5A7
330
5A1
100
AcDbEntity
  8
GR1-1
  6
CONTINUOUS
 62
     2
100
AcDbLine
 10
746.59358
 20
183.712981
 30
0.0
 11
747.37358
 21
183.712981
 31
0.0
  0
TEXT
  5
5A8
330
5A1
100
AcDbEntity
  8
GR1-1
  6
CONTINUOUS
 62
     4
100
AcDbText
 10
746.647656
 20
184.39293
 30
0.0
 40
1.5
  1
吊上げ用特殊インサート
 41
0.7
  7
FX_VECTOR
 72
     5
 11
758.197656
 21
184.39293
 31
0.0
100
AcDbText
  0
ENDBLK
  5
5A3
330
5A1
100
AcDbEntity
  8
0
100
AcDbBlockEnd
  0
BLOCK
  5
5AA
330
5A9
100
AcDbEntity
  8
0
100
AcDbBlockBegin
  2
BLKF093
 70
     0
 71
     0
 10
0.0
 20
0.0
 30
0.0
  3
BLKF093
  1

  0
LINE
  5
5AD
330
5A9
100
AcDbEntity
  8
GR1-1
  6
CONTINUOUS
 62
     2
100
AcDbLine
 10
745.703883
 20
172.85344
 30
0.0
 11
745.703883
 21
169.820785
 31
0.0
  0
LINE
  5
5AE
330
5A9
100
AcDbEntity
  8
GR1-1
  6
CONTINUOUS
 62
     2
100
AcDbLine
 10
739.453883
 20
172.85344
 30
0.0
 11
739.453883
 21
169.820785
 31
0.0
  0
LINE
  5
5AF
330
5A9
100
AcDbEntity
  8
GR1-1
  6
CONTINUOUS
 62
     2
100
AcDbLine
 10
744.923883
 20
170.420785
 30
0.0
 11
740.233883
 21
170.420785
 31
0.0
  0
TEXT
  5
5B0
330
5A9
100
AcDbEntity
  8
GR1-1
  6
CONTINUOUS
 62
     4
100
AcDbText
 10
739.928906
 20
171.020781
 30
0.0
 40
1.5
  1
312.5
 41
0.7
  7
FX_VECTOR
 72
     5
 11
745.178906
 21
171.020781
 31
0.0
100
AcDbText
  0
LINE
  5
5B1
330
5A9
100
AcDbEntity
  8
GR1-1
  6
CONTINUOUS
 62
     2
100
AcDbLine
 10
744.923883
 20
170.550785
 30
0.0
 11
744.923883
 21
170.290785
 31
0.0
  0
LINE
  5
5B2
330
5A9
100
AcDbEntity
  8
GR1-1
  6
CONTINUOUS
 62
     2
100
AcDbLine
 10
744.923883
 20
170.290785
 30
0.0
 11
745.703883
 21
170.420785
 31
0.0
  0
LINE
  5
5B3
330
5A9
100
AcDbEntity
  8
GR1-1
  6
CONTINUOUS
 62
     2
100
AcDbLine
 10
745.703883
 20
170.420785
 30
0.0
 11
744.923883
 21
170.550785
 31
0.0
  0
LINE
  5
5B4
330
5A9
100
AcDbEntity
  8
GR1-1
  6
CONTINUOUS
 62
     2
100
AcDbLine
 10
740.233883
 20
170.550785
 30
0.0
 11
740.233883
 21
170.290785
 31
0.0
  0
LINE
  5
5B5
330
5A9
100
AcDbEntity
  8
GR1-1
  6
CONTINUOUS
 62
     2
100
AcDbLine
 10
740.233883
 20
170.290785
 30
0.0
 11
739.453883
 21
170.420785
 31
0.0
  0
LINE
  5
5B6
330
5A9
100
AcDbEntity
  8
GR1-1
  6
CONTINUOUS
 62
     2
100
AcDbLine
 10
739.453883
 20
170.420785
 30
0.0
 11
740.233883
 21
170.550785
 31
0.0
  0
ENDBLK
  5
5AB
330
5A9
100
AcDbEntity
  8
0
100
AcDbBlockEnd
  0
BLOCK
  5
5B8
330
5B7
100
AcDbEntity
  8
0
100
AcDbBlockBegin
  2
BLKF094
 70
     0
 71
     0
 10
0.0
 20
0.0
 30
0.0
  3
BLKF094
  1

  0
LINE
  5
5BB
330
5B7
100
AcDbEntity
  8
GR1-1
  6
CONTINUOUS
 62
     2
100
AcDbLine
 10
746.603883
 20
128.938301
 30
0.0
 11
752.43361
 21
128.938301
 31
0.0
  0
LINE
  5
5BC
330
5B7
100
AcDbEntity
  8
GR1-1
  6
CONTINUOUS
 62
     2
100
AcDbLine
 10
746.603883
 20
143.249136
 30
0.0
 11
752.43361
 21
143.249136
 31
0.0
  0
LINE
  5
5BD
330
5B7
100
AcDbEntity
  8
GR1-1
  6
CONTINUOUS
 62
     2
100
AcDbLine
 10
751.83361
 20
129.718301
 30
0.0
 11
751.83361
 21
142.469136
 31
0.0
  0
LINE
  5
5BE
330
5B7
100
AcDbEntity
  8
GR1-1
  6
CONTINUOUS
 62
     2
100
AcDbLine
 10
751.70361
 20
129.718301
 30
0.0
 11
751.96361
 21
129.718301
 31
0.0
  0
LINE
  5
5BF
330
5B7
100
AcDbEntity
  8
GR1-1
  6
CONTINUOUS
 62
     2
100
AcDbLine
 10
751.96361
 20
129.718301
 30
0.0
 11
751.83361
 21
128.938301
 31
0.0
  0
LINE
  5
5C0
330
5B7
100
AcDbEntity
  8
GR1-1
  6
CONTINUOUS
 62
     2
100
AcDbLine
 10
751.83361
 20
128.938301
 30
0.0
 11
751.70361
 21
129.718301
 31
0.0
  0
LINE
  5
5C1
330
5B7
100
AcDbEntity
  8
GR1-1
  6
CONTINUOUS
 62
     2
100
AcDbLine
 10
751.70361
 20
142.469136
 30
0.0
 11
751.96361
 21
142.469136
 31
0.0
  0
LINE
  5
5C2
330
5B7
100
AcDbEntity
  8
GR1-1
  6
CONTINUOUS
 62
     2
100
AcDbLine
 10
751.96361
 20
142.469136
 30
0.0
 11
751.83361
 21
143.249136
 31
0.0
  0
LINE
  5
5C3
330
5B7
100
AcDbEntity
  8
GR1-1
  6
CONTINUOUS
 62
     2
100
AcDbLine
 10
751.83361
 20
143.249136
 30
0.0
 11
751.70361
 21
142.469136
 31
0.0
  0
TEXT
  5
5C4
330
5B7
100
AcDbEntity
  8
GR1-1
  6
CONTINUOUS
 62
     4
100
AcDbText
 10
751.233594
 20
133.468711
 30
0.0
 40
1.5
  1
715.5
 50
90.0
 41
0.7
  7
FX_VECTOR
 72
     5
 11
751.233594
 21
138.718711
 31
0.0
100
AcDbText
  0
ENDBLK
  5
5B9
330
5B7
100
AcDbEntity
  8
0
100
AcDbBlockEnd
  0
BLOCK
  5
5C6
330
5C5
100
AcDbEntity
  8
0
100
AcDbBlockBegin
  2
BLKF095
 70
     0
 71
     0
 10
0.0
 20
0.0
 30
0.0
  3
BLKF095
  1

  0
LINE
  5
5C9
330
5C5
100
AcDbEntity
  8
GR1-1
  6
CONTINUOUS
 62
     2
100
AcDbLine
 10
733.203883
 20
128.038301
 30
0.0
 11
733.203883
 21
120.045852
 31
0.0
  0
LINE
  5
5CA
330
5C5
100
AcDbEntity
  8
GR1-1
  6
CONTINUOUS
 62
     2
100
AcDbLine
 10
745.703883
 20
128.038301
 30
0.0
 11
745.703883
 21
120.045852
 31
0.0
  0
LINE
  5
5CB
330
5C5
100
AcDbEntity
  8
GR1-1
  6
CONTINUOUS
 62
     2
100
AcDbLine
 10
733.983883
 20
120.645852
 30
0.0
 11
744.923883
 21
120.645852
 31
0.0
  0
LINE
  5
5CC
330
5C5
100
AcDbEntity
  8
GR1-1
  6
CONTINUOUS
 62
     2
100
AcDbLine
 10
733.983883
 20
120.775852
 30
0.0
 11
733.983883
 21
120.515852
 31
0.0
  0
LINE
  5
5CD
330
5C5
100
AcDbEntity
  8
GR1-1
  6
CONTINUOUS
 62
     2
100
AcDbLine
 10
733.983883
 20
120.515852
 30
0.0
 11
733.203883
 21
120.645852
 31
0.0
  0
LINE
  5
5CE
330
5C5
100
AcDbEntity
  8
GR1-1
  6
CONTINUOUS
 62
     2
100
AcDbLine
 10
733.203883
 20
120.645852
 30
0.0
 11
733.983883
 21
120.775852
 31
0.0
  0
LINE
  5
5CF
330
5C5
100
AcDbEntity
  8
GR1-1
  6
CONTINUOUS
 62
     2
100
AcDbLine
 10
744.923883
 20
120.775852
 30
0.0
 11
744.923883
 21
120.515852
 31
0.0
  0
LINE
  5
5D0
330
5C5
100
AcDbEntity
  8
GR1-1
  6
CONTINUOUS
 62
     2
100
AcDbLine
 10
744.923883
 20
120.515852
 30
0.0
 11
745.703883
 21
120.645852
 31
0.0
  0
LINE
  5
5D1
330
5C5
100
AcDbEntity
  8
GR1-1
  6
CONTINUOUS
 62
     2
100
AcDbLine
 10
745.703883
 20
120.645852
 30
0.0
 11
744.923883
 21
120.775852
 31
0.0
  0
TEXT
  5
5D2
330
5C5
100
AcDbEntity
  8
GR1-1
  6
CONTINUOUS
 62
     4
100
AcDbText
 10
737.878906
 20
121.245859
 30
0.0
 40
1.5
  1
625
 41
0.7
  7
FX_VECTOR
 72
     5
 11
741.028906
 21
121.245859
 31
0.0
100
AcDbText
  0
ENDBLK
  5
5C7
330
5C5
100
AcDbEntity
  8
0
100
AcDbBlockEnd
  0
BLOCK
  5
5DF
330
5DE
100
AcDbEntity
  8
0
100
AcDbBlockBegin
  2
BLKF096
 70
     0
 71
     0
 10
0.0
 20
0.0
 30
0.0
  3
BLKF096
  1

  0
LINE
  5
5E2
330
5DE
100
AcDbEntity
  8
GR1-1
  6
CONTINUOUS
 62
     2
100
AcDbLine
 10
733.203883
 20
79.580101
 30
0.0
 11
733.203883
 21
69.753263
 31
0.0
  0
LINE
  5
5E3
330
5DE
100
AcDbEntity
  8
GR1-1
  6
CONTINUOUS
 62
     2
100
AcDbLine
 10
745.703883
 20
79.580101
 30
0.0
 11
745.703883
 21
69.753263
 31
0.0
  0
LINE
  5
5E4
330
5DE
100
AcDbEntity
  8
GR1-1
  6
CONTINUOUS
 62
     2
100
AcDbLine
 10
733.983883
 20
70.353263
 30
0.0
 11
744.923883
 21
70.353263
 31
0.0
  0
LINE
  5
5E5
330
5DE
100
AcDbEntity
  8
GR1-1
  6
CONTINUOUS
 62
     2
100
AcDbLine
 10
733.983883
 20
70.483263
 30
0.0
 11
733.983883
 21
70.223263
 31
0.0
  0
LINE
  5
5E6
330
5DE
100
AcDbEntity
  8
GR1-1
  6
CONTINUOUS
 62
     2
100
AcDbLine
 10
733.983883
 20
70.223263
 30
0.0
 11
733.203883
 21
70.353263
 31
0.0
  0
LINE
  5
5E7
330
5DE
100
AcDbEntity
  8
GR1-1
  6
CONTINUOUS
 62
     2
100
AcDbLine
 10
733.203883
 20
70.353263
 30
0.0
 11
733.983883
 21
70.483263
 31
0.0
  0
LINE
  5
5E8
330
5DE
100
AcDbEntity
  8
GR1-1
  6
CONTINUOUS
 62
     2
100
AcDbLine
 10
744.923883
 20
70.483263
 30
0.0
 11
744.923883
 21
70.223263
 31
0.0
  0
LINE
  5
5E9
330
5DE
100
AcDbEntity
  8
GR1-1
  6
CONTINUOUS
 62
     2
100
AcDbLine
 10
744.923883
 20
70.223263
 30
0.0
 11
745.703883
 21
70.353263
 31
0.0
  0
LINE
  5
5EA
330
5DE
100
AcDbEntity
  8
GR1-1
  6
CONTINUOUS
 62
     2
100
AcDbLine
 10
745.703883
 20
70.353263
 30
0.0
 11
744.923883
 21
70.483263
 31
0.0
  0
TEXT
  5
5EB
330
5DE
100
AcDbEntity
  8
GR1-1
  6
CONTINUOUS
 62
     4
100
AcDbText
 10
737.878906
 20
70.953262
 30
0.0
 40
1.5
  1
625
 41
0.7
  7
FX_VECTOR
 72
     5
 11
741.028906
 21
70.953262
 31
0.0
100
AcDbText
  0
ENDBLK
  5
5E0
330
5DE
100
AcDbEntity
  8
0
100
AcDbBlockEnd
  0
BLOCK
  5
5ED
330
5EC
100
AcDbEntity
  8
0
100
AcDbBlockBegin
  2
BLKF097
 70
     0
 71
     0
 10
0.0
 20
0.0
 30
0.0
  3
BLKF097
  1

  0
LINE
  5
5F0
330
5EC
100
AcDbEntity
  8
GR1-1
  6
CONTINUOUS
 62
     2
100
AcDbLine
 10
741.453883
 20
79.580101
 30
0.0
 11
741.453883
 21
72.968186
 31
0.0
  0
LINE
  5
5F1
330
5EC
100
AcDbEntity
  8
GR1-1
  6
CONTINUOUS
 62
     2
100
AcDbLine
 10
745.703883
 20
79.580101
 30
0.0
 11
745.703883
 21
72.968186
 31
0.0
  0
LINE
  5
5F2
330
5EC
100
AcDbEntity
  8
GR1-1
  6
CONTINUOUS
 62
     2
100
AcDbLine
 10
742.233883
 20
73.568186
 30
0.0
 11
744.923883
 21
73.568186
 31
0.0
  0
TEXT
  5
5F3
330
5EC
100
AcDbEntity
  8
GR1-1
  6
CONTINUOUS
 62
     4
100
AcDbText
 10
740.913203
 20
74.180195
 30
0.0
 40
1.5
  1
212.5
 41
0.7
  7
FX_VECTOR
 72
     5
 11
746.163203
 21
74.180195
 31
0.0
100
AcDbText
  0
LINE
  5
5F4
330
5EC
100
AcDbEntity
  8
GR1-1
  6
CONTINUOUS
 62
     2
100
AcDbLine
 10
742.233883
 20
73.698186
 30
0.0
 11
742.233883
 21
73.438186
 31
0.0
  0
LINE
  5
5F5
330
5EC
100
AcDbEntity
  8
GR1-1
  6
CONTINUOUS
 62
     2
100
AcDbLine
 10
742.233883
 20
73.438186
 30
0.0
 11
741.453883
 21
73.568186
 31
0.0
  0
LINE
  5
5F6
330
5EC
100
AcDbEntity
  8
GR1-1
  6
CONTINUOUS
 62
     2
100
AcDbLine
 10
741.453883
 20
73.568186
 30
0.0
 11
742.233883
 21
73.698186
 31
0.0
  0
LINE
  5
5F7
330
5EC
100
AcDbEntity
  8
GR1-1
  6
CONTINUOUS
 62
     2
100
AcDbLine
 10
744.923883
 20
73.698186
 30
0.0
 11
744.923883
 21
73.438186
 31
0.0
  0
LINE
  5
5F8
330
5EC
100
AcDbEntity
  8
GR1-1
  6
CONTINUOUS
 62
     2
100
AcDbLine
 10
744.923883
 20
73.438186
 30
0.0
 11
745.703883
 21
73.568186
 31
0.0
  0
LINE
  5
5F9
330
5EC
100
AcDbEntity
  8
GR1-1
  6
CONTINUOUS
 62
     2
100
AcDbLine
 10
745.703883
 20
73.568186
 30
0.0
 11
744.923883
 21
73.698186
 31
0.0
  0
ENDBLK
  5
5EE
330
5EC
100
AcDbEntity
  8
0
100
AcDbBlockEnd
  0
BLOCK
  5
5FC
330
5FB
100
AcDbEntity
  8
0
100
AcDbBlockBegin
  2
BLKF098
 70
     0
 71
     0
 10
0.0
 20
0.0
 30
0.0
  3
BLKF098
  1

  0
LINE
  5
5FF
330
5FB
100
AcDbEntity
  8
GR1-1
  6
CONTINUOUS
 62
     2
100
AcDbLine
 10
737.453883
 20
79.580101
 30
0.0
 11
737.453883
 21
72.968186
 31
0.0
  0
LINE
  5
600
330
5FB
100
AcDbEntity
  8
GR1-1
  6
CONTINUOUS
 62
     2
100
AcDbLine
 10
733.203883
 20
79.580101
 30
0.0
 11
733.203883
 21
72.968186
 31
0.0
  0
LINE
  5
601
330
5FB
100
AcDbEntity
  8
GR1-1
  6
CONTINUOUS
 62
     2
100
AcDbLine
 10
736.673883
 20
73.568186
 30
0.0
 11
733.983883
 21
73.568186
 31
0.0
  0
TEXT
  5
602
330
5FB
100
AcDbEntity
  8
GR1-1
  6
CONTINUOUS
 62
     4
100
AcDbText
 10
732.672344
 20
74.180195
 30
0.0
 40
1.5
  1
212.5
 41
0.7
  7
FX_VECTOR
 72
     5
 11
737.922344
 21
74.180195
 31
0.0
100
AcDbText
  0
LINE
  5
603
330
5FB
100
AcDbEntity
  8
GR1-1
  6
CONTINUOUS
 62
     2
100
AcDbLine
 10
736.673883
 20
73.698186
 30
0.0
 11
736.673883
 21
73.438186
 31
0.0
  0
LINE
  5
604
330
5FB
100
AcDbEntity
  8
GR1-1
  6
CONTINUOUS
 62
     2
100
AcDbLine
 10
736.673883
 20
73.438186
 30
0.0
 11
737.453883
 21
73.568186
 31
0.0
  0
LINE
  5
605
330
5FB
100
AcDbEntity
  8
GR1-1
  6
CONTINUOUS
 62
     2
100
AcDbLine
 10
737.453883
 20
73.568186
 30
0.0
 11
736.673883
 21
73.698186
 31
0.0
  0
LINE
  5
606
330
5FB
100
AcDbEntity
  8
GR1-1
  6
CONTINUOUS
 62
     2
100
AcDbLine
 10
733.983883
 20
73.698186
 30
0.0
 11
733.983883
 21
73.438186
 31
0.0
  0
LINE
  5
607
330
5FB
100
AcDbEntity
  8
GR1-1
  6
CONTINUOUS
 62
     2
100
AcDbLine
 10
733.983883
 20
73.438186
 30
0.0
 11
733.203883
 21
73.568186
 31
0.0
  0
LINE
  5
608
330
5FB
100
AcDbEntity
  8
GR1-1
  6
CONTINUOUS
 62
     2
100
AcDbLine
 10
733.203883
 20
73.568186
 30
0.0
 11
733.983883
 21
73.698186
 31
0.0
  0
ENDBLK
  5
5FD
330
5FB
100
AcDbEntity
  8
0
100
AcDbBlockEnd
  0
BLOCK
  5
60A
330
609
100
AcDbEntity
  8
0
100
AcDbBlockBegin
  2
BLKF099
 70
     0
 71
     0
 10
0.0
 20
0.0
 30
0.0
  3
BLKF099
  1

  0
LINE
  5
60D
330
609
100
AcDbEntity
  8
GR1-1
  6
CONTINUOUS
 62
     2
100
AcDbLine
 10
741.453883
 20
79.580101
 30
0.0
 11
741.453883
 21
72.968186
 31
0.0
  0
LINE
  5
60E
330
609
100
AcDbEntity
  8
GR1-1
  6
CONTINUOUS
 62
     2
100
AcDbLine
 10
737.453883
 20
79.580101
 30
0.0
 11
737.453883
 21
72.968186
 31
0.0
  0
LINE
  5
60F
330
609
100
AcDbEntity
  8
GR1-1
  6
CONTINUOUS
 62
     2
100
AcDbLine
 10
740.673883
 20
73.568186
 30
0.0
 11
738.233883
 21
73.568186
 31
0.0
  0
TEXT
  5
610
330
609
100
AcDbEntity
  8
GR1-1
  6
CONTINUOUS
 62
     4
100
AcDbText
 10
737.893281
 20
74.208281
 30
0.0
 40
1.5
  1
200
 41
0.7
  7
FX_VECTOR
 72
     5
 11
741.043281
 21
74.208281
 31
0.0
100
AcDbText
  0
LINE
  5
611
330
609
100
AcDbEntity
  8
GR1-1
  6
CONTINUOUS
 62
     2
100
AcDbLine
 10
740.673883
 20
73.698186
 30
0.0
 11
740.673883
 21
73.438186
 31
0.0
  0
LINE
  5
612
330
609
100
AcDbEntity
  8
GR1-1
  6
CONTINUOUS
 62
     2
100
AcDbLine
 10
740.673883
 20
73.438186
 30
0.0
 11
741.453883
 21
73.568186
 31
0.0
  0
LINE
  5
613
330
609
100
AcDbEntity
  8
GR1-1
  6
CONTINUOUS
 62
     2
100
AcDbLine
 10
741.453883
 20
73.568186
 30
0.0
 11
740.673883
 21
73.698186
 31
0.0
  0
LINE
  5
614
330
609
100
AcDbEntity
  8
GR1-1
  6
CONTINUOUS
 62
     2
100
AcDbLine
 10
738.233883
 20
73.698186
 30
0.0
 11
738.233883
 21
73.438186
 31
0.0
  0
LINE
  5
615
330
609
100
AcDbEntity
  8
GR1-1
  6
CONTINUOUS
 62
     2
100
AcDbLine
 10
738.233883
 20
73.438186
 30
0.0
 11
737.453883
 21
73.568186
 31
0.0
  0
LINE
  5
616
330
609
100
AcDbEntity
  8
GR1-1
  6
CONTINUOUS
 62
     2
100
AcDbLine
 10
737.453883
 20
73.568186
 30
0.0
 11
738.233883
 21
73.698186
 31
0.0
  0
ENDBLK
  5
60B
330
609
100
AcDbEntity
  8
0
100
AcDbBlockEnd
  0
BLOCK
  5
61F
330
61E
100
AcDbEntity
  8
0
100
AcDbBlockBegin
  2
BLKF100
 70
     0
 71
     0
 10
0.0
 20
0.0
 30
0.0
  3
BLKF100
  1

  0
LINE
  5
622
330
61E
100
AcDbEntity
  8
GR1-1
  6
CONTINUOUS
 62
     2
100
AcDbLine
 10
745.703883
 20
85.360101
 30
0.0
 11
745.703883
 21
88.627091
 31
0.0
  0
LINE
  5
623
330
61E
100
AcDbEntity
  8
GR1-1
  6
CONTINUOUS
 62
     2
100
AcDbLine
 10
744.703883
 20
85.360101
 30
0.0
 11
744.703883
 21
88.627091
 31
0.0
  0
LINE
  5
624
330
61E
100
AcDbEntity
  8
GR1-1
  6
CONTINUOUS
 62
     2
100
AcDbLine
 10
746.483883
 20
88.027091
 30
0.0
 11
747.263883
 21
88.027091
 31
0.0
  0
LINE
  5
625
330
61E
100
AcDbEntity
  8
GR1-1
  6
CONTINUOUS
 62
     2
100
AcDbLine
 10
743.923883
 20
88.027091
 30
0.0
 11
743.143883
 21
88.027091
 31
0.0
  0
TEXT
  5
626
330
61E
100
AcDbEntity
  8
GR1-1
  6
CONTINUOUS
 62
     4
100
AcDbText
 10
742.362969
 20
88.492168
 30
0.0
 40
1.5
  1
50
 41
0.7
  7
FX_VECTOR
 72
     5
 11
744.462969
 21
88.492168
 31
0.0
100
AcDbText
  0
LINE
  5
627
330
61E
100
AcDbEntity
  8
GR1-1
  6
CONTINUOUS
 62
     2
100
AcDbLine
 10
746.483883
 20
88.157091
 30
0.0
 11
746.483883
 21
87.897091
 31
0.0
  0
LINE
  5
628
330
61E
100
AcDbEntity
  8
GR1-1
  6
CONTINUOUS
 62
     2
100
AcDbLine
 10
746.483883
 20
87.897091
 30
0.0
 11
745.703883
 21
88.027091
 31
0.0
  0
LINE
  5
629
330
61E
100
AcDbEntity
  8
GR1-1
  6
CONTINUOUS
 62
     2
100
AcDbLine
 10
745.703883
 20
88.027091
 30
0.0
 11
746.483883
 21
88.157091
 31
0.0
  0
LINE
  5
62A
330
61E
100
AcDbEntity
  8
GR1-1
  6
CONTINUOUS
 62
     2
100
AcDbLine
 10
743.923883
 20
88.157091
 30
0.0
 11
743.923883
 21
87.897091
 31
0.0
  0
LINE
  5
62B
330
61E
100
AcDbEntity
  8
GR1-1
  6
CONTINUOUS
 62
     2
100
AcDbLine
 10
743.923883
 20
87.897091
 30
0.0
 11
744.703883
 21
88.027091
 31
0.0
  0
LINE
  5
62C
330
61E
100
AcDbEntity
  8
GR1-1
  6
CONTINUOUS
 62
     2
100
AcDbLine
 10
744.703883
 20
88.027091
 30
0.0
 11
743.923883
 21
88.157091
 31
0.0
  0
ENDBLK
  5
620
330
61E
100
AcDbEntity
  8
0
100
AcDbBlockEnd
  0
BLOCK
  5
637
330
636
100
AcDbEntity
  8
0
100
AcDbBlockBegin
  2
BLKF101
 70
     0
 71
     0
 10
0.0
 20
0.0
 30
0.0
  3
BLKF101
  1

  0
LINE
  5
63A
330
636
100
AcDbEntity
  8
GR1-1
  6
CONTINUOUS
 62
     2
100
AcDbLine
 10
790.960944
 20
79.580101
 30
0.0
 11
790.960944
 21
72.968186
 31
0.0
  0
LINE
  5
63B
330
636
100
AcDbEntity
  8
GR1-1
  6
CONTINUOUS
 62
     2
100
AcDbLine
 10
795.210944
 20
79.580101
 30
0.0
 11
795.210944
 21
72.968186
 31
0.0
  0
LINE
  5
63C
330
636
100
AcDbEntity
  8
GR1-1
  6
CONTINUOUS
 62
     2
100
AcDbLine
 10
791.740944
 20
73.568186
 30
0.0
 11
794.430944
 21
73.568186
 31
0.0
  0
TEXT
  5
63D
330
636
100
AcDbEntity
  8
GR1-1
  6
CONTINUOUS
 62
     4
100
AcDbText
 10
790.420234
 20
74.180195
 30
0.0
 40
1.5
  1
212.5
 41
0.7
  7
FX_VECTOR
 72
     5
 11
795.670234
 21
74.180195
 31
0.0
100
AcDbText
  0
LINE
  5
63E
330
636
100
AcDbEntity
  8
GR1-1
  6
CONTINUOUS
 62
     2
100
AcDbLine
 10
791.740944
 20
73.698186
 30
0.0
 11
791.740944
 21
73.438186
 31
0.0
  0
LINE
  5
63F
330
636
100
AcDbEntity
  8
GR1-1
  6
CONTINUOUS
 62
     2
100
AcDbLine
 10
791.740944
 20
73.438186
 30
0.0
 11
790.960944
 21
73.568186
 31
0.0
  0
LINE
  5
640
330
636
100
AcDbEntity
  8
GR1-1
  6
CONTINUOUS
 62
     2
100
AcDbLine
 10
790.960944
 20
73.568186
 30
0.0
 11
791.740944
 21
73.698186
 31
0.0
  0
LINE
  5
641
330
636
100
AcDbEntity
  8
GR1-1
  6
CONTINUOUS
 62
     2
100
AcDbLine
 10
794.430944
 20
73.698186
 30
0.0
 11
794.430944
 21
73.438186
 31
0.0
  0
LINE
  5
642
330
636
100
AcDbEntity
  8
GR1-1
  6
CONTINUOUS
 62
     2
100
AcDbLine
 10
794.430944
 20
73.438186
 30
0.0
 11
795.210944
 21
73.568186
 31
0.0
  0
LINE
  5
643
330
636
100
AcDbEntity
  8
GR1-1
  6
CONTINUOUS
 62
     2
100
AcDbLine
 10
795.210944
 20
73.568186
 30
0.0
 11
794.430944
 21
73.698186
 31
0.0
  0
ENDBLK
  5
638
330
636
100
AcDbEntity
  8
0
100
AcDbBlockEnd
  0
BLOCK
  5
645
330
644
100
AcDbEntity
  8
0
100
AcDbBlockBegin
  2
BLKF102
 70
     0
 71
     0
 10
0.0
 20
0.0
 30
0.0
  3
BLKF102
  1

  0
LINE
  5
648
330
644
100
AcDbEntity
  8
GR1-1
  6
CONTINUOUS
 62
     2
100
AcDbLine
 10
782.710944
 20
79.580101
 30
0.0
 11
782.710944
 21
69.753263
 31
0.0
  0
LINE
  5
649
330
644
100
AcDbEntity
  8
GR1-1
  6
CONTINUOUS
 62
     2
100
AcDbLine
 10
795.210944
 20
79.580101
 30
0.0
 11
795.210944
 21
69.753263
 31
0.0
  0
LINE
  5
64A
330
644
100
AcDbEntity
  8
GR1-1
  6
CONTINUOUS
 62
     2
100
AcDbLine
 10
783.490944
 20
70.353263
 30
0.0
 11
794.430944
 21
70.353263
 31
0.0
  0
LINE
  5
64B
330
644
100
AcDbEntity
  8
GR1-1
  6
CONTINUOUS
 62
     2
100
AcDbLine
 10
783.490944
 20
70.483263
 30
0.0
 11
783.490944
 21
70.223263
 31
0.0
  0
LINE
  5
64C
330
644
100
AcDbEntity
  8
GR1-1
  6
CONTINUOUS
 62
     2
100
AcDbLine
 10
783.490944
 20
70.223263
 30
0.0
 11
782.710944
 21
70.353263
 31
0.0
  0
LINE
  5
64D
330
644
100
AcDbEntity
  8
GR1-1
  6
CONTINUOUS
 62
     2
100
AcDbLine
 10
782.710944
 20
70.353263
 30
0.0
 11
783.490944
 21
70.483263
 31
0.0
  0
LINE
  5
64E
330
644
100
AcDbEntity
  8
GR1-1
  6
CONTINUOUS
 62
     2
100
AcDbLine
 10
794.430944
 20
70.483263
 30
0.0
 11
794.430944
 21
70.223263
 31
0.0
  0
LINE
  5
64F
330
644
100
AcDbEntity
  8
GR1-1
  6
CONTINUOUS
 62
     2
100
AcDbLine
 10
794.430944
 20
70.223263
 30
0.0
 11
795.210944
 21
70.353263
 31
0.0
  0
LINE
  5
650
330
644
100
AcDbEntity
  8
GR1-1
  6
CONTINUOUS
 62
     2
100
AcDbLine
 10
795.210944
 20
70.353263
 30
0.0
 11
794.430944
 21
70.483263
 31
0.0
  0
TEXT
  5
651
330
644
100
AcDbEntity
  8
GR1-1
  6
CONTINUOUS
 62
     4
100
AcDbText
 10
787.385938
 20
70.953262
 30
0.0
 40
1.5
  1
625
 41
0.7
  7
FX_VECTOR
 72
     5
 11
790.535938
 21
70.953262
 31
0.0
100
AcDbText
  0
ENDBLK
  5
646
330
644
100
AcDbEntity
  8
0
100
AcDbBlockEnd
  0
BLOCK
  5
653
330
652
100
AcDbEntity
  8
0
100
AcDbBlockBegin
  2
BLKF103
 70
     0
 71
     0
 10
0.0
 20
0.0
 30
0.0
  3
BLKF103
  1

  0
LINE
  5
656
330
652
100
AcDbEntity
  8
GR1-1
  6
CONTINUOUS
 62
     2
100
AcDbLine
 10
786.960944
 20
79.580101
 30
0.0
 11
786.960944
 21
72.968186
 31
0.0
  0
LINE
  5
657
330
652
100
AcDbEntity
  8
GR1-1
  6
CONTINUOUS
 62
     2
100
AcDbLine
 10
782.710944
 20
79.580101
 30
0.0
 11
782.710944
 21
72.968186
 31
0.0
  0
LINE
  5
658
330
652
100
AcDbEntity
  8
GR1-1
  6
CONTINUOUS
 62
     2
100
AcDbLine
 10
786.180944
 20
73.568186
 30
0.0
 11
783.490944
 21
73.568186
 31
0.0
  0
TEXT
  5
659
330
652
100
AcDbEntity
  8
GR1-1
  6
CONTINUOUS
 62
     4
100
AcDbText
 10
782.179375
 20
74.180195
 30
0.0
 40
1.5
  1
212.5
 41
0.7
  7
FX_VECTOR
 72
     5
 11
787.429375
 21
74.180195
 31
0.0
100
AcDbText
  0
LINE
  5
65A
330
652
100
AcDbEntity
  8
GR1-1
  6
CONTINUOUS
 62
     2
100
AcDbLine
 10
786.180944
 20
73.698186
 30
0.0
 11
786.180944
 21
73.438186
 31
0.0
  0
LINE
  5
65B
330
652
100
AcDbEntity
  8
GR1-1
  6
CONTINUOUS
 62
     2
100
AcDbLine
 10
786.180944
 20
73.438186
 30
0.0
 11
786.960944
 21
73.568186
 31
0.0
  0
LINE
  5
65C
330
652
100
AcDbEntity
  8
GR1-1
  6
CONTINUOUS
 62
     2
100
AcDbLine
 10
786.960944
 20
73.568186
 30
0.0
 11
786.180944
 21
73.698186
 31
0.0
  0
LINE
  5
65D
330
652
100
AcDbEntity
  8
GR1-1
  6
CONTINUOUS
 62
     2
100
AcDbLine
 10
783.490944
 20
73.698186
 30
0.0
 11
783.490944
 21
73.438186
 31
0.0
  0
LINE
  5
65E
330
652
100
AcDbEntity
  8
GR1-1
  6
CONTINUOUS
 62
     2
100
AcDbLine
 10
783.490944
 20
73.438186
 30
0.0
 11
782.710944
 21
73.568186
 31
0.0
  0
LINE
  5
65F
330
652
100
AcDbEntity
  8
GR1-1
  6
CONTINUOUS
 62
     2
100
AcDbLine
 10
782.710944
 20
73.568186
 30
0.0
 11
783.490944
 21
73.698186
 31
0.0
  0
ENDBLK
  5
654
330
652
100
AcDbEntity
  8
0
100
AcDbBlockEnd
  0
BLOCK
  5
661
330
660
100
AcDbEntity
  8
0
100
AcDbBlockBegin
  2
BLKF104
 70
     0
 71
     0
 10
0.0
 20
0.0
 30
0.0
  3
BLKF104
  1

  0
LINE
  5
664
330
660
100
AcDbEntity
  8
GR1-1
  6
CONTINUOUS
 62
     2
100
AcDbLine
 10
790.960944
 20
79.580101
 30
0.0
 11
790.960944
 21
72.968186
 31
0.0
  0
LINE
  5
665
330
660
100
AcDbEntity
  8
GR1-1
  6
CONTINUOUS
 62
     2
100
AcDbLine
 10
786.960944
 20
79.580101
 30
0.0
 11
786.960944
 21
72.968186
 31
0.0
  0
LINE
  5
666
330
660
100
AcDbEntity
  8
GR1-1
  6
CONTINUOUS
 62
     2
100
AcDbLine
 10
790.180944
 20
73.568186
 30
0.0
 11
787.740944
 21
73.568186
 31
0.0
  0
TEXT
  5
667
330
660
100
AcDbEntity
  8
GR1-1
  6
CONTINUOUS
 62
     4
100
AcDbText
 10
787.400391
 20
74.208281
 30
0.0
 40
1.5
  1
200
 41
0.7
  7
FX_VECTOR
 72
     5
 11
790.550391
 21
74.208281
 31
0.0
100
AcDbText
  0
LINE
  5
668
330
660
100
AcDbEntity
  8
GR1-1
  6
CONTINUOUS
 62
     2
100
AcDbLine
 10
790.180944
 20
73.698186
 30
0.0
 11
790.180944
 21
73.438186
 31
0.0
  0
LINE
  5
669
330
660
100
AcDbEntity
  8
GR1-1
  6
CONTINUOUS
 62
     2
100
AcDbLine
 10
790.180944
 20
73.438186
 30
0.0
 11
790.960944
 21
73.568186
 31
0.0
  0
LINE
  5
66A
330
660
100
AcDbEntity
  8
GR1-1
  6
CONTINUOUS
 62
     2
100
AcDbLine
 10
790.960944
 20
73.568186
 30
0.0
 11
790.180944
 21
73.698186
 31
0.0
  0
LINE
  5
66B
330
660
100
AcDbEntity
  8
GR1-1
  6
CONTINUOUS
 62
     2
100
AcDbLine
 10
787.740944
 20
73.698186
 30
0.0
 11
787.740944
 21
73.438186
 31
0.0
  0
LINE
  5
66C
330
660
100
AcDbEntity
  8
GR1-1
  6
CONTINUOUS
 62
     2
100
AcDbLine
 10
787.740944
 20
73.438186
 30
0.0
 11
786.960944
 21
73.568186
 31
0.0
  0
LINE
  5
66D
330
660
100
AcDbEntity
  8
GR1-1
  6
CONTINUOUS
 62
     2
100
AcDbLine
 10
786.960944
 20
73.568186
 30
0.0
 11
787.740944
 21
73.698186
 31
0.0
  0
ENDBLK
  5
662
330
660
100
AcDbEntity
  8
0
100
AcDbBlockEnd
  0
BLOCK
  5
66F
330
66E
100
AcDbEntity
  8
0
100
AcDbBlockBegin
  2
BLKF105
 70
     0
 71
     0
 10
0.0
 20
0.0
 30
0.0
  3
BLKF105
  1

  0
LINE
  5
672
330
66E
100
AcDbEntity
  8
GR1-1
  6
CONTINUOUS
 62
     2
100
AcDbLine
 10
788.960944
 20
79.580101
 30
0.0
 11
788.960944
 21
76.633682
 31
0.0
  0
LINE
  5
673
330
66E
100
AcDbEntity
  8
GR1-1
  6
CONTINUOUS
 62
     2
100
AcDbLine
 10
786.960944
 20
79.580101
 30
0.0
 11
786.960944
 21
76.633682
 31
0.0
  0
LINE
  5
674
330
66E
100
AcDbEntity
  8
GR1-1
  6
CONTINUOUS
 62
     2
100
AcDbLine
 10
789.740944
 20
77.233682
 30
0.0
 11
790.520944
 21
77.233682
 31
0.0
  0
LINE
  5
675
330
66E
100
AcDbEntity
  8
GR1-1
  6
CONTINUOUS
 62
     2
100
AcDbLine
 10
786.180944
 20
77.233682
 30
0.0
 11
785.400944
 21
77.233682
 31
0.0
  0
TEXT
  5
676
330
66E
100
AcDbEntity
  8
GR1-1
  6
CONTINUOUS
 62
     4
100
AcDbText
 10
783.504766
 20
77.611426
 30
0.0
 40
1.5
  1
100
 41
0.7
  7
FX_VECTOR
 72
     5
 11
786.654766
 21
77.611426
 31
0.0
100
AcDbText
  0
LINE
  5
677
330
66E
100
AcDbEntity
  8
GR1-1
  6
CONTINUOUS
 62
     2
100
AcDbLine
 10
789.740944
 20
77.363682
 30
0.0
 11
789.740944
 21
77.103682
 31
0.0
  0
LINE
  5
678
330
66E
100
AcDbEntity
  8
GR1-1
  6
CONTINUOUS
 62
     2
100
AcDbLine
 10
789.740944
 20
77.103682
 30
0.0
 11
788.960944
 21
77.233682
 31
0.0
  0
LINE
  5
679
330
66E
100
AcDbEntity
  8
GR1-1
  6
CONTINUOUS
 62
     2
100
AcDbLine
 10
788.960944
 20
77.233682
 30
0.0
 11
789.740944
 21
77.363682
 31
0.0
  0
LINE
  5
67A
330
66E
100
AcDbEntity
  8
GR1-1
  6
CONTINUOUS
 62
     2
100
AcDbLine
 10
786.180944
 20
77.363682
 30
0.0
 11
786.180944
 21
77.103682
 31
0.0
  0
LINE
  5
67B
330
66E
100
AcDbEntity
  8
GR1-1
  6
CONTINUOUS
 62
     2
100
AcDbLine
 10
786.180944
 20
77.103682
 30
0.0
 11
786.960944
 21
77.233682
 31
0.0
  0
LINE
  5
67C
330
66E
100
AcDbEntity
  8
GR1-1
  6
CONTINUOUS
 62
     2
100
AcDbLine
 10
786.960944
 20
77.233682
 30
0.0
 11
786.180944
 21
77.363682
 31
0.0
  0
ENDBLK
  5
670
330
66E
100
AcDbEntity
  8
0
100
AcDbBlockEnd
  0
BLOCK
  5
689
330
688
100
AcDbEntity
  8
0
100
AcDbBlockBegin
  2
BLKF106
 70
     0
 71
     0
 10
0.0
 20
0.0
 30
0.0
  3
BLKF106
  1

  0
LINE
  5
68C
330
688
100
AcDbEntity
  8
GR1-1
  6
CONTINUOUS
 62
     2
100
AcDbLine
 10
795.210944
 20
85.860101
 30
0.0
 11
795.210944
 21
89.127091
 31
0.0
  0
LINE
  5
68D
330
688
100
AcDbEntity
  8
GR1-1
  6
CONTINUOUS
 62
     2
100
AcDbLine
 10
794.210944
 20
85.860101
 30
0.0
 11
794.210944
 21
89.127091
 31
0.0
  0
LINE
  5
68E
330
688
100
AcDbEntity
  8
GR1-1
  6
CONTINUOUS
 62
     2
100
AcDbLine
 10
795.990944
 20
88.527091
 30
0.0
 11
796.770944
 21
88.527091
 31
0.0
  0
LINE
  5
68F
330
688
100
AcDbEntity
  8
GR1-1
  6
CONTINUOUS
 62
     2
100
AcDbLine
 10
793.430944
 20
88.527091
 30
0.0
 11
792.650944
 21
88.527091
 31
0.0
  0
TEXT
  5
690
330
688
100
AcDbEntity
  8
GR1-1
  6
CONTINUOUS
 62
     4
100
AcDbText
 10
791.87
 20
88.992168
 30
0.0
 40
1.5
  1
50
 41
0.7
  7
FX_VECTOR
 72
     5
 11
793.97
 21
88.992168
 31
0.0
100
AcDbText
  0
LINE
  5
691
330
688
100
AcDbEntity
  8
GR1-1
  6
CONTINUOUS
 62
     2
100
AcDbLine
 10
795.990944
 20
88.657091
 30
0.0
 11
795.990944
 21
88.397091
 31
0.0
  0
LINE
  5
692
330
688
100
AcDbEntity
  8
GR1-1
  6
CONTINUOUS
 62
     2
100
AcDbLine
 10
795.990944
 20
88.397091
 30
0.0
 11
795.210944
 21
88.527091
 31
0.0
  0
LINE
  5
693
330
688
100
AcDbEntity
  8
GR1-1
  6
CONTINUOUS
 62
     2
100
AcDbLine
 10
795.210944
 20
88.527091
 30
0.0
 11
795.990944
 21
88.657091
 31
0.0
  0
LINE
  5
694
330
688
100
AcDbEntity
  8
GR1-1
  6
CONTINUOUS
 62
     2
100
AcDbLine
 10
793.430944
 20
88.657091
 30
0.0
 11
793.430944
 21
88.397091
 31
0.0
  0
LINE
  5
695
330
688
100
AcDbEntity
  8
GR1-1
  6
CONTINUOUS
 62
     2
100
AcDbLine
 10
793.430944
 20
88.397091
 30
0.0
 11
794.210944
 21
88.527091
 31
0.0
  0
LINE
  5
696
330
688
100
AcDbEntity
  8
GR1-1
  6
CONTINUOUS
 62
     2
100
AcDbLine
 10
794.210944
 20
88.527091
 30
0.0
 11
793.430944
 21
88.657091
 31
0.0
  0
ENDBLK
  5
68A
330
688
100
AcDbEntity
  8
0
100
AcDbBlockEnd
  0
BLOCK
  5
69B
330
69A
100
AcDbEntity
  8
0
100
AcDbBlockBegin
  2
BLKF107
 70
     0
 71
     0
 10
0.0
 20
0.0
 30
0.0
  3
BLKF107
  1

  0
LINE
  5
69E
330
69A
100
AcDbEntity
  8
GR1-1
  6
CONTINUOUS
 62
     2
100
AcDbLine
 10
733.383883
 20
143.076727
 30
0.0
 11
745.523883
 21
143.076727
 31
0.0
  0
LINE
  5
69F
330
69A
100
AcDbEntity
  8
GR1-1
  6
CONTINUOUS
 62
     2
100
AcDbLine
 10
745.523883
 20
143.076727
 30
0.0
 11
745.523883
 21
129.140407
 31
0.0
  0
LINE
  5
6A0
330
69A
100
AcDbEntity
  8
GR1-1
  6
CONTINUOUS
 62
     2
100
AcDbLine
 10
745.523883
 20
129.140407
 30
0.0
 11
733.383883
 21
129.140407
 31
0.0
  0
LINE
  5
6A1
330
69A
100
AcDbEntity
  8
GR1-1
  6
CONTINUOUS
 62
     2
100
AcDbLine
 10
733.383883
 20
129.140407
 30
0.0
 11
733.383883
 21
143.076727
 31
0.0
  0
ENDBLK
  5
69C
330
69A
100
AcDbEntity
  8
0
100
AcDbBlockEnd
  0
BLOCK
  5
6E2
330
6E1
100
AcDbEntity
  8
0
100
AcDbBlockBegin
  2
BLKF108
 70
     0
 71
     0
 10
0.0
 20
0.0
 30
0.0
  3
BLKF108
  1

  0
LINE
  5
6E5
330
6E1
100
AcDbEntity
  8
GR1-1
  6
CONTINUOUS
 62
     2
100
AcDbLine
 10
814.132986
 20
128.938301
 30
0.0
 11
815.255217
 21
123.753452
 31
0.0
  0
INSERT
  5
6E6
330
6E1
100
AcDbEntity
  8
GR1-1
  6
CONTINUOUS
 62
     2
100
AcDbBlockReference
  2
FXTIP_ARROW_S
 10
814.132986
 20
128.938301
 30
0.0
 41
2.0
 42
2.0
 50
102.212955
  0
LINE
  5
6E7
330
6E1
100
AcDbEntity
  8
GR1-1
  6
CONTINUOUS
 62
     2
100
AcDbLine
 10
815.255217
 20
123.753452
 30
0.0
 11
817.805217
 21
123.753452
 31
0.0
  0
TEXT
  5
6E8
330
6E1
100
AcDbEntity
  8
GR1-1
  6
CONTINUOUS
 62
     4
100
AcDbText
 10
816.635234
 20
124.353457
 30
0.0
 40
1.5
  1
9C
 41
0.7
  7
FX_VECTOR
 72
     5
 11
818.735234
 21
124.353457
 31
0.0
100
AcDbText
  0
ENDBLK
  5
6E3
330
6E1
100
AcDbEntity
  8
0
100
AcDbBlockEnd
  0
BLOCK
  5
6EA
330
6E9
100
AcDbEntity
  8
0
100
AcDbBlockBegin
  2
BLKF109
 70
     0
 71
     0
 10
0.0
 20
0.0
 30
0.0
  3
BLKF109
  1

  0
LINE
  5
6ED
330
6E9
100
AcDbEntity
  8
GR1-1
  6
CONTINUOUS
 62
     2
100
AcDbLine
 10
812.08924
 20
138.907778
 30
0.0
 11
810.595169
 21
135.846878
 31
0.0
  0
INSERT
  5
6EE
330
6E9
100
AcDbEntity
  8
GR1-1
  6
CONTINUOUS
 62
     2
100
AcDbBlockReference
  2
FXTIP_ARROW_S
 10
812.08924
 20
138.907778
 30
0.0
 41
2.0
 42
2.0
 50
63.982318
  0
LINE
  5
6EF
330
6E9
100
AcDbEntity
  8
GR1-1
  6
CONTINUOUS
 62
     2
100
AcDbLine
 10
810.595169
 20
135.846878
 30
0.0
 11
807.045169
 21
135.846878
 31
0.0
  0
TEXT
  5
6F0
330
6E9
100
AcDbEntity
  8
GR1-1
  6
CONTINUOUS
 62
     4
100
AcDbText
 10
806.065156
 20
136.446875
 30
0.0
 40
1.5
  1
R30
 41
0.7
  7
FX_VECTOR
 72
     5
 11
809.215156
 21
136.446875
 31
0.0
100
AcDbText
  0
ENDBLK
  5
6EB
330
6E9
100
AcDbEntity
  8
0
100
AcDbBlockEnd
  0
BLOCK
  5
6FE
330
6FD
100
AcDbEntity
  8
0
100
AcDbBlockBegin
  2
BLKF110
 70
     0
 71
     0
 10
0.0
 20
0.0
 30
0.0
  3
BLKF110
  1

  0
LINE
  5
701
330
6FD
100
AcDbEntity
  8
GR1-1
  6
CONTINUOUS
 62
     2
100
AcDbLine
 10
821.288403
 20
143.249136
 30
0.0
 11
823.174093
 21
145.984667
 31
0.0
  0
INSERT
  5
702
330
6FD
100
AcDbEntity
  8
GR1-1
  6
CONTINUOUS
 62
     2
100
AcDbBlockReference
  2
FXTIP_ARROW_S
 10
821.288403
 20
143.249136
 30
0.0
 41
2.0
 42
2.0
 50
235.420243
  0
LINE
  5
703
330
6FD
100
AcDbEntity
  8
GR1-1
  6
CONTINUOUS
 62
     2
100
AcDbLine
 10
823.174093
 20
145.984667
 30
0.0
 11
825.724093
 21
145.984667
 31
0.0
  0
TEXT
  5
704
330
6FD
100
AcDbEntity
  8
GR1-1
  6
CONTINUOUS
 62
     4
100
AcDbText
 10
824.554062
 20
146.584648
 30
0.0
 40
1.5
  1
9C
 41
0.7
  7
FX_VECTOR
 72
     5
 11
826.654063
 21
146.584648
 31
0.0
100
AcDbText
  0
ENDBLK
  5
6FF
330
6FD
100
AcDbEntity
  8
0
100
AcDbBlockEnd
  0
ENDSEC
  0
SECTION
  2
ENTITIES
  0
LINE
  5
A7
330
1F
100
AcDbEntity
  8
GR1-1
  6
極太の実線
 62
     3
100
AcDbLine
 10
915.845963
 20
234.360363
 30
0.0
 11
638.845974
 21
234.360363
 31
0.0
  0
LINE
  5
A8
330
1F
100
AcDbEntity
  8
GR1-1
  6
極太の実線
 62
     3
100
AcDbLine
 10
638.845974
 20
234.360363
 30
0.0
 11
638.845958
 21
44.360363
 31
0.0
  0
LINE
  5
A9
330
1F
100
AcDbEntity
  8
GR1-1
  6
極太の実線
 62
     3
100
AcDbLine
 10
638.845958
 20
44.360363
 30
0.0
 11
915.845958
 21
44.360363
 31
0.0
  0
LINE
  5
AA
330
1F
100
AcDbEntity
  8
GR1-1
  6
極太の実線
 62
     3
100
AcDbLine
 10
915.845958
 20
44.360363
 30
0.0
 11
915.845963
 21
234.360363
 31
0.0
  0
LINE
  5
AB
330
1F
100
AcDbEntity
  8
GR1-1
  6
極太の実線
 62
     3
100
AcDbLine
 10
914.845963
 20
233.360363
 30
0.0
 11
639.845974
 21
233.360363
 31
0.0
  0
LINE
  5
AC
330
1F
100
AcDbEntity
  8
GR1-1
  6
極太の実線
 62
     3
100
AcDbLine
 10
639.845974
 20
233.360363
 30
0.0
 11
639.845958
 21
45.360363
 31
0.0
  0
LINE
  5
AD
330
1F
100
AcDbEntity
  8
GR1-1
  6
極太の実線
 62
     3
100
AcDbLine
 10
639.845958
 20
45.360363
 30
0.0
 11
914.845958
 21
45.360363
 31
0.0
  0
LINE
  5
AE
330
1F
100
AcDbEntity
  8
GR1-1
  6
極太の実線
 62
     3
100
AcDbLine
 10
914.845958
 20
45.360363
 30
0.0
 11
914.845963
 21
233.360363
 31
0.0
  0
LINE
  5
B0
330
1F
100
AcDbEntity
  8
GR1-1
  6
太い実線
 62
     4
100
AcDbLine
 10
836.793212
 20
66.861168
 30
0.0
 11
911.793237
 21
66.861168
 31
0.0
  0
LINE
  5
B1
330
1F
100
AcDbEntity
  8
GR1-1
  6
太い実線
 62
     4
100
AcDbLine
 10
911.793237
 20
60.861168
 30
0.0
 11
836.793212
 21
60.861168
 31
0.0
  0
LINE
  5
B2
330
1F
100
AcDbEntity
  8
GR1-1
  6
太い実線
 62
     4
100
AcDbLine
 10
836.793212
 20
54.861172
 30
0.0
 11
911.793237
 21
54.861172
 31
0.0
  0
LINE
  5
B3
330
1F
100
AcDbEntity
  8
GR1-1
  6
太い実線
 62
     4
100
AcDbLine
 10
836.793212
 20
48.86117
 30
0.0
 11
836.793212
 21
66.861168
 31
0.0
  0
LINE
  5
B4
330
1F
100
AcDbEntity
  8
GR1-1
  6
太い実線
 62
     4
100
AcDbLine
 10
851.793212
 20
66.861168
 30
0.0
 11
851.793212
 21
54.861172
 31
0.0
  0
LINE
  5
B5
330
1F
100
AcDbEntity
  8
GR1-1
  6
太い実線
 62
     4
100
AcDbLine
 10
874.293224
 20
54.861172
 30
0.0
 11
874.293224
 21
60.861168
 31
0.0
  0
TEXT
  5
B7
330
1F
100
AcDbEntity
  8
GR1-1
  6
細い実線
 62
     7
100
AcDbText
 10
841.743281
 20
61.932607
 30
0.0
 40
3.5
  1
図名
 41
0.728571
  7
STYLE1
 72
     5
 11
846.843281
 21
61.932607
 31
0.0
100
AcDbText
  0
TEXT
  5
B8
330
1F
100
AcDbEntity
  8
GR1-1
  6
細い実線
 62
     7
100
AcDbText
 10
841.743281
 20
55.90106
 30
0.0
 40
3.5
  1
尺度
 41
0.728571
  7
STYLE1
 72
     5
 11
846.843281
 21
55.90106
 31
0.0
100
AcDbText
  0
TEXT
  5
B9
330
1F
100
AcDbEntity
  8
GR1-1
  6
細い実線
 62
     7
100
AcDbText
 10
876.443281
 20
55.90106
 30
0.0
 40
3.5
  1
参考重量
 41
0.764286
  7
STYLE1
 72
     5
 11
887.143281
 21
55.90106
 31
0.0
100
AcDbText
  0
TEXT
  5
BA
330
1F
100
AcDbEntity
  8
GR1-1
  6
細い実線
 62
     7
100
AcDbText
 10
854.943281
 20
49.869507
 30
0.0
 40
3.5
  1
小倉セメント製品工業株式会社
 41
0.789796
  7
STYLE1
 72
     5
 11
893.643281
 21
49.869507
 31
0.0
100
AcDbText
  0
LINE
  5
BB
330
1F
100
AcDbEntity
  8
GR1-1
  6
太い実線
 62
     4
100
AcDbLine
 10
889.293273
 20
60.861168
 30
0.0
 11
889.293273
 21
54.861172
 31
0.0
  0
TEXT
  5
BC
330
1F
100
AcDbEntity
  8
GR1-1
  6
細い実線
 62
     7
100
AcDbText
 10
858.443281
 20
56.064072
 30
0.0
 40
3.5
  1
1/50
 41
0.657143
  7
STYLE1
 72
     5
 11
867.643281
 21
56.064072
 31
0.0
100
AcDbText
  0
TEXT
  5
BD
330
1F
100
AcDbEntity
  8
GR1-1
  6
細い実線
 62
     7
100
AcDbText
 10
892.451875
 20
55.90106
 30
0.0
 40
3.5
  1
455　ｋｇ
 41
0.657143
  7
STYLE1
 72
     5
 11
906.251875
 21
55.90106
 31
0.0
100
AcDbText
  0
TEXT
  5
BE
330
1F
100
AcDbEntity
  8
GR1-1
  6
細い実線
 62
     7
100
AcDbText
 10
860.225312
 20
61.858872
 30
0.0
 40
3.5
  1
KP大型ブロック　1250B　（高擁壁用）
 41
0.657143
  7
STYLE1
 72
     5
 11
908.525312
 21
61.858872
 31
0.0
100
AcDbText
  0
LINE
  5
BF
330
1F
100
AcDbEntity
  8
GR1-1
  6
太い実線
 62
     4
100
AcDbLine
 10
911.793237
 20
66.861168
 30
0.0
 11
911.793237
 21
48.86117
 31
0.0
  0
LINE
  5
C0
330
1F
100
AcDbEntity
  8
GR1-1
  6
太い実線
 62
     4
100
AcDbLine
 10
836.793212
 20
48.86117
 30
0.0
 11
911.793237
 21
48.86117
 31
0.0
  0
LINE
  5
C1
330
1F
100
AcDbEntity
  8
GR1-1
  6
細い実線
 62
     4
100
AcDbLine
 10
687.809131
 20
212.320298
 30
0.0
 11
686.05119
 21
212.320298
 31
0.0
  0
LINE
  5
C2
330
1F
100
AcDbEntity
  8
GR1-1
  6
細い実線
 62
     4
100
AcDbLine
 10
683.05119
 20
212.320298
 30
0.0
 11
680.899414
 21
212.320298
 31
0.0
  0
LINE
  5
C3
330
1F
100
AcDbEntity
  8
GR1-1
  6
細い実線
 62
     4
100
AcDbLine
 10
685.75119
 20
213.040298
 30
0.0
 11
686.05119
 21
212.320298
 31
0.0
  0
LINE
  5
C4
330
1F
100
AcDbEntity
  8
GR1-1
  6
細い実線
 62
     4
100
AcDbLine
 10
683.05119
 20
212.320298
 30
0.0
 11
683.35119
 21
213.040298
 31
0.0
  0
LINE
  5
C5
330
1F
100
AcDbEntity
  8
GR1-1
  6
細い実線
 62
     4
100
AcDbLine
 10
683.35119
 20
213.040298
 30
0.0
 11
685.75119
 21
213.040298
 31
0.0
  0
TEXT
  5
C6
330
1F
100
AcDbEntity
  8
GR1-1
  6
細い実線
 62
     4
100
AcDbText
 10
681.133281
 20
218.365313
 30
0.0
 40
2.0
  1
 バール挿入孔詳細 
 41
0.812
  7
FX_VECTOR
 72
     5
 11
697.373281
 21
218.365313
 31
0.0
100
AcDbText
  0
LINE
  5
C7
330
1F
100
AcDbEntity
  8
GR1-1
  6
細い実線
 62
     4
100
AcDbLine
 10
681.133298
 20
218.16532
 30
0.0
 11
697.373298
 21
218.16532
 31
0.0
  0
LINE
  5
C8
330
1F
100
AcDbEntity
  8
GR1-1
  6
細い実線
 62
     4
100
AcDbLine
 10
693.501493
 20
213.040298
 30
0.0
 11
695.901493
 21
213.040298
 31
0.0
  0
LINE
  5
C9
330
1F
100
AcDbEntity
  8
GR1-1
  6
細い実線
 62
     4
100
AcDbLine
 10
693.201493
 20
212.320298
 30
0.0
 11
693.501493
 21
213.040298
 31
0.0
  0
LINE
  5
CA
330
1F
100
AcDbEntity
  8
GR1-1
  6
細い実線
 62
     4
100
AcDbLine
 10
695.901493
 20
213.040298
 30
0.0
 11
695.901493
 21
215.563275
 31
0.0
  0
LINE
  5
CB
330
1F
100
AcDbEntity
  8
GR1-1
  6
細い実線
 62
     4
100
AcDbLine
 10
693.201493
 20
212.320298
 30
0.0
 11
691.443552
 21
212.320298
 31
0.0
  0
LINE
  5
CD
330
1F
100
AcDbEntity
  8
GR1-1
  6
020-1-CENTER2
 62
     2
100
AcDbLine
 10
697.967263
 20
186.775751
 30
0.0
 11
697.967263
 21
175.813266
 31
0.0
  0
LINE
  5
CE
330
1F
100
AcDbEntity
  8
GR1-1
  6
細い実線
 62
     4
100
AcDbLine
 10
698.342263
 20
185.818822
 30
0.0
 11
698.867263
 21
182.818822
 31
0.0
  0
LINE
  5
CF
330
1F
100
AcDbEntity
  8
GR1-1
  6
細い実線
 62
     4
100
AcDbLine
 10
697.067263
 20
182.818822
 30
0.0
 11
697.592263
 21
185.818822
 31
0.0
  0
LINE
  5
D0
330
1F
100
AcDbEntity
  8
GR1-1
  6
細い実線
 62
     4
100
AcDbLine
 10
697.592263
 20
185.818822
 30
0.0
 11
698.342263
 21
185.818822
 31
0.0
  0
LINE
  5
D1
330
1F
100
AcDbEntity
  8
GR1-1
  6
細い実線
 62
     4
100
AcDbLine
 10
698.867263
 20
182.818822
 30
0.0
 11
699.756589
 21
182.818822
 31
0.0
  0
LINE
  5
D2
330
1F
100
AcDbEntity
  8
GR1-1
  6
細い実線
 62
     4
100
AcDbLine
 10
697.067263
 20
182.818822
 30
0.0
 11
696.177937
 21
182.818822
 31
0.0
  0
LINE
  5
D3
330
1F
100
AcDbEntity
  8
GR1-1
  6
020-1-CENTER2
 62
     2
100
AcDbLine
 10
680.763387
 20
177.94933
 30
0.0
 11
680.763387
 21
186.574601
 31
0.0
  0
LINE
  5
D4
330
1F
100
AcDbEntity
  8
GR1-1
  6
細い実線
 62
     4
100
AcDbLine
 10
681.663387
 20
182.603677
 30
0.0
 11
681.138387
 21
179.603677
 31
0.0
  0
LINE
  5
D5
330
1F
100
AcDbEntity
  8
GR1-1
  6
細い実線
 62
     4
100
AcDbLine
 10
680.388387
 20
179.603677
 30
0.0
 11
679.863387
 21
182.603677
 31
0.0
  0
LINE
  5
D6
330
1F
100
AcDbEntity
  8
GR1-1
  6
細い実線
 62
     4
100
AcDbLine
 10
681.138387
 20
179.603677
 30
0.0
 11
680.388387
 21
179.603677
 31
0.0
  0
LINE
  5
D7
330
1F
100
AcDbEntity
  8
GR1-1
  6
細い実線
 62
     4
100
AcDbLine
 10
679.863387
 20
182.603677
 30
0.0
 11
678.974061
 21
182.603677
 31
0.0
  0
LINE
  5
D8
330
1F
100
AcDbEntity
  8
GR1-1
  6
細い実線
 62
     4
100
AcDbLine
 10
681.663387
 20
182.603677
 30
0.0
 11
682.552713
 21
182.603677
 31
0.0
  0
LINE
  5
D9
330
1F
100
AcDbEntity
  8
GR1-1
  6
020-1-CENTER2
 62
     2
100
AcDbLine
 10
679.613078
 20
185.424292
 30
0.0
 11
681.913696
 21
185.424292
 31
0.0
  0
CIRCLE
  5
DA
330
1F
100
AcDbEntity
  8
GR1-1
  6
細い実線
 62
     4
100
AcDbCircle
 10
680.763387
 20
185.424292
 30
0.0
 40
0.9
  0
CIRCLE
  5
DB
330
1F
100
AcDbEntity
  8
GR1-1
  6
細い実線
 62
     4
100
AcDbCircle
 10
680.763387
 20
185.424292
 30
0.0
 40
0.375
  0
INSERT
  5
DF
330
1F
100
AcDbEntity
  8
0
100
AcDbBlockReference
  2
BLKF021
 10
0.0
 20
0.0
 30
0.0
  0
INSERT
  5
EE
330
1F
100
AcDbEntity
  8
0
100
AcDbBlockReference
  2
BLKF022
 10
0.0
 20
0.0
 30
0.0
  0
TEXT
  5
FA
330
1F
100
AcDbEntity
  8
GR1-1
  6
細い実線
 62
     4
100
AcDbText
 10
681.300547
 20
197.866719
 30
0.0
 40
2.0
  1
 ガイドピン孔詳細 
 41
0.812
  7
FX_VECTOR
 72
     5
 11
697.540546
 21
197.866719
 31
0.0
100
AcDbText
  0
LINE
  5
FB
330
1F
100
AcDbEntity
  8
GR1-1
  6
細い実線
 62
     4
100
AcDbLine
 10
681.300599
 20
197.666711
 30
0.0
 11
697.540599
 21
197.666711
 31
0.0
  0
TEXT
  5
FC
330
1F
100
AcDbEntity
  8
GR1-1
  6
細い実線
 62
     4
100
AcDbText
 10
679.612188
 20
193.656523
 30
0.0
 40
1.4
  1
上部
 41
0.84
  7
FX_VECTOR
 72
     5
 11
681.964187
 21
193.656523
 31
0.0
100
AcDbText
  0
LINE
  5
FD
330
1F
100
AcDbEntity
  8
GR1-1
  6
細い実線
 62
     4
100
AcDbLine
 10
679.612239
 20
193.516531
 30
0.0
 11
681.964239
 21
193.516531
 31
0.0
  0
INSERT
  5
101
330
1F
100
AcDbEntity
  8
0
100
AcDbBlockReference
  2
BLKF023
 10
0.0
 20
0.0
 30
0.0
  0
INSERT
  5
110
330
1F
100
AcDbEntity
  8
0
100
AcDbBlockReference
  2
BLKF024
 10
0.0
 20
0.0
 30
0.0
  0
INSERT
  5
118
330
1F
100
AcDbEntity
  8
0
100
AcDbBlockReference
  2
BLKF025
 10
0.0
 20
0.0
 30
0.0
  0
LINE
  5
11D
330
1F
100
AcDbEntity
  8
GR1-1
  6
細い実線
 62
     4
100
AcDbLine
 10
697.067263
 20
181.261561
 30
0.0
 11
697.592263
 21
180.661561
 31
0.0
  0
LINE
  5
11E
330
1F
100
AcDbEntity
  8
GR1-1
  6
細い実線
 62
     4
100
AcDbLine
 10
698.342263
 20
180.661561
 30
0.0
 11
698.867263
 21
181.261561
 31
0.0
  0
LINE
  5
11F
330
1F
100
AcDbEntity
  8
GR1-1
  6
細い実線
 62
     4
100
AcDbLine
 10
698.342263
 20
178.561561
 30
0.0
 11
698.867263
 21
177.961561
 31
0.0
  0
LINE
  5
120
330
1F
100
AcDbEntity
  8
GR1-1
  6
細い実線
 62
     4
100
AcDbLine
 10
697.592263
 20
178.561561
 30
0.0
 11
697.067263
 21
177.961561
 31
0.0
  0
INSERT
  5
124
330
1F
100
AcDbEntity
  8
0
100
AcDbBlockReference
  2
BLKF026
 10
0.0
 20
0.0
 30
0.0
  0
INSERT
  5
133
330
1F
100
AcDbEntity
  8
0
100
AcDbBlockReference
  2
BLKF027
 10
0.0
 20
0.0
 30
0.0
  0
INSERT
  5
142
330
1F
100
AcDbEntity
  8
0
100
AcDbBlockReference
  2
BLKF028
 10
0.0
 20
0.0
 30
0.0
  0
INSERT
  5
151
330
1F
100
AcDbEntity
  8
0
100
AcDbBlockReference
  2
BLKF029
 10
0.0
 20
0.0
 30
0.0
  0
INSERT
  5
160
330
1F
100
AcDbEntity
  8
0
100
AcDbBlockReference
  2
BLKF030
 10
0.0
 20
0.0
 30
0.0
  0
INSERT
  5
16F
330
1F
100
AcDbEntity
  8
0
100
AcDbBlockReference
  2
BLKF031
 10
0.0
 20
0.0
 30
0.0
  0
INSERT
  5
17E
330
1F
100
AcDbEntity
  8
0
100
AcDbBlockReference
  2
BLKF032
 10
0.0
 20
0.0
 30
0.0
  0
INSERT
  5
18D
330
1F
100
AcDbEntity
  8
0
100
AcDbBlockReference
  2
BLKF033
 10
0.0
 20
0.0
 30
0.0
  0
INSERT
  5
19B
330
1F
100
AcDbEntity
  8
0
100
AcDbBlockReference
  2
BLKF034
 10
0.0
 20
0.0
 30
0.0
  0
TEXT
  5
1A6
330
1F
100
AcDbEntity
  8
GR1-1
  6
細い実線
 62
     4
100
AcDbText
 10
696.797734
 20
193.597578
 30
0.0
 40
1.4
  1
下部
 41
0.84
  7
FX_VECTOR
 72
     5
 11
699.149734
 21
193.597578
 31
0.0
100
AcDbText
  0
LINE
  5
1A7
330
1F
100
AcDbEntity
  8
GR1-1
  6
細い実線
 62
     4
100
AcDbLine
 10
696.797727
 20
193.457578
 30
0.0
 11
699.149727
 21
193.457578
 31
0.0
  0
INSERT
  5
1AB
330
1F
100
AcDbEntity
  8
0
100
AcDbBlockReference
  2
BLKF035
 10
0.0
 20
0.0
 30
0.0
  0
INSERT
  5
1B9
330
1F
100
AcDbEntity
  8
0
100
AcDbBlockReference
  2
BLKF036
 10
0.0
 20
0.0
 30
0.0
  0
INSERT
  5
1C8
330
1F
100
AcDbEntity
  8
0
100
AcDbBlockReference
  2
BLKF037
 10
0.0
 20
0.0
 30
0.0
  0
INSERT
  5
1D7
330
1F
100
AcDbEntity
  8
0
100
AcDbBlockReference
  2
BLKF038
 10
0.0
 20
0.0
 30
0.0
  0
INSERT
  5
1E6
330
1F
100
AcDbEntity
  8
0
100
AcDbBlockReference
  2
BLKF039
 10
0.0
 20
0.0
 30
0.0
  0
INSERT
  5
1F5
330
1F
100
AcDbEntity
  8
0
100
AcDbBlockReference
  2
BLKF040
 10
0.0
 20
0.0
 30
0.0
  0
INSERT
  5
204
330
1F
100
AcDbEntity
  8
0
100
AcDbBlockReference
  2
BLKF041
 10
0.0
 20
0.0
 30
0.0
  0
INSERT
  5
213
330
1F
100
AcDbEntity
  8
0
100
AcDbBlockReference
  2
BLKF042
 10
0.0
 20
0.0
 30
0.0
  0
INSERT
  5
221
330
1F
100
AcDbEntity
  8
0
100
AcDbBlockReference
  2
BLKF043
 10
0.0
 20
0.0
 30
0.0
  0
TEXT
  5
22D
330
1F
100
AcDbEntity
  8
GR1-1
  6
細い実線
 62
     4
100
AcDbText
 10
697.57875
 20
218.732715
 30
0.0
 40
1.4
  1
(S=1/10)
 41
0.566125
  7
FX_VECTOR
 72
     5
 11
703.91935
 21
218.732715
 31
0.0
100
AcDbText
  0
TEXT
  5
22E
330
1F
100
AcDbEntity
  8
GR1-1
  6
細い実線
 62
     4
100
AcDbText
 10
697.769297
 20
198.234102
 30
0.0
 40
1.4
  1
(S=1/10)
 41
0.566125
  7
FX_VECTOR
 72
     5
 11
704.109897
 21
198.234102
 31
0.0
100
AcDbText
  0
LINE
  5
22F
330
1F
100
AcDbEntity
  8
GR1-1
  6
CONTINUOUS
 62
     4
100
AcDbLine
 10
745.653883
 20
201.69446
 30
0.0
 11
745.653883
 21
193.085598
 31
0.0
  0
LINE
  5
230
330
1F
100
AcDbEntity
  8
GR1-1
  6
CONTINUOUS
 62
     4
100
AcDbLine
 10
733.253883
 20
201.69446
 30
0.0
 11
733.253883
 21
193.085598
 31
0.0
  0
LINE
  5
231
330
1F
100
AcDbEntity
  8
GR1-1
  6
CONTINUOUS
 62
     4
100
AcDbLine
 10
733.203883
 20
166.598022
 30
0.0
 11
745.703883
 21
166.598022
 31
0.0
  0
LINE
  5
232
330
1F
100
AcDbEntity
  8
GR1-1
  6
CONTINUOUS
 62
     4
100
AcDbLine
 10
733.203883
 20
173.75344
 30
0.0
 11
745.703883
 21
173.75344
 31
0.0
  0
LINE
  5
233
330
1F
100
AcDbEntity
  8
GR1-1
  6
CONTINUOUS
 62
     4
100
AcDbLine
 10
786.182136
 20
128.938301
 30
0.0
 11
787.411973
 21
131.397976
 31
0.0
  0
LINE
  5
234
330
1F
100
AcDbEntity
  8
GR1-1
  6
CONTINUOUS
 62
     4
100
AcDbLine
 10
814.132986
 20
128.938301
 30
0.0
 11
821.288403
 21
143.249136
 31
0.0
  0
LINE
  5
235
330
1F
100
AcDbEntity
  8
GR1-1
  6
CONTINUOUS
 62
     4
100
AcDbLine
 10
733.253883
 20
201.69446
 30
0.0
 11
745.653883
 21
201.69446
 31
0.0
  0
LINE
  5
236
330
1F
100
AcDbEntity
  8
GR1-1
  6
CONTINUOUS
 62
     4
100
AcDbLine
 10
812.679541
 20
128.938301
 30
0.0
 11
814.446035
 21
132.471289
 31
0.0
  0
LINE
  5
237
330
1F
100
AcDbEntity
  8
GR1-1
  6
CONTINUOUS
 62
     4
100
AcDbLine
 10
787.63558
 20
128.938301
 30
0.0
 11
788.574729
 21
130.816598
 31
0.0
  0
LINE
  5
238
330
1F
100
AcDbEntity
  8
GR1-1
  6
CONTINUOUS
 62
     4
100
AcDbLine
 10
788.753614
 20
128.938301
 30
0.0
 11
795.909032
 21
143.249136
 31
0.0
  0
LINE
  5
239
330
1F
100
AcDbEntity
  8
GR1-1
  6
CONTINUOUS
 62
     4
100
AcDbLine
 10
789.200828
 20
128.938301
 30
0.0
 11
796.356245
 21
143.249136
 31
0.0
  0
LINE
  5
23A
330
1F
100
AcDbEntity
  8
GR1-1
  6
CONTINUOUS
 62
     4
100
AcDbLine
 10
811.561507
 20
128.938301
 30
0.0
 11
818.716925
 21
143.249136
 31
0.0
  0
LINE
  5
23B
330
1F
100
AcDbEntity
  8
GR1-1
  6
CONTINUOUS
 62
     4
100
AcDbLine
 10
811.114294
 20
128.938301
 30
0.0
 11
818.269711
 21
143.249136
 31
0.0
  0
LINE
  5
23C
330
1F
100
AcDbEntity
  8
GR1-1
  6
CONTINUOUS
 62
     4
100
AcDbLine
 10
793.337553
 20
143.249136
 30
0.0
 11
821.288403
 21
143.249136
 31
0.0
  0
LINE
  5
23D
330
1F
100
AcDbEntity
  8
GR1-1
  6
CONTINUOUS
 62
     4
100
AcDbLine
 10
786.182136
 20
128.938301
 30
0.0
 11
814.132986
 21
128.938301
 31
0.0
  0
LINE
  5
23E
330
1F
100
AcDbEntity
  8
GR1-1
  6
CONTINUOUS
 62
     4
100
AcDbLine
 10
788.932499
 20
134.439028
 30
0.0
 11
793.337553
 21
143.249136
 31
0.0
  0
LINE
  5
23F
330
1F
100
AcDbEntity
  8
GR1-1
  6
CONTINUOUS
 62
     8
100
AcDbLine
 10
791.261741
 20
139.090752
 30
0.0
 11
790.814166
 21
139.370343
 31
0.0
  0
LINE
  5
240
330
1F
100
AcDbEntity
  8
GR1-1
  6
CONTINUOUS
 62
     8
100
AcDbLine
 10
790.698724
 20
139.323169
 30
0.0
 11
790.986523
 21
139.138616
 31
0.0
  0
LINE
  5
241
330
1F
100
AcDbEntity
  8
GR1-1
  6
CONTINUOUS
 62
     8
100
AcDbLine
 10
786.663385
 20
131.401446
 30
0.0
 11
787.438891
 21
133.091218
 31
0.0
  0
LINE
  5
242
330
1F
100
AcDbEntity
  8
GR1-1
  6
CONTINUOUS
 62
     2
100
AcDbLine
 10
787.233088
 20
131.487419
 30
0.0
 11
788.574729
 21
130.816598
 31
0.0
  0
LINE
  5
243
330
1F
100
AcDbEntity
  8
GR1-1
  6
CONTINUOUS
 62
     8
100
AcDbLine
 10
786.403341
 20
130.998532
 30
0.0
 11
786.663385
 21
131.401446
 31
0.0
  0
LINE
  5
244
330
1F
100
AcDbEntity
  8
GR1-1
  6
CONTINUOUS
 62
     8
100
AcDbLine
 10
785.960238
 20
130.0892
 30
0.0
 11
786.287811
 21
130.614325
 31
0.0
  0
LINE
  5
245
330
1F
100
AcDbEntity
  8
GR1-1
  6
CONTINUOUS
 62
     8
100
AcDbLine
 10
785.944718
 20
129.733875
 30
0.0
 11
785.960238
 21
130.0892
 31
0.0
  0
LINE
  5
246
330
1F
100
AcDbEntity
  8
GR1-1
  6
CONTINUOUS
 62
     8
100
AcDbLine
 10
786.332009
 20
129.215946
 30
0.0
 11
785.944718
 21
129.733875
 31
0.0
  0
LINE
  5
247
330
1F
100
AcDbEntity
  8
GR1-1
  6
CONTINUOUS
 62
     8
100
AcDbLine
 10
786.287811
 20
130.614325
 30
0.0
 11
786.403341
 21
130.998532
 31
0.0
  0
LINE
  5
248
330
1F
100
AcDbEntity
  8
GR1-1
  6
CONTINUOUS
 62
     8
100
AcDbLine
 10
788.691215
 20
135.401088
 30
0.0
 11
789.424375
 21
136.885909
 31
0.0
  0
LINE
  5
249
330
1F
100
AcDbEntity
  8
GR1-1
  6
CONTINUOUS
 62
     8
100
AcDbLine
 10
788.132891
 20
134.375405
 30
0.0
 11
788.57733
 21
134.74625
 31
0.0
  0
LINE
  5
24A
330
1F
100
AcDbEntity
  8
GR1-1
  6
CONTINUOUS
 62
     8
100
AcDbLine
 10
787.982003
 20
134.029432
 30
0.0
 11
787.825258
 21
133.712858
 31
0.0
  0
LINE
  5
24B
330
1F
100
AcDbEntity
  8
GR1-1
  6
CONTINUOUS
 62
     8
100
AcDbLine
 10
787.438891
 20
133.091218
 30
0.0
 11
787.982003
 21
134.029432
 31
0.0
  0
LINE
  5
24C
330
1F
100
AcDbEntity
  8
GR1-1
  6
CONTINUOUS
 62
     8
100
AcDbLine
 10
787.825258
 20
133.712858
 30
0.0
 11
788.132891
 21
134.375405
 31
0.0
  0
LINE
  5
24D
330
1F
100
AcDbEntity
  8
GR1-1
  6
CONTINUOUS
 62
     8
100
AcDbLine
 10
788.522957
 20
134.979776
 30
0.0
 11
788.691215
 21
135.401088
 31
0.0
  0
LINE
  5
24E
330
1F
100
AcDbEntity
  8
GR1-1
  6
CONTINUOUS
 62
     8
100
AcDbLine
 10
788.508156
 20
134.89467
 30
0.0
 11
788.522957
 21
134.979776
 31
0.0
  0
LINE
  5
24F
330
1F
100
AcDbEntity
  8
GR1-1
  6
CONTINUOUS
 62
     8
100
AcDbLine
 10
788.938719
 20
134.63956
 30
0.0
 11
788.508156
 21
134.89467
 31
0.0
  0
LINE
  5
250
330
1F
100
AcDbEntity
  8
GR1-1
  6
CONTINUOUS
 62
     8
100
AcDbLine
 10
788.57733
 20
134.74625
 30
0.0
 11
788.938719
 21
134.63956
 31
0.0
  0
LINE
  5
251
330
1F
100
AcDbEntity
  8
GR1-1
  6
CONTINUOUS
 62
     8
100
AcDbLine
 10
790.213256
 20
138.569693
 30
0.0
 11
790.527058
 21
139.151273
 31
0.0
  0
LINE
  5
252
330
1F
100
AcDbEntity
  8
GR1-1
  6
CONTINUOUS
 62
     8
100
AcDbLine
 10
789.424375
 20
136.885909
 30
0.0
 11
789.733388
 21
137.649843
 31
0.0
  0
LINE
  5
253
330
1F
100
AcDbEntity
  8
GR1-1
  6
CONTINUOUS
 62
     8
100
AcDbLine
 10
789.944327
 20
138.04756
 30
0.0
 11
790.213256
 21
138.569693
 31
0.0
  0
LINE
  5
254
330
1F
100
AcDbEntity
  8
GR1-1
  6
CONTINUOUS
 62
     8
100
AcDbLine
 10
789.733388
 20
137.649843
 30
0.0
 11
789.944327
 21
138.04756
 31
0.0
  0
LINE
  5
255
330
1F
100
AcDbEntity
  8
GR1-1
  6
CONTINUOUS
 62
     8
100
AcDbLine
 10
790.527058
 20
139.151273
 30
0.0
 11
790.698724
 21
139.323169
 31
0.0
  0
LINE
  5
256
330
1F
100
AcDbEntity
  8
GR1-1
  6
CONTINUOUS
 62
     8
100
AcDbLine
 10
790.986523
 20
139.138616
 30
0.0
 11
791.228221
 21
139.096582
 31
0.0
  0
LINE
  5
257
330
1F
100
AcDbEntity
  8
GR1-1
  6
CONTINUOUS
 62
     8
100
AcDbLine
 10
790.743827
 20
139.58251
 30
0.0
 11
791.063151
 21
140.195846
 31
0.0
  0
LINE
  5
258
330
1F
100
AcDbEntity
  8
GR1-1
  6
CONTINUOUS
 62
     8
100
AcDbLine
 10
790.814166
 20
139.370343
 30
0.0
 11
790.743827
 21
139.58251
 31
0.0
  0
LINE
  5
259
330
1F
100
AcDbEntity
  8
GR1-1
  6
CONTINUOUS
 62
     8
100
AcDbLine
 10
792.124523
 20
142.421373
 30
0.0
 11
792.445918
 21
143.036166
 31
0.0
  0
LINE
  5
25A
330
1F
100
AcDbEntity
  8
GR1-1
  6
CONTINUOUS
 62
     8
100
AcDbLine
 10
791.926163
 20
141.886968
 30
0.0
 11
792.124523
 21
142.421373
 31
0.0
  0
LINE
  5
25B
330
1F
100
AcDbEntity
  8
GR1-1
  6
CONTINUOUS
 62
     8
100
AcDbLine
 10
791.354785
 20
140.848531
 30
0.0
 11
791.640589
 21
141.467696
 31
0.0
  0
LINE
  5
25C
330
1F
100
AcDbEntity
  8
GR1-1
  6
CONTINUOUS
 62
     8
100
AcDbLine
 10
791.063151
 20
140.195846
 30
0.0
 11
791.354785
 21
140.848531
 31
0.0
  0
LINE
  5
25D
330
1F
100
AcDbEntity
  8
GR1-1
  6
CONTINUOUS
 62
     8
100
AcDbLine
 10
791.640589
 20
141.467696
 30
0.0
 11
791.926163
 21
141.886968
 31
0.0
  0
LINE
  5
25E
330
1F
100
AcDbEntity
  8
GR1-1
  6
CONTINUOUS
 62
     8
100
AcDbLine
 10
792.823692
 20
143.170401
 30
0.0
 11
793.225167
 21
143.033328
 31
0.0
  0
LINE
  5
25F
330
1F
100
AcDbEntity
  8
GR1-1
  6
CONTINUOUS
 62
     8
100
AcDbLine
 10
792.570641
 20
143.147159
 30
0.0
 11
792.823692
 21
143.170401
 31
0.0
  0
LINE
  5
260
330
1F
100
AcDbEntity
  8
GR1-1
  6
CONTINUOUS
 62
     8
100
AcDbLine
 10
792.445918
 20
143.036166
 30
0.0
 11
792.570641
 21
143.147159
 31
0.0
  0
LINE
  5
261
330
1F
100
AcDbEntity
  8
GR1-1
  6
CONTINUOUS
 62
     4
100
AcDbLine
 10
790.095255
 20
133.857651
 30
0.0
 11
794.790998
 21
143.249136
 31
0.0
  0
TEXT
  5
262
330
1F
100
AcDbEntity
  8
GR1-1
  6
CONTINUOUS
 62
     4
100
AcDbText
 10
788.577266
 20
137.423477
 30
0.0
 40
1.5
  1
1:0.5
 50
63.0
 41
0.7
  7
FX_VECTOR
 72
     5
 11
790.960716
 21
142.101261
 31
0.0
100
AcDbText
  0
INSERT
  5
266
330
1F
100
AcDbEntity
  8
0
100
AcDbBlockReference
  2
BLKF044
 10
0.0
 20
0.0
 30
0.0
  0
INSERT
  5
275
330
1F
100
AcDbEntity
  8
0
100
AcDbBlockReference
  2
BLKF045
 10
0.0
 20
0.0
 30
0.0
  0
INSERT
  5
284
330
1F
100
AcDbEntity
  8
0
100
AcDbBlockReference
  2
BLKF046
 10
0.0
 20
0.0
 30
0.0
  0
INSERT
  5
293
330
1F
100
AcDbEntity
  8
0
100
AcDbBlockReference
  2
BLKF047
 10
0.0
 20
0.0
 30
0.0
  0
INSERT
  5
2A2
330
1F
100
AcDbEntity
  8
0
100
AcDbBlockReference
  2
BLKF048
 10
0.0
 20
0.0
 30
0.0
  0
INSERT
  5
2B1
330
1F
100
AcDbEntity
  8
0
100
AcDbBlockReference
  2
BLKF049
 10
0.0
 20
0.0
 30
0.0
  0
INSERT
  5
2C0
330
1F
100
AcDbEntity
  8
0
100
AcDbBlockReference
  2
BLKF050
 10
0.0
 20
0.0
 30
0.0
  0
INSERT
  5
2CE
330
1F
100
AcDbEntity
  8
0
100
AcDbBlockReference
  2
BLKF051
 10
0.0
 20
0.0
 30
0.0
  0
INSERT
  5
2DC
330
1F
100
AcDbEntity
  8
0
100
AcDbBlockReference
  2
BLKF052
 10
0.0
 20
0.0
 30
0.0
  0
INSERT
  5
2EB
330
1F
100
AcDbEntity
  8
0
100
AcDbBlockReference
  2
BLKF053
 10
0.0
 20
0.0
 30
0.0
  0
INSERT
  5
2F9
330
1F
100
AcDbEntity
  8
0
100
AcDbBlockReference
  2
BLKF054
 10
0.0
 20
0.0
 30
0.0
  0
TEXT
  5
305
330
1F
100
AcDbEntity
  8
GR1-1
  6
CONTINUOUS
 62
     4
100
AcDbText
 10
792.839844
 20
125.669648
 30
0.0
 40
1.2
  1
　水抜ハ゜イフ゜用　
 41
0.666667
  7
FX_VECTOR
 72
     5
 11
800.839844
 21
125.669648
 31
0.0
100
AcDbText
  0
TEXT
  5
306
330
1F
100
AcDbEntity
  8
GR1-1
  6
CONTINUOUS
 62
     4
100
AcDbText
 10
795.826406
 20
123.886758
 30
0.0
 40
1.2
  1
ノックアウト孔
 41
0.857143
  7
FX_VECTOR
 72
     5
 11
803.026406
 21
123.886758
 31
0.0
100
AcDbText
  0
INSERT
  5
30A
330
1F
100
AcDbEntity
  8
0
100
AcDbBlockReference
  2
BLKF055
 10
0.0
 20
0.0
 30
0.0
  0
LINE
  5
315
330
1F
100
AcDbEntity
  8
GR1-1
  6
CONTINUOUS
 62
     4
100
AcDbLine
 10
733.203883
 20
175.206884
 30
0.0
 11
733.203883
 21
166.598022
 31
0.0
  0
LINE
  5
316
330
1F
100
AcDbEntity
  8
GR1-1
  6
CONTINUOUS
 62
     4
100
AcDbLine
 10
745.703883
 20
175.206884
 30
0.0
 11
745.703883
 21
166.598022
 31
0.0
  0
LINE
  5
317
330
1F
100
AcDbEntity
  8
GR1-1
  6
CONTINUOUS
 62
     4
100
AcDbLine
 10
745.703883
 20
173.75344
 30
0.0
 11
733.203883
 21
173.75344
 31
0.0
  0
LINE
  5
318
330
1F
100
AcDbEntity
  8
GR1-1
  6
CONTINUOUS
 62
     4
100
AcDbLine
 10
737.453883
 20
198.722981
 30
0.0
 11
737.453883
 21
176.772132
 31
0.0
  0
LINE
  5
319
330
1F
100
AcDbEntity
  8
GR1-1
  6
CONTINUOUS
 62
     4
100
AcDbLine
 10
741.453883
 20
198.722981
 30
0.0
 11
741.453883
 21
176.772132
 31
0.0
  0
LINE
  5
31A
330
1F
100
AcDbEntity
  8
GR1-1
  6
CONTINUOUS
 62
     4
100
AcDbLine
 10
733.203883
 20
175.206884
 30
0.0
 11
737.053883
 21
176.324918
 31
0.0
  0
LINE
  5
31B
330
1F
100
AcDbEntity
  8
GR1-1
  6
CONTINUOUS
 62
     4
100
AcDbLine
 10
737.053883
 20
176.324918
 30
0.0
 11
737.453883
 21
176.772132
 31
0.0
  0
LINE
  5
31C
330
1F
100
AcDbEntity
  8
GR1-1
  6
CONTINUOUS
 62
     4
100
AcDbLine
 10
745.703883
 20
175.206884
 30
0.0
 11
741.853883
 21
176.324918
 31
0.0
  0
LINE
  5
31D
330
1F
100
AcDbEntity
  8
GR1-1
  6
CONTINUOUS
 62
     4
100
AcDbLine
 10
741.853883
 20
176.324918
 30
0.0
 11
741.453883
 21
176.772132
 31
0.0
  0
LINE
  5
31E
330
1F
100
AcDbEntity
  8
GR1-1
  6
CONTINUOUS
 62
     4
100
AcDbLine
 10
741.853883
 20
199.122981
 30
0.0
 11
741.853883
 21
191.967564
 31
0.0
  0
LINE
  5
31F
330
1F
100
AcDbEntity
  8
GR1-1
  6
CONTINUOUS
 62
     4
100
AcDbLine
 10
737.053883
 20
199.122981
 30
0.0
 11
737.053883
 21
191.967564
 31
0.0
  0
LINE
  5
320
330
1F
100
AcDbEntity
  8
GR1-1
  6
CONTINUOUS
 62
     4
100
AcDbLine
 10
733.253883
 20
193.085598
 30
0.0
 11
737.053883
 21
191.967564
 31
0.0
  0
LINE
  5
321
330
1F
100
AcDbEntity
  8
GR1-1
  6
CONTINUOUS
 62
     4
100
AcDbLine
 10
737.053883
 20
191.967564
 30
0.0
 11
737.453883
 21
191.567564
 31
0.0
  0
LINE
  5
322
330
1F
100
AcDbEntity
  8
GR1-1
  6
CONTINUOUS
 62
     4
100
AcDbLine
 10
741.453883
 20
191.567564
 30
0.0
 11
741.853883
 21
191.967564
 31
0.0
  0
LINE
  5
323
330
1F
100
AcDbEntity
  8
GR1-1
  6
CONTINUOUS
 62
     4
100
AcDbLine
 10
741.853883
 20
191.967564
 30
0.0
 11
745.653883
 21
193.085598
 31
0.0
  0
LINE
  5
324
330
1F
100
AcDbEntity
  8
GR1-1
  6
CONTINUOUS
 62
     4
100
AcDbLine
 10
741.453883
 20
198.722981
 30
0.0
 11
741.853883
 21
199.122981
 31
0.0
  0
LINE
  5
325
330
1F
100
AcDbEntity
  8
GR1-1
  6
CONTINUOUS
 62
     4
100
AcDbLine
 10
741.853883
 20
199.122981
 30
0.0
 11
745.653883
 21
200.241015
 31
0.0
  0
LINE
  5
326
330
1F
100
AcDbEntity
  8
GR1-1
  6
CONTINUOUS
 62
     4
100
AcDbLine
 10
733.253883
 20
200.241015
 30
0.0
 11
737.053883
 21
199.122981
 31
0.0
  0
LINE
  5
327
330
1F
100
AcDbEntity
  8
GR1-1
  6
CONTINUOUS
 62
     4
100
AcDbLine
 10
737.053883
 20
199.122981
 30
0.0
 11
737.453883
 21
198.722981
 31
0.0
  0
ARC
  5
328
330
1F
100
AcDbEntity
  8
GR1-1
  6
CONTINUOUS
 62
     2
100
AcDbCircle
 10
783.481297
 20
135.263972
 30
0.0
 40
6.761817216229993
100
AcDbArc
 50
318.873879
 51
347.99601
  0
LINE
  5
329
330
1F
100
AcDbEntity
  8
GR1-1
  6
CONTINUOUS
 62
     2
100
AcDbLine
 10
788.753614
 20
134.528471
 30
0.0
 11
790.095255
 21
133.857651
 31
0.0
  0
LINE
  5
32A
330
1F
100
AcDbEntity
  8
GR1-1
  6
CONTINUOUS
 62
     2
100
AcDbLine
 10
788.753614
 20
134.528471
 30
0.0
 11
787.233088
 21
131.487419
 31
0.0
  0
INSERT
  5
32E
330
1F
100
AcDbEntity
  8
0
100
AcDbBlockReference
  2
BLKF056
 10
0.0
 20
0.0
 30
0.0
  0
INSERT
  5
33D
330
1F
100
AcDbEntity
  8
0
100
AcDbBlockReference
  2
BLKF057
 10
0.0
 20
0.0
 30
0.0
  0
INSERT
  5
34B
330
1F
100
AcDbEntity
  8
0
100
AcDbBlockReference
  2
BLKF058
 10
0.0
 20
0.0
 30
0.0
  0
LINE
  5
356
330
1F
100
AcDbEntity
  8
GR1-1
  6
CONTINUOUS
 62
     2
100
AcDbLine
 10
816.860988
 20
135.065127
 30
0.0
 11
815.966561
 21
135.512341
 31
0.0
  0
LINE
  5
357
330
1F
100
AcDbEntity
  8
GR1-1
  6
CONTINUOUS
 62
     2
100
AcDbLine
 10
816.860988
 20
135.065127
 30
0.0
 11
815.340462
 21
132.024075
 31
0.0
  0
ARC
  5
358
330
1F
100
AcDbEntity
  8
GR1-1
  6
CONTINUOUS
 62
     2
100
AcDbCircle
 10
821.059993
 20
131.064968
 30
0.0
 40
6.761817216230011
100
AcDbArc
 50
138.873888
 51
167.996018
  0
LINE
  5
359
330
1F
100
AcDbEntity
  8
GR1-1
  6
CONTINUOUS
 62
     2
100
AcDbLine
 10
815.340462
 20
132.024075
 30
0.0
 11
814.446035
 21
132.471288
 31
0.0
  0
LINE
  5
35A
330
1F
100
AcDbEntity
  8
GR1-1
  6
CONTINUOUS
 62
     4
100
AcDbLine
 10
815.966561
 20
135.512341
 30
0.0
 11
819.834959
 21
143.249136
 31
0.0
  0
INSERT
  5
35E
330
1F
100
AcDbEntity
  8
0
100
AcDbBlockReference
  2
BLKF059
 10
0.0
 20
0.0
 30
0.0
  0
INSERT
  5
36C
330
1F
100
AcDbEntity
  8
0
100
AcDbBlockReference
  2
BLKF060
 10
0.0
 20
0.0
 30
0.0
  0
INSERT
  5
37A
330
1F
100
AcDbEntity
  8
0
100
AcDbBlockReference
  2
BLKF061
 10
0.0
 20
0.0
 30
0.0
  0
LINE
  5
385
330
1F
100
AcDbEntity
  8
GR1-1
  6
CONTINUOUS
 62
     2
100
AcDbLine
 10
788.888418
 20
132.971606
 30
0.0
 11
789.586071
 21
132.622779
 31
0.0
  0
LINE
  5
386
330
1F
100
AcDbEntity
  8
GR1-1
  6
CONTINUOUS
 62
     2
100
AcDbLine
 10
787.033342
 20
133.888426
 30
0.0
 11
786.335689
 21
134.237253
 31
0.0
  0
TEXT
  5
387
330
1F
100
AcDbEntity
  8
GR1-1
  6
CONTINUOUS
 62
     4
100
AcDbText
 10
785.475078
 20
135.372129
 30
0.0
 40
1.5
  1
15
 50
333.434937
 41
0.7
  7
FX_VECTOR
 72
     5
 11
787.353375
 21
134.43298
 31
0.0
100
AcDbText
  0
LINE
  5
388
330
1F
100
AcDbEntity
  8
GR1-1
  6
CONTINUOUS
 62
     2
100
AcDbLine
 10
788.946555
 20
133.087881
 30
0.0
 11
788.83028
 21
132.85533
 31
0.0
  0
LINE
  5
389
330
1F
100
AcDbEntity
  8
GR1-1
  6
CONTINUOUS
 62
     2
100
AcDbLine
 10
788.83028
 20
132.85533
 30
0.0
 11
788.190764
 21
133.320432
 31
0.0
  0
LINE
  5
38A
330
1F
100
AcDbEntity
  8
GR1-1
  6
CONTINUOUS
 62
     2
100
AcDbLine
 10
788.190764
 20
133.320432
 30
0.0
 11
788.946555
 21
133.087881
 31
0.0
  0
LINE
  5
38B
330
1F
100
AcDbEntity
  8
GR1-1
  6
CONTINUOUS
 62
     2
100
AcDbLine
 10
787.09148
 20
134.004702
 30
0.0
 11
786.975204
 21
133.77215
 31
0.0
  0
LINE
  5
38C
330
1F
100
AcDbEntity
  8
GR1-1
  6
CONTINUOUS
 62
     2
100
AcDbLine
 10
786.975204
 20
133.77215
 30
0.0
 11
787.730995
 21
133.539599
 31
0.0
  0
LINE
  5
38D
330
1F
100
AcDbEntity
  8
GR1-1
  6
CONTINUOUS
 62
     2
100
AcDbLine
 10
787.730995
 20
133.539599
 30
0.0
 11
787.09148
 21
134.004702
 31
0.0
  0
LINE
  5
38E
330
1F
100
AcDbEntity
  8
GR1-1
  6
CONTINUOUS
 62
     2
100
AcDbLine
 10
788.766067
 20
132.030042
 30
0.0
 11
794.15552
 21
123.319195
 31
0.0
  0
INSERT
  5
38F
330
1F
100
AcDbEntity
  8
GR1-1
  6
CONTINUOUS
 62
     2
100
AcDbBlockReference
  2
FXTIP_BLACKTRIANGLE_S
 10
788.766067
 20
132.030042
 30
0.0
 41
2.0
 42
2.0
 50
121.745325
  0
LINE
  5
390
330
1F
100
AcDbEntity
  8
GR1-1
  6
CONTINUOUS
 62
     2
100
AcDbLine
 10
794.15552
 20
123.319195
 30
0.0
 11
803.732957
 21
123.319195
 31
0.0
  0
CIRCLE
  5
391
330
1F
100
AcDbEntity
  8
GR1-1
  6
CONTINUOUS
 62
     2
100
AcDbCircle
 10
739.453883
 20
199.69446
 30
0.0
 40
0.1
  0
CIRCLE
  5
392
330
1F
100
AcDbEntity
  8
GR1-1
  6
CONTINUOUS
 62
     4
100
AcDbCircle
 10
739.453883
 20
199.69446
 30
0.0
 40
0.6
  0
LINE
  5
393
330
1F
100
AcDbEntity
  8
GR1-1
  6
CONTINUOUS
 62
     2
100
AcDbLine
 10
739.14669
 20
199.69446
 30
0.0
 11
739.761076
 21
199.69446
 31
0.0
  0
LINE
  5
394
330
1F
100
AcDbEntity
  8
GR1-1
  6
CONTINUOUS
 62
     2
100
AcDbLine
 10
739.453883
 20
200.001654
 30
0.0
 11
739.453883
 21
199.387267
 31
0.0
  0
LINE
  5
395
330
1F
100
AcDbEntity
  8
GR1-1
  6
CONTINUOUS
 62
     2
100
AcDbLine
 10
739.453883
 20
178.060633
 30
0.0
 11
739.453883
 21
177.446246
 31
0.0
  0
CIRCLE
  5
396
330
1F
100
AcDbEntity
  8
GR1-1
  6
CONTINUOUS
 62
     4
100
AcDbCircle
 10
739.453883
 20
177.75344
 30
0.0
 40
0.6
  0
CIRCLE
  5
397
330
1F
100
AcDbEntity
  8
GR1-1
  6
CONTINUOUS
 62
     2
100
AcDbCircle
 10
739.453883
 20
175.75344
 30
0.0
 40
0.3
  0
LINE
  5
398
330
1F
100
AcDbEntity
  8
GR1-1
  6
CONTINUOUS
 62
     2
100
AcDbLine
 10
739.14669
 20
177.75344
 30
0.0
 11
739.761076
 21
177.75344
 31
0.0
  0
CIRCLE
  5
399
330
1F
100
AcDbEntity
  8
GR1-1
  6
CONTINUOUS
 62
     2
100
AcDbCircle
 10
739.453883
 20
177.75344
 30
0.0
 40
0.1
  0
INSERT
  5
39D
330
1F
100
AcDbEntity
  8
0
100
AcDbBlockReference
  2
BLKF062
 10
0.0
 20
0.0
 30
0.0
  0
INSERT
  5
3AB
330
1F
100
AcDbEntity
  8
0
100
AcDbBlockReference
  2
BLKF063
 10
0.0
 20
0.0
 30
0.0
  0
INSERT
  5
3BA
330
1F
100
AcDbEntity
  8
0
100
AcDbBlockReference
  2
BLKF064
 10
0.0
 20
0.0
 30
0.0
  0
INSERT
  5
3C9
330
1F
100
AcDbEntity
  8
0
100
AcDbBlockReference
  2
BLKF065
 10
0.0
 20
0.0
 30
0.0
  0
INSERT
  5
3D1
330
1F
100
AcDbEntity
  8
0
100
AcDbBlockReference
  2
BLKF066
 10
0.0
 20
0.0
 30
0.0
  0
INSERT
  5
3E0
330
1F
100
AcDbEntity
  8
0
100
AcDbBlockReference
  2
BLKF067
 10
0.0
 20
0.0
 30
0.0
  0
INSERT
  5
3EE
330
1F
100
AcDbEntity
  8
0
100
AcDbBlockReference
  2
BLKF068
 10
0.0
 20
0.0
 30
0.0
  0
INSERT
  5
3FD
330
1F
100
AcDbEntity
  8
0
100
AcDbBlockReference
  2
BLKF069
 10
0.0
 20
0.0
 30
0.0
  0
INSERT
  5
40B
330
1F
100
AcDbEntity
  8
0
100
AcDbBlockReference
  2
BLKF070
 10
0.0
 20
0.0
 30
0.0
  0
INSERT
  5
41A
330
1F
100
AcDbEntity
  8
0
100
AcDbBlockReference
  2
BLKF071
 10
0.0
 20
0.0
 30
0.0
  0
INSERT
  5
428
330
1F
100
AcDbEntity
  8
0
100
AcDbBlockReference
  2
BLKF072
 10
0.0
 20
0.0
 30
0.0
  0
LINE
  5
433
330
1F
100
AcDbEntity
  8
GR1-1
  6
CONTINUOUS
 62
     2
100
AcDbLine
 10
744.273158
 20
177.730547
 30
0.0
 11
750.370609
 21
177.730547
 31
0.0
  0
LINE
  5
434
330
1F
100
AcDbEntity
  8
GR1-1
  6
CONTINUOUS
 62
     2
100
AcDbLine
 10
739.421094
 20
162.650124
 30
0.0
 11
739.421094
 21
165.715082
 31
0.0
  0
LINE
  5
435
330
1F
100
AcDbEntity
  8
GR1-1
  6
CONTINUOUS
 62
     2
100
AcDbLine
 10
736.415022
 20
162.659795
 30
0.0
 11
739.421094
 21
162.659795
 31
0.0
  0
INSERT
  5
436
330
1F
100
AcDbEntity
  8
GR1-1
  6
CONTINUOUS
 62
     2
100
AcDbBlockReference
  2
FXTIP_ARROW_S
 10
736.415022
 20
162.659795
 30
0.0
 41
2.0
 42
2.0
 50
180.0
  0
TEXT
  5
437
330
1F
100
AcDbEntity
  8
GR1-1
  6
CONTINUOUS
 62
     4
100
AcDbText
 10
732.979219
 20
149.639297
 30
0.0
 40
2.0
  1
 正面図 
 41
0.784
  7
FX_VECTOR
 72
     5
 11
740.819219
 21
149.639297
 31
0.0
100
AcDbText
  0
LINE
  5
438
330
1F
100
AcDbEntity
  8
GR1-1
  6
CONTINUOUS
 62
     4
100
AcDbLine
 10
732.979225
 20
149.439277
 30
0.0
 11
740.819225
 21
149.439277
 31
0.0
  0
TEXT
  5
439
330
1F
100
AcDbEntity
  8
GR1-1
  6
CONTINUOUS
 62
     4
100
AcDbText
 10
782.970156
 20
149.639297
 30
0.0
 40
2.0
  1
 側面図 
 41
0.784
  7
FX_VECTOR
 72
     5
 11
790.810156
 21
149.639297
 31
0.0
100
AcDbText
  0
LINE
  5
43A
330
1F
100
AcDbEntity
  8
GR1-1
  6
CONTINUOUS
 62
     4
100
AcDbLine
 10
782.970123
 20
149.439277
 30
0.0
 11
790.810123
 21
149.439277
 31
0.0
  0
TEXT
  5
43B
330
1F
100
AcDbEntity
  8
GR1-1
  6
CONTINUOUS
 62
     4
100
AcDbText
 10
737.469766
 20
163.311875
 30
0.0
 40
2.0
  1
A
 41
0.7
  7
FX_VECTOR
 72
     5
 11
738.869766
 21
163.311875
 31
0.0
100
AcDbText
  0
LINE
  5
43C
330
1F
100
AcDbEntity
  8
GR1-1
  6
CONTINUOUS
 62
     2
100
AcDbLine
 10
736.415022
 20
215.36111
 30
0.0
 11
739.421094
 21
215.36111
 31
0.0
  0
INSERT
  5
43D
330
1F
100
AcDbEntity
  8
GR1-1
  6
CONTINUOUS
 62
     2
100
AcDbBlockReference
  2
FXTIP_ARROW_S
 10
736.415022
 20
215.36111
 30
0.0
 41
2.0
 42
2.0
 50
180.0
  0
LINE
  5
43E
330
1F
100
AcDbEntity
  8
GR1-1
  6
CONTINUOUS
 62
     2
100
AcDbLine
 10
739.421094
 20
215.370781
 30
0.0
 11
739.421094
 21
212.305824
 31
0.0
  0
TEXT
  5
43F
330
1F
100
AcDbEntity
  8
GR1-1
  6
CONTINUOUS
 62
     4
100
AcDbText
 10
737.469766
 20
212.709023
 30
0.0
 40
2.0
  1
A
 41
0.7
  7
FX_VECTOR
 72
     5
 11
738.869766
 21
212.709023
 31
0.0
100
AcDbText
  0
LINE
  5
440
330
1F
100
AcDbEntity
  8
GR1-1
  6
CONTINUOUS
 62
     2
100
AcDbLine
 10
815.409711
 20
133.171786
 30
0.0
 11
803.732957
 21
123.319195
 31
0.0
  0
INSERT
  5
441
330
1F
100
AcDbEntity
  8
GR1-1
  6
CONTINUOUS
 62
     2
100
AcDbBlockReference
  2
FXTIP_ARROW_S
 10
815.409711
 20
133.171786
 30
0.0
 41
2.0
 42
2.0
 50
40.156946
  0
TEXT
  5
442
330
1F
100
AcDbEntity
  8
GR1-1
  6
CONTINUOUS
 62
     4
100
AcDbText
 10
672.496484
 20
153.449453
 30
0.0
 40
2.0
  1
 A-A 断面図 
 41
0.746667
  7
FX_VECTOR
 72
     5
 11
685.936484
 21
153.449453
 31
0.0
100
AcDbText
  0
LINE
  5
443
330
1F
100
AcDbEntity
  8
GR1-1
  6
CONTINUOUS
 62
     4
100
AcDbLine
 10
672.496489
 20
153.249442
 30
0.0
 11
685.936489
 21
153.249442
 31
0.0
  0
LINE
  5
444
330
1F
100
AcDbEntity
  8
GR1-1
  6
CONTINUOUS
 62
     4
100
AcDbLine
 10
709.907318
 20
128.938301
 30
0.0
 11
702.7519
 21
143.249136
 31
0.0
  0
LINE
  5
445
330
1F
100
AcDbEntity
  8
GR1-1
  6
CONTINUOUS
 62
     4
100
AcDbLine
 10
681.836468
 20
129.178301
 30
0.0
 11
674.801051
 21
143.249136
 31
0.0
  0
LINE
  5
446
330
1F
100
AcDbEntity
  8
GR1-1
  6
CONTINUOUS
 62
     8
100
AcDbLine
 10
708.650562
 20
133.091218
 30
0.0
 11
708.10745
 21
134.029432
 31
0.0
  0
LINE
  5
447
330
1F
100
AcDbEntity
  8
GR1-1
  6
CONTINUOUS
 62
     4
100
AcDbLine
 10
709.907318
 20
128.938301
 30
0.0
 11
705.007318
 21
128.938301
 31
0.0
  0
LINE
  5
448
330
1F
100
AcDbEntity
  8
GR1-1
  6
CONTINUOUS
 62
     8
100
AcDbLine
 10
709.757445
 20
129.215946
 30
0.0
 11
710.144736
 21
129.733875
 31
0.0
  0
LINE
  5
449
330
1F
100
AcDbEntity
  8
GR1-1
  6
CONTINUOUS
 62
     8
100
AcDbLine
 10
709.686113
 20
130.998532
 30
0.0
 11
709.426069
 21
131.401446
 31
0.0
  0
LINE
  5
44A
330
1F
100
AcDbEntity
  8
GR1-1
  6
CONTINUOUS
 62
     8
100
AcDbLine
 10
709.426069
 20
131.401446
 30
0.0
 11
708.650562
 21
133.091218
 31
0.0
  0
LINE
  5
44B
330
1F
100
AcDbEntity
  8
GR1-1
  6
CONTINUOUS
 62
     8
100
AcDbLine
 10
710.129216
 20
130.0892
 30
0.0
 11
709.801642
 21
130.614325
 31
0.0
  0
LINE
  5
44C
330
1F
100
AcDbEntity
  8
GR1-1
  6
CONTINUOUS
 62
     8
100
AcDbLine
 10
710.144736
 20
129.733875
 30
0.0
 11
710.129216
 21
130.0892
 31
0.0
  0
LINE
  5
44D
330
1F
100
AcDbEntity
  8
GR1-1
  6
CONTINUOUS
 62
     8
100
AcDbLine
 10
709.801642
 20
130.614325
 30
0.0
 11
709.686113
 21
130.998532
 31
0.0
  0
LINE
  5
44E
330
1F
100
AcDbEntity
  8
GR1-1
  6
CONTINUOUS
 62
     4
100
AcDbLine
 10
702.7519
 20
143.249136
 30
0.0
 11
674.801051
 21
143.249136
 31
0.0
  0
LINE
  5
44F
330
1F
100
AcDbEntity
  8
GR1-1
  6
CONTINUOUS
 62
     8
100
AcDbLine
 10
705.026303
 20
140.195846
 30
0.0
 11
704.734669
 21
140.848531
 31
0.0
  0
LINE
  5
450
330
1F
100
AcDbEntity
  8
GR1-1
  6
CONTINUOUS
 62
     8
100
AcDbLine
 10
707.398239
 20
135.401088
 30
0.0
 11
706.665079
 21
136.885909
 31
0.0
  0
TEXT
  5
451
330
1F
100
AcDbEntity
  8
GR1-1
  6
CONTINUOUS
 62
     4
100
AcDbText
 10
707.152734
 20
137.666719
 30
0.0
 40
1.5
  1
1:0.5
 50
297.0
 41
0.7
  7
FX_VECTOR
 72
     5
 11
709.536184
 21
132.988934
 31
0.0
100
AcDbText
  0
LINE
  5
452
330
1F
100
AcDbEntity
  8
GR1-1
  6
CONTINUOUS
 62
     8
100
AcDbLine
 10
704.827713
 20
139.090752
 30
0.0
 11
705.275288
 21
139.370343
 31
0.0
  0
LINE
  5
453
330
1F
100
AcDbEntity
  8
GR1-1
  6
CONTINUOUS
 62
     8
100
AcDbLine
 10
705.39073
 20
139.323169
 30
0.0
 11
705.102931
 21
139.138616
 31
0.0
  0
LINE
  5
454
330
1F
100
AcDbEntity
  8
GR1-1
  6
CONTINUOUS
 62
     8
100
AcDbLine
 10
705.876198
 20
138.569693
 30
0.0
 11
705.562396
 21
139.151273
 31
0.0
  0
LINE
  5
455
330
1F
100
AcDbEntity
  8
GR1-1
  6
CONTINUOUS
 62
     8
100
AcDbLine
 10
705.562396
 20
139.151273
 30
0.0
 11
705.39073
 21
139.323169
 31
0.0
  0
LINE
  5
456
330
1F
100
AcDbEntity
  8
GR1-1
  6
CONTINUOUS
 62
     8
100
AcDbLine
 10
705.102931
 20
139.138616
 30
0.0
 11
704.861233
 21
139.096582
 31
0.0
  0
LINE
  5
457
330
1F
100
AcDbEntity
  8
GR1-1
  6
CONTINUOUS
 62
     8
100
AcDbLine
 10
705.345627
 20
139.58251
 30
0.0
 11
705.026303
 21
140.195846
 31
0.0
  0
LINE
  5
458
330
1F
100
AcDbEntity
  8
GR1-1
  6
CONTINUOUS
 62
     8
100
AcDbLine
 10
705.275288
 20
139.370343
 30
0.0
 11
705.345627
 21
139.58251
 31
0.0
  0
LINE
  5
459
330
1F
100
AcDbEntity
  8
GR1-1
  6
CONTINUOUS
 62
     8
100
AcDbLine
 10
706.665079
 20
136.885909
 30
0.0
 11
706.356066
 21
137.649843
 31
0.0
  0
LINE
  5
45A
330
1F
100
AcDbEntity
  8
GR1-1
  6
CONTINUOUS
 62
     8
100
AcDbLine
 10
706.356066
 20
137.649843
 30
0.0
 11
706.145126
 21
138.04756
 31
0.0
  0
LINE
  5
45B
330
1F
100
AcDbEntity
  8
GR1-1
  6
CONTINUOUS
 62
     8
100
AcDbLine
 10
706.145126
 20
138.04756
 30
0.0
 11
705.876198
 21
138.569693
 31
0.0
  0
LINE
  5
45C
330
1F
100
AcDbEntity
  8
GR1-1
  6
CONTINUOUS
 62
     8
100
AcDbLine
 10
707.956563
 20
134.375405
 30
0.0
 11
707.512124
 21
134.74625
 31
0.0
  0
LINE
  5
45D
330
1F
100
AcDbEntity
  8
GR1-1
  6
CONTINUOUS
 62
     8
100
AcDbLine
 10
708.10745
 20
134.029432
 30
0.0
 11
708.264196
 21
133.712858
 31
0.0
  0
LINE
  5
45E
330
1F
100
AcDbEntity
  8
GR1-1
  6
CONTINUOUS
 62
     8
100
AcDbLine
 10
708.264196
 20
133.712858
 30
0.0
 11
707.956563
 21
134.375405
 31
0.0
  0
LINE
  5
45F
330
1F
100
AcDbEntity
  8
GR1-1
  6
CONTINUOUS
 62
     8
100
AcDbLine
 10
707.566497
 20
134.979776
 30
0.0
 11
707.398239
 21
135.401088
 31
0.0
  0
LINE
  5
460
330
1F
100
AcDbEntity
  8
GR1-1
  6
CONTINUOUS
 62
     8
100
AcDbLine
 10
707.581298
 20
134.89467
 30
0.0
 11
707.566497
 21
134.979776
 31
0.0
  0
LINE
  5
461
330
1F
100
AcDbEntity
  8
GR1-1
  6
CONTINUOUS
 62
     8
100
AcDbLine
 10
707.150734
 20
134.63956
 30
0.0
 11
707.581298
 21
134.89467
 31
0.0
  0
LINE
  5
462
330
1F
100
AcDbEntity
  8
GR1-1
  6
CONTINUOUS
 62
     8
100
AcDbLine
 10
707.512124
 20
134.74625
 30
0.0
 11
707.150734
 21
134.63956
 31
0.0
  0
LINE
  5
463
330
1F
100
AcDbEntity
  8
GR1-1
  6
CONTINUOUS
 62
     8
100
AcDbLine
 10
704.734669
 20
140.848531
 30
0.0
 11
704.448865
 21
141.467696
 31
0.0
  0
LINE
  5
464
330
1F
100
AcDbEntity
  8
GR1-1
  6
CONTINUOUS
 62
     8
100
AcDbLine
 10
703.964931
 20
142.421373
 30
0.0
 11
703.643536
 21
143.036166
 31
0.0
  0
LINE
  5
465
330
1F
100
AcDbEntity
  8
GR1-1
  6
CONTINUOUS
 62
     8
100
AcDbLine
 10
704.163291
 20
141.886968
 30
0.0
 11
703.964931
 21
142.421373
 31
0.0
  0
LINE
  5
466
330
1F
100
AcDbEntity
  8
GR1-1
  6
CONTINUOUS
 62
     8
100
AcDbLine
 10
704.448865
 20
141.467696
 30
0.0
 11
704.163291
 21
141.886968
 31
0.0
  0
LINE
  5
467
330
1F
100
AcDbEntity
  8
GR1-1
  6
CONTINUOUS
 62
     8
100
AcDbLine
 10
703.265762
 20
143.170401
 30
0.0
 11
702.864287
 21
143.033328
 31
0.0
  0
LINE
  5
468
330
1F
100
AcDbEntity
  8
GR1-1
  6
CONTINUOUS
 62
     8
100
AcDbLine
 10
703.518813
 20
143.147159
 30
0.0
 11
703.265762
 21
143.170401
 31
0.0
  0
LINE
  5
469
330
1F
100
AcDbEntity
  8
GR1-1
  6
CONTINUOUS
 62
     8
100
AcDbLine
 10
703.643536
 20
143.036166
 30
0.0
 11
703.518813
 21
143.147159
 31
0.0
  0
LINE
  5
46A
330
1F
100
AcDbEntity
  8
GR1-1
  6
CONTINUOUS
 62
     4
100
AcDbLine
 10
704.007318
 20
128.938301
 30
0.0
 11
704.107318
 21
129.178301
 31
0.0
  0
LINE
  5
46B
330
1F
100
AcDbEntity
  8
GR1-1
  6
CONTINUOUS
 62
     4
100
AcDbLine
 10
704.107318
 20
129.178301
 30
0.0
 11
704.907318
 21
129.178301
 31
0.0
  0
LINE
  5
46C
330
1F
100
AcDbEntity
  8
GR1-1
  6
CONTINUOUS
 62
     4
100
AcDbLine
 10
704.907318
 20
129.178301
 30
0.0
 11
705.007318
 21
128.938301
 31
0.0
  0
LINE
  5
46D
330
1F
100
AcDbEntity
  8
GR1-1
  6
CONTINUOUS
 62
     4
100
AcDbLine
 10
701.0519
 20
143.249136
 30
0.0
 11
700.8769
 21
142.249136
 31
0.0
  0
LINE
  5
46E
330
1F
100
AcDbEntity
  8
GR1-1
  6
CONTINUOUS
 62
     4
100
AcDbLine
 10
700.8769
 20
142.249136
 30
0.0
 11
700.6269
 21
142.249136
 31
0.0
  0
LINE
  5
46F
330
1F
100
AcDbEntity
  8
GR1-1
  6
CONTINUOUS
 62
     4
100
AcDbLine
 10
700.6269
 20
142.249136
 30
0.0
 11
700.4519
 21
143.249136
 31
0.0
  0
LINE
  5
470
330
1F
100
AcDbEntity
  8
GR1-1
  6
CONTINUOUS
 62
     4
100
AcDbLine
 10
685.756468
 20
129.178301
 30
0.0
 11
686.556468
 21
129.178301
 31
0.0
  0
LINE
  5
471
330
1F
100
AcDbEntity
  8
GR1-1
  6
CONTINUOUS
 62
     4
100
AcDbLine
 10
685.656468
 20
128.938301
 30
0.0
 11
685.756468
 21
129.178301
 31
0.0
  0
LINE
  5
472
330
1F
100
AcDbEntity
  8
GR1-1
  6
CONTINUOUS
 62
     4
100
AcDbLine
 10
686.556468
 20
129.178301
 30
0.0
 11
686.656468
 21
128.938301
 31
0.0
  0
LINE
  5
473
330
1F
100
AcDbEntity
  8
GR1-1
  6
CONTINUOUS
 62
     4
100
AcDbLine
 10
681.836468
 20
129.178301
 30
0.0
 11
682.756468
 21
129.178301
 31
0.0
  0
LINE
  5
474
330
1F
100
AcDbEntity
  8
GR1-1
  6
CONTINUOUS
 62
     4
100
AcDbLine
 10
682.756468
 20
129.178301
 30
0.0
 11
682.856468
 21
128.938301
 31
0.0
  0
LINE
  5
475
330
1F
100
AcDbEntity
  8
GR1-1
  6
CONTINUOUS
 62
     4
100
AcDbLine
 10
708.032318
 20
129.938301
 30
0.0
 11
708.207318
 21
128.938301
 31
0.0
  0
LINE
  5
476
330
1F
100
AcDbEntity
  8
GR1-1
  6
CONTINUOUS
 62
     4
100
AcDbLine
 10
707.782318
 20
129.938301
 30
0.0
 11
708.032318
 21
129.938301
 31
0.0
  0
LINE
  5
477
330
1F
100
AcDbEntity
  8
GR1-1
  6
CONTINUOUS
 62
     4
100
AcDbLine
 10
707.607318
 20
128.938301
 30
0.0
 11
707.782318
 21
129.938301
 31
0.0
  0
INSERT
  5
47B
330
1F
100
AcDbEntity
  8
0
100
AcDbBlockReference
  2
BLKF073
 10
0.0
 20
0.0
 30
0.0
  0
INSERT
  5
48A
330
1F
100
AcDbEntity
  8
0
100
AcDbBlockReference
  2
BLKF074
 10
0.0
 20
0.0
 30
0.0
  0
INSERT
  5
499
330
1F
100
AcDbEntity
  8
0
100
AcDbBlockReference
  2
BLKF075
 10
0.0
 20
0.0
 30
0.0
  0
INSERT
  5
4A7
330
1F
100
AcDbEntity
  8
0
100
AcDbBlockReference
  2
BLKF076
 10
0.0
 20
0.0
 30
0.0
  0
INSERT
  5
4B5
330
1F
100
AcDbEntity
  8
0
100
AcDbBlockReference
  2
BLKF077
 10
0.0
 20
0.0
 30
0.0
  0
LINE
  5
4BB
330
1F
100
AcDbEntity
  8
GR1-1
  6
CONTINUOUS
 62
     2
100
AcDbLine
 10
686.191709
 20
129.31416
 30
0.0
 11
689.007918
 21
135.094942
 31
0.0
  0
INSERT
  5
4BC
330
1F
100
AcDbEntity
  8
GR1-1
  6
CONTINUOUS
 62
     2
100
AcDbBlockReference
  2
FXTIP_ARROW_S
 10
686.191709
 20
129.31416
 30
0.0
 41
2.0
 42
2.0
 50
244.026169
  0
LINE
  5
4BD
330
1F
100
AcDbEntity
  8
GR1-1
  6
CONTINUOUS
 62
     2
100
AcDbLine
 10
704.360097
 20
129.365317
 30
0.0
 11
689.007918
 21
135.094942
 31
0.0
  0
INSERT
  5
4BE
330
1F
100
AcDbEntity
  8
GR1-1
  6
CONTINUOUS
 62
     2
100
AcDbBlockReference
  2
FXTIP_ARROW_S
 10
704.360097
 20
129.365317
 30
0.0
 41
2.0
 42
2.0
 50
339.533798
  0
LINE
  5
4BF
330
1F
100
AcDbEntity
  8
GR1-1
  6
CONTINUOUS
 62
     4
100
AcDbLine
 10
704.007318
 20
128.938301
 30
0.0
 11
686.656468
 21
128.938301
 31
0.0
  0
LINE
  5
4C0
330
1F
100
AcDbEntity
  8
GR1-1
  6
CONTINUOUS
 62
     4
100
AcDbLine
 10
685.656468
 20
128.938301
 30
0.0
 11
682.856468
 21
128.938301
 31
0.0
  0
TEXT
  5
4C1
330
1F
100
AcDbEntity
  8
GR1-1
  6
CONTINUOUS
 62
     4
100
AcDbText
 10
726.771641
 20
212.795
 30
0.0
 40
2.0
  1
 平面図 
 41
0.784
  7
FX_VECTOR
 72
     5
 11
734.611641
 21
212.795
 31
0.0
100
AcDbText
  0
LINE
  5
4C2
330
1F
100
AcDbEntity
  8
GR1-1
  6
CONTINUOUS
 62
     4
100
AcDbLine
 10
726.771607
 20
212.594981
 30
0.0
 11
734.611607
 21
212.594981
 31
0.0
  0
INSERT
  5
4C6
330
1F
100
AcDbEntity
  8
0
100
AcDbBlockReference
  2
BLKF078
 10
0.0
 20
0.0
 30
0.0
  0
INSERT
  5
4D4
330
1F
100
AcDbEntity
  8
0
100
AcDbBlockReference
  2
BLKF079
 10
0.0
 20
0.0
 30
0.0
  0
INSERT
  5
4E3
330
1F
100
AcDbEntity
  8
0
100
AcDbBlockReference
  2
BLKF080
 10
0.0
 20
0.0
 30
0.0
  0
LINE
  5
4EF
330
1F
100
AcDbEntity
  8
GR1-1
  6
CONTINUOUS
 62
     2
100
AcDbLine
 10
791.639552
 20
118.266805
 30
0.0
 11
794.645625
 21
118.266805
 31
0.0
  0
INSERT
  5
4F0
330
1F
100
AcDbEntity
  8
GR1-1
  6
CONTINUOUS
 62
     2
100
AcDbBlockReference
  2
FXTIP_ARROW_S
 10
791.639552
 20
118.266805
 30
0.0
 41
2.0
 42
2.0
 50
180.0
  0
LINE
  5
4F1
330
1F
100
AcDbEntity
  8
GR1-1
  6
CONTINUOUS
 62
     2
100
AcDbLine
 10
794.06046
 20
118.257134
 30
0.0
 11
795.544531
 21
121.225277
 31
0.0
  0
LINE
  5
4F2
330
1F
100
AcDbEntity
  8
GR1-1
  6
CONTINUOUS
 62
     2
100
AcDbLine
 10
797.651697
 20
118.266805
 30
0.0
 11
794.645625
 21
118.266805
 31
0.0
  0
INSERT
  5
4F3
330
1F
100
AcDbEntity
  8
GR1-1
  6
CONTINUOUS
 62
     2
100
AcDbBlockReference
  2
FXTIP_ARROW_S
 10
797.651697
 20
118.266805
 30
0.0
 41
2.0
 42
2.0
  0
TEXT
  5
4F4
330
1F
100
AcDbEntity
  8
GR1-1
  6
CONTINUOUS
 62
     4
100
AcDbText
 10
796.143828
 20
119.108926
 30
0.0
 40
2.0
  1
D
 41
0.7
  7
FX_VECTOR
 72
     5
 11
797.543828
 21
119.108926
 31
0.0
100
AcDbText
  0
TEXT
  5
4F5
330
1F
100
AcDbEntity
  8
GR1-1
  6
CONTINUOUS
 62
     4
100
AcDbText
 10
792.964219
 20
119.164258
 30
0.0
 40
2.0
  1
C
 41
0.7
  7
FX_VECTOR
 72
     5
 11
794.364219
 21
119.164258
 31
0.0
100
AcDbText
  0
LINE
  5
4F6
330
1F
100
AcDbEntity
  8
GR1-1
  6
CONTINUOUS
 62
     2
100
AcDbLine
 10
806.340317
 20
155.071879
 30
0.0
 11
809.346389
 21
155.071879
 31
0.0
  0
INSERT
  5
4F7
330
1F
100
AcDbEntity
  8
GR1-1
  6
CONTINUOUS
 62
     2
100
AcDbBlockReference
  2
FXTIP_ARROW_S
 10
806.340317
 20
155.071879
 30
0.0
 41
2.0
 42
2.0
 50
180.0
  0
TEXT
  5
4F8
330
1F
100
AcDbEntity
  8
GR1-1
  6
CONTINUOUS
 62
     4
100
AcDbText
 10
807.076328
 20
152.511328
 30
0.0
 40
2.0
  1
C
 41
0.7
  7
FX_VECTOR
 72
     5
 11
808.476328
 21
152.511328
 31
0.0
100
AcDbText
  0
LINE
  5
4F9
330
1F
100
AcDbEntity
  8
GR1-1
  6
CONTINUOUS
 62
     2
100
AcDbLine
 10
812.352461
 20
155.071879
 30
0.0
 11
809.346389
 21
155.071879
 31
0.0
  0
INSERT
  5
4FA
330
1F
100
AcDbEntity
  8
GR1-1
  6
CONTINUOUS
 62
     2
100
AcDbBlockReference
  2
FXTIP_ARROW_S
 10
812.352461
 20
155.071879
 30
0.0
 41
2.0
 42
2.0
  0
TEXT
  5
4FB
330
1F
100
AcDbEntity
  8
GR1-1
  6
CONTINUOUS
 62
     4
100
AcDbText
 10
810.7675
 20
152.511328
 30
0.0
 40
2.0
  1
D
 41
0.7
  7
FX_VECTOR
 72
     5
 11
812.1675
 21
152.511328
 31
0.0
100
AcDbText
  0
LINE
  5
4FC
330
1F
100
AcDbEntity
  8
GR1-1
  6
CONTINUOUS
 62
     2
100
AcDbLine
 10
808.762326
 20
152.65307
 30
0.0
 11
809.976566
 21
155.08155
 31
0.0
  0
INSERT
  5
500
330
1F
100
AcDbEntity
  8
0
100
AcDbBlockReference
  2
BLKF081
 10
0.0
 20
0.0
 30
0.0
  0
INSERT
  5
50E
330
1F
100
AcDbEntity
  8
0
100
AcDbBlockReference
  2
BLKF082
 10
0.0
 20
0.0
 30
0.0
  0
INSERT
  5
51C
330
1F
100
AcDbEntity
  8
0
100
AcDbBlockReference
  2
BLKF083
 10
0.0
 20
0.0
 30
0.0
  0
INSERT
  5
52B
330
1F
100
AcDbEntity
  8
0
100
AcDbBlockReference
  2
BLKF084
 10
0.0
 20
0.0
 30
0.0
  0
INSERT
  5
539
330
1F
100
AcDbEntity
  8
0
100
AcDbBlockReference
  2
BLKF085
 10
0.0
 20
0.0
 30
0.0
  0
INSERT
  5
548
330
1F
100
AcDbEntity
  8
0
100
AcDbBlockReference
  2
BLKF086
 10
0.0
 20
0.0
 30
0.0
  0
INSERT
  5
556
330
1F
100
AcDbEntity
  8
0
100
AcDbBlockReference
  2
BLKF087
 10
0.0
 20
0.0
 30
0.0
  0
INSERT
  5
565
330
1F
100
AcDbEntity
  8
0
100
AcDbBlockReference
  2
BLKF088
 10
0.0
 20
0.0
 30
0.0
  0
INSERT
  5
574
330
1F
100
AcDbEntity
  8
0
100
AcDbBlockReference
  2
BLKF089
 10
0.0
 20
0.0
 30
0.0
  0
INSERT
  5
582
330
1F
100
AcDbEntity
  8
0
100
AcDbBlockReference
  2
BLKF090
 10
0.0
 20
0.0
 30
0.0
  0
INSERT
  5
591
330
1F
100
AcDbEntity
  8
0
100
AcDbBlockReference
  2
BLKF091
 10
0.0
 20
0.0
 30
0.0
  0
LINE
  5
59C
330
1F
100
AcDbEntity
  8
GR1-1
  6
CONTINUOUS
 62
     4
100
AcDbLine
 10
700.310917
 20
139.093719
 30
0.0
 11
684.397451
 21
139.093719
 31
0.0
  0
LINE
  5
59D
330
1F
100
AcDbEntity
  8
GR1-1
  6
CONTINUOUS
 62
     4
100
AcDbLine
 10
700.310917
 20
133.093719
 30
0.0
 11
684.397451
 21
133.093719
 31
0.0
  0
LINE
  5
59E
330
1F
100
AcDbEntity
  8
GR1-1
  6
CONTINUOUS
 62
     4
100
AcDbLine
 10
683.797451
 20
133.693719
 30
0.0
 11
683.797451
 21
138.493719
 31
0.0
  0
LINE
  5
59F
330
1F
100
AcDbEntity
  8
GR1-1
  6
CONTINUOUS
 62
     4
100
AcDbLine
 10
700.910917
 20
133.693719
 30
0.0
 11
700.910917
 21
138.493719
 31
0.0
  0
LINE
  5
5A0
330
1F
100
AcDbEntity
  8
GR1-1
  6
CONTINUOUS
 62
     2
100
AcDbLine
 10
747.37358
 20
183.712981
 30
0.0
 11
757.805002
 21
183.712981
 31
0.0
  0
INSERT
  5
5A4
330
1F
100
AcDbEntity
  8
0
100
AcDbBlockReference
  2
BLKF092
 10
0.0
 20
0.0
 30
0.0
  0
INSERT
  5
5AC
330
1F
100
AcDbEntity
  8
0
100
AcDbBlockReference
  2
BLKF093
 10
0.0
 20
0.0
 30
0.0
  0
INSERT
  5
5BA
330
1F
100
AcDbEntity
  8
0
100
AcDbBlockReference
  2
BLKF094
 10
0.0
 20
0.0
 30
0.0
  0
INSERT
  5
5C8
330
1F
100
AcDbEntity
  8
0
100
AcDbBlockReference
  2
BLKF095
 10
0.0
 20
0.0
 30
0.0
  0
LINE
  5
5D3
330
1F
100
AcDbEntity
  8
GR1-1
  6
CONTINUOUS
 62
     4
100
AcDbLine
 10
737.053883
 20
94.790936
 30
0.0
 11
737.053883
 21
80.480101
 31
0.0
  0
LINE
  5
5D4
330
1F
100
AcDbEntity
  8
GR1-1
  6
CONTINUOUS
 62
     4
100
AcDbLine
 10
741.853883
 20
94.790936
 30
0.0
 11
741.853883
 21
80.480101
 31
0.0
  0
LINE
  5
5D5
330
1F
100
AcDbEntity
  8
GR1-1
  6
CONTINUOUS
 62
     4
100
AcDbLine
 10
741.453883
 20
94.790936
 30
0.0
 11
741.453883
 21
80.480101
 31
0.0
  0
ELLIPSE
  5
5D7
330
1F
100
AcDbEntity
  8
GR1-1
  6
HIDDEN2
 62
     2
100
AcDbEllipse
 10
733.203883
 20
84.060101
 30
0.0
 11
9.307008289050067E-17
 21
-1.52
 31
0.0
210
0.0
220
0.0
230
1.0
 40
0.657895
 41
0.0
 42
3.141592653589793
  0
ELLIPSE
  5
5D8
330
1F
100
AcDbEntity
  8
GR1-1
  6
CONTINUOUS
 62
     4
100
AcDbEllipse
 10
733.203883
 20
84.460101
 30
0.0
 11
9.307008289050067E-17
 21
-1.52
 31
0.0
210
0.0
220
0.0
230
1.0
 40
0.657895
 41
0.0
 42
3.141592653589793
  0
ELLIPSE
  5
5D9
330
1F
100
AcDbEntity
  8
GR1-1
  6
HIDDEN2
 62
     2
100
AcDbEllipse
 10
745.703883
 20
84.060101
 30
0.0
 11
9.307008289050067E-17
 21
-1.52
 31
0.0
210
0.0
220
0.0
230
1.0
 40
0.657895
 41
3.141592653589793
 42
6.283185307179586
  0
ELLIPSE
  5
5DA
330
1F
100
AcDbEntity
  8
GR1-1
  6
CONTINUOUS
 62
     4
100
AcDbEllipse
 10
745.703883
 20
84.460101
 30
0.0
 11
9.307008289050067E-17
 21
-1.52
 31
0.0
210
0.0
220
0.0
230
1.0
 40
0.657895
 41
3.141592653589793
 42
6.283185307179586
  0
LINE
  5
5DB
330
1F
100
AcDbEntity
  8
GR1-1
  6
CONTINUOUS
 62
     4
100
AcDbLine
 10
737.453883
 20
94.790936
 30
0.0
 11
737.453883
 21
80.480101
 31
0.0
  0
LINE
  5
5DC
330
1F
100
AcDbEntity
  8
GR1-1
  6
CONTINUOUS
 62
     4
100
AcDbLine
 10
733.203883
 20
94.790936
 30
0.0
 11
733.203883
 21
80.480101
 31
0.0
  0
LINE
  5
5DD
330
1F
100
AcDbEntity
  8
GR1-1
  6
CONTINUOUS
 62
     4
100
AcDbLine
 10
745.703883
 20
94.790936
 30
0.0
 11
745.703883
 21
80.480101
 31
0.0
  0
INSERT
  5
5E1
330
1F
100
AcDbEntity
  8
0
100
AcDbBlockReference
  2
BLKF096
 10
0.0
 20
0.0
 30
0.0
  0
INSERT
  5
5EF
330
1F
100
AcDbEntity
  8
0
100
AcDbBlockReference
  2
BLKF097
 10
0.0
 20
0.0
 30
0.0
  0
LINE
  5
5FA
330
1F
100
AcDbEntity
  8
GR1-1
  6
CONTINUOUS
 62
     4
100
AcDbLine
 10
733.203883
 20
80.480101
 30
0.0
 11
745.703883
 21
80.480101
 31
0.0
  0
INSERT
  5
5FE
330
1F
100
AcDbEntity
  8
0
100
AcDbBlockReference
  2
BLKF098
 10
0.0
 20
0.0
 30
0.0
  0
INSERT
  5
60C
330
1F
100
AcDbEntity
  8
0
100
AcDbBlockReference
  2
BLKF099
 10
0.0
 20
0.0
 30
0.0
  0
LINE
  5
617
330
1F
100
AcDbEntity
  8
GR1-1
  6
CONTINUOUS
 62
     4
100
AcDbLine
 10
737.453883
 20
80.720101
 30
0.0
 11
738.253883
 21
80.720101
 31
0.0
  0
LINE
  5
618
330
1F
100
AcDbEntity
  8
GR1-1
  6
CONTINUOUS
 62
     4
100
AcDbLine
 10
738.253883
 20
80.720101
 30
0.0
 11
738.353883
 21
80.480101
 31
0.0
  0
LINE
  5
619
330
1F
100
AcDbEntity
  8
GR1-1
  6
CONTINUOUS
 62
     4
100
AcDbLine
 10
741.453883
 20
80.720101
 30
0.0
 11
740.653883
 21
80.720101
 31
0.0
  0
LINE
  5
61A
330
1F
100
AcDbEntity
  8
GR1-1
  6
CONTINUOUS
 62
     4
100
AcDbLine
 10
740.653883
 20
80.720101
 30
0.0
 11
740.553883
 21
80.480101
 31
0.0
  0
LINE
  5
61B
330
1F
100
AcDbEntity
  8
GR1-1
  6
CONTINUOUS
 62
     4
100
AcDbLine
 10
733.203883
 20
94.790936
 30
0.0
 11
745.703883
 21
94.790936
 31
0.0
  0
LINE
  5
61C
330
1F
100
AcDbEntity
  8
GR1-1
  6
CONTINUOUS
 62
     4
100
AcDbLine
 10
741.453883
 20
84.036101
 30
0.0
 11
737.453883
 21
84.635519
 31
0.0
  0
LINE
  5
61D
330
1F
100
AcDbEntity
  8
GR1-1
  6
CONTINUOUS
 62
     4
100
AcDbLine
 10
741.453883
 20
91.236101
 30
0.0
 11
737.453883
 21
90.635519
 31
0.0
  0
INSERT
  5
621
330
1F
100
AcDbEntity
  8
0
100
AcDbBlockReference
  2
BLKF100
 10
0.0
 20
0.0
 30
0.0
  0
TEXT
  5
62D
330
1F
100
AcDbEntity
  8
GR1-1
  6
CONTINUOUS
 62
     4
100
AcDbText
 10
732.979219
 20
101.12082
 30
0.0
 40
2.0
  1
 C-C 断面図 
 41
0.746667
  7
FX_VECTOR
 72
     5
 11
746.419218
 21
101.12082
 31
0.0
100
AcDbText
  0
LINE
  5
62E
330
1F
100
AcDbEntity
  8
GR1-1
  6
CONTINUOUS
 62
     4
100
AcDbLine
 10
732.979225
 20
100.920826
 30
0.0
 11
746.419225
 21
100.920826
 31
0.0
  0
LINE
  5
62F
330
1F
100
AcDbEntity
  8
GR1-1
  6
CONTINUOUS
 62
     4
100
AcDbLine
 10
782.710944
 20
94.790936
 30
0.0
 11
782.710944
 21
80.480101
 31
0.0
  0
LINE
  5
630
330
1F
100
AcDbEntity
  8
GR1-1
  6
CONTINUOUS
 62
     4
100
AcDbLine
 10
786.960944
 20
94.790936
 30
0.0
 11
786.960944
 21
80.480101
 31
0.0
  0
LINE
  5
631
330
1F
100
AcDbEntity
  8
GR1-1
  6
CONTINUOUS
 62
     4
100
AcDbLine
 10
786.560944
 20
94.790936
 30
0.0
 11
786.560944
 21
80.480101
 31
0.0
  0
LINE
  5
632
330
1F
100
AcDbEntity
  8
GR1-1
  6
CONTINUOUS
 62
     4
100
AcDbLine
 10
790.960944
 20
94.790936
 30
0.0
 11
790.960944
 21
80.480101
 31
0.0
  0
LINE
  5
633
330
1F
100
AcDbEntity
  8
GR1-1
  6
CONTINUOUS
 62
     4
100
AcDbLine
 10
791.360944
 20
94.790936
 30
0.0
 11
791.360944
 21
80.480101
 31
0.0
  0
LINE
  5
634
330
1F
100
AcDbEntity
  8
GR1-1
  6
CONTINUOUS
 62
     4
100
AcDbLine
 10
795.210944
 20
94.790936
 30
0.0
 11
795.210944
 21
80.480101
 31
0.0
  0
LINE
  5
635
330
1F
100
AcDbEntity
  8
GR1-1
  6
CONTINUOUS
 62
     4
100
AcDbLine
 10
782.710944
 20
80.480101
 30
0.0
 11
795.210944
 21
80.480101
 31
0.0
  0
INSERT
  5
639
330
1F
100
AcDbEntity
  8
0
100
AcDbBlockReference
  2
BLKF101
 10
0.0
 20
0.0
 30
0.0
  0
INSERT
  5
647
330
1F
100
AcDbEntity
  8
0
100
AcDbBlockReference
  2
BLKF102
 10
0.0
 20
0.0
 30
0.0
  0
INSERT
  5
655
330
1F
100
AcDbEntity
  8
0
100
AcDbBlockReference
  2
BLKF103
 10
0.0
 20
0.0
 30
0.0
  0
INSERT
  5
663
330
1F
100
AcDbEntity
  8
0
100
AcDbBlockReference
  2
BLKF104
 10
0.0
 20
0.0
 30
0.0
  0
INSERT
  5
671
330
1F
100
AcDbEntity
  8
0
100
AcDbBlockReference
  2
BLKF105
 10
0.0
 20
0.0
 30
0.0
  0
LINE
  5
67D
330
1F
100
AcDbEntity
  8
GR1-1
  6
CONTINUOUS
 62
     4
100
AcDbLine
 10
789.335944
 20
80.720101
 30
0.0
 11
789.435944
 21
80.480101
 31
0.0
  0
LINE
  5
67E
330
1F
100
AcDbEntity
  8
GR1-1
  6
CONTINUOUS
 62
     4
100
AcDbLine
 10
788.435944
 20
80.480101
 30
0.0
 11
788.535944
 21
80.720101
 31
0.0
  0
LINE
  5
67F
330
1F
100
AcDbEntity
  8
GR1-1
  6
CONTINUOUS
 62
     4
100
AcDbLine
 10
788.535944
 20
80.720101
 30
0.0
 11
789.335944
 21
80.720101
 31
0.0
  0
LINE
  5
680
330
1F
100
AcDbEntity
  8
GR1-1
  6
CONTINUOUS
 62
     4
100
AcDbLine
 10
782.710944
 20
94.790936
 30
0.0
 11
795.210944
 21
94.790936
 31
0.0
  0
TEXT
  5
681
330
1F
100
AcDbEntity
  8
GR1-1
  6
CONTINUOUS
 62
     4
100
AcDbText
 10
782.486328
 20
101.12082
 30
0.0
 40
2.0
  1
 D-D 断面図 
 41
0.746667
  7
FX_VECTOR
 72
     5
 11
795.926328
 21
101.12082
 31
0.0
100
AcDbText
  0
LINE
  5
682
330
1F
100
AcDbEntity
  8
GR1-1
  6
CONTINUOUS
 62
     4
100
AcDbLine
 10
782.486286
 20
100.920826
 30
0.0
 11
795.926286
 21
100.920826
 31
0.0
  0
LINE
  5
683
330
1F
100
AcDbEntity
  8
GR1-1
  6
CONTINUOUS
 62
     4
100
AcDbLine
 10
790.960944
 20
84.036101
 30
0.0
 11
786.960944
 21
84.635519
 31
0.0
  0
LINE
  5
684
330
1F
100
AcDbEntity
  8
GR1-1
  6
CONTINUOUS
 62
     4
100
AcDbLine
 10
790.960944
 20
91.236101
 30
0.0
 11
786.960944
 21
90.635519
 31
0.0
  0
ELLIPSE
  5
685
330
1F
100
AcDbEntity
  8
GR1-1
  6
HIDDEN2
 62
     2
100
AcDbEllipse
 10
782.710944
 20
84.560101
 30
0.0
 11
9.307008289050067E-17
 21
-1.52
 31
0.0
210
0.0
220
0.0
230
1.0
 40
0.657895
 41
0.0
 42
3.141592653589793
  0
ELLIPSE
  5
686
330
1F
100
AcDbEntity
  8
GR1-1
  6
HIDDEN2
 62
     2
100
AcDbEllipse
 10
795.210944
 20
84.560101
 30
0.0
 11
9.307008289050067E-17
 21
-1.52
 31
0.0
210
0.0
220
0.0
230
1.0
 40
0.657895
 41
3.141592653589793
 42
6.283185307179586
  0
ELLIPSE
  5
687
330
1F
100
AcDbEntity
  8
GR1-1
  6
CONTINUOUS
 62
     4
100
AcDbEllipse
 10
782.710944
 20
84.960101
 30
0.0
 11
9.307008289050067E-17
 21
-1.52
 31
0.0
210
0.0
220
0.0
230
1.0
 40
0.657895
 41
0.0
 42
3.141592653589793
  0
INSERT
  5
68B
330
1F
100
AcDbEntity
  8
0
100
AcDbBlockReference
  2
BLKF106
 10
0.0
 20
0.0
 30
0.0
  0
ELLIPSE
  5
697
330
1F
100
AcDbEntity
  8
GR1-1
  6
CONTINUOUS
 62
     4
100
AcDbEllipse
 10
795.210944
 20
84.960101
 30
0.0
 11
9.307008289050067E-17
 21
-1.52
 31
0.0
210
0.0
220
0.0
230
1.0
 40
0.657895
 41
3.141592653589793
 42
6.283185307179586
  0
LINE
  5
698
330
1F
100
AcDbEntity
  8
GR1-1
  6
CONTINUOUS
 62
     2
100
AcDbLine
 10
744.262136
 20
140.338326
 30
0.0
 11
744.06779
 21
139.053606
 31
0.0
  0
LINE
  5
699
330
1F
100
AcDbEntity
  8
GR1-1
  6
CONTINUOUS
 62
     2
100
AcDbLine
 10
739.001476
 20
139.707595
 30
0.0
 11
738.991839
 21
141.654098
 31
0.0
  0
INSERT
  5
69D
330
1F
100
AcDbEntity
  8
0
100
AcDbBlockReference
  2
BLKF107
 10
0.0
 20
0.0
 30
0.0
  0
LINE
  5
6A2
330
1F
100
AcDbEntity
  8
GR1-1
  6
CONTINUOUS
 62
     4
100
AcDbLine
 10
733.203883
 20
143.249136
 30
0.0
 11
733.203883
 21
128.938301
 31
0.0
  0
LINE
  5
6A3
330
1F
100
AcDbEntity
  8
GR1-1
  6
CONTINUOUS
 62
     4
100
AcDbLine
 10
745.703883
 20
143.249136
 30
0.0
 11
745.703883
 21
128.938301
 31
0.0
  0
LINE
  5
6A4
330
1F
100
AcDbEntity
  8
GR1-1
  6
CONTINUOUS
 62
     2
100
AcDbLine
 10
739.432091
 20
139.098612
 30
0.0
 11
741.409634
 21
139.572108
 31
0.0
  0
LINE
  5
6A5
330
1F
100
AcDbEntity
  8
GR1-1
  6
CONTINUOUS
 62
     2
100
AcDbLine
 10
740.525065
 20
130.53995
 30
0.0
 11
742.409304
 21
132.347282
 31
0.0
  0
LINE
  5
6A6
330
1F
100
AcDbEntity
  8
GR1-1
  6
CONTINUOUS
 62
     2
100
AcDbLine
 10
743.582673
 20
137.730549
 30
0.0
 11
741.004138
 21
131.989742
 31
0.0
  0
LINE
  5
6A7
330
1F
100
AcDbEntity
  8
GR1-1
  6
CONTINUOUS
 62
     4
100
AcDbLine
 10
733.203883
 20
128.938301
 30
0.0
 11
745.703883
 21
128.938301
 31
0.0
  0
LINE
  5
6A8
330
1F
100
AcDbEntity
  8
GR1-1
  6
CONTINUOUS
 62
     2
100
AcDbLine
 10
737.185931
 20
133.577863
 30
0.0
 11
738.286636
 21
132.38146
 31
0.0
  0
LINE
  5
6A9
330
1F
100
AcDbEntity
  8
GR1-1
  6
CONTINUOUS
 62
     2
100
AcDbLine
 10
736.139683
 20
134.567531
 30
0.0
 11
737.076342
 21
132.591564
 31
0.0
  0
LINE
  5
6AA
330
1F
100
AcDbEntity
  8
GR1-1
  6
CONTINUOUS
 62
     2
100
AcDbLine
 10
737.076342
 20
132.591564
 30
0.0
 11
737.39481
 21
129.140407
 31
0.0
  0
LINE
  5
6AB
330
1F
100
AcDbEntity
  8
GR1-1
  6
CONTINUOUS
 62
     2
100
AcDbLine
 10
738.275686
 20
130.126409
 30
0.0
 11
738.275686
 21
129.140407
 31
0.0
  0
LINE
  5
6AC
330
1F
100
AcDbEntity
  8
GR1-1
  6
CONTINUOUS
 62
     2
100
AcDbLine
 10
741.004138
 20
131.989742
 30
0.0
 11
738.342233
 21
130.991528
 31
0.0
  0
LINE
  5
6AD
330
1F
100
AcDbEntity
  8
GR1-1
  6
CONTINUOUS
 62
     2
100
AcDbLine
 10
739.207353
 20
130.625516
 30
0.0
 11
738.275686
 21
130.126409
 31
0.0
  0
LINE
  5
6AE
330
1F
100
AcDbEntity
  8
GR1-1
  6
CONTINUOUS
 62
     2
100
AcDbLine
 10
738.342233
 20
130.991528
 30
0.0
 11
738.286636
 21
132.38146
 31
0.0
  0
LINE
  5
6AF
330
1F
100
AcDbEntity
  8
GR1-1
  6
CONTINUOUS
 62
     2
100
AcDbLine
 10
740.525065
 20
130.53995
 30
0.0
 11
739.207353
 21
130.625516
 31
0.0
  0
LINE
  5
6B0
330
1F
100
AcDbEntity
  8
GR1-1
  6
CONTINUOUS
 62
     2
100
AcDbLine
 10
736.198475
 20
136.913759
 30
0.0
 11
737.710031
 21
138.145398
 31
0.0
  0
LINE
  5
6B1
330
1F
100
AcDbEntity
  8
GR1-1
  6
CONTINUOUS
 62
     2
100
AcDbLine
 10
735.892008
 20
136.00077
 30
0.0
 11
733.48602
 21
137.762902
 31
0.0
  0
LINE
  5
6B2
330
1F
100
AcDbEntity
  8
GR1-1
  6
CONTINUOUS
 62
     2
100
AcDbLine
 10
735.633136
 20
135.285065
 30
0.0
 11
733.383883
 21
135.09097
 31
0.0
  0
LINE
  5
6B3
330
1F
100
AcDbEntity
  8
GR1-1
  6
CONTINUOUS
 62
     2
100
AcDbLine
 10
733.383883
 20
134.32021
 30
0.0
 11
735.029342
 21
134.702938
 31
0.0
  0
LINE
  5
6B4
330
1F
100
AcDbEntity
  8
GR1-1
  6
CONTINUOUS
 62
     2
100
AcDbLine
 10
735.633136
 20
135.285065
 30
0.0
 11
735.892008
 21
136.00077
 31
0.0
  0
LINE
  5
6B5
330
1F
100
AcDbEntity
  8
GR1-1
  6
CONTINUOUS
 62
     2
100
AcDbLine
 10
735.029342
 20
134.702938
 30
0.0
 11
736.139683
 21
134.567531
 31
0.0
  0
LINE
  5
6B6
330
1F
100
AcDbEntity
  8
GR1-1
  6
CONTINUOUS
 62
     2
100
AcDbLine
 10
736.198475
 20
136.913759
 30
0.0
 11
733.383883
 21
139.132562
 31
0.0
  0
LINE
  5
6B7
330
1F
100
AcDbEntity
  8
GR1-1
  6
CONTINUOUS
 62
     2
100
AcDbLine
 10
733.48602
 20
137.762902
 30
0.0
 11
733.383883
 21
137.909299
 31
0.0
  0
LINE
  5
6B8
330
1F
100
AcDbEntity
  8
GR1-1
  6
CONTINUOUS
 62
     2
100
AcDbLine
 10
737.901454
 20
136.88941
 30
0.0
 11
736.446207
 21
135.495666
 31
0.0
  0
LINE
  5
6B9
330
1F
100
AcDbEntity
  8
GR1-1
  6
CONTINUOUS
 62
     2
100
AcDbLine
 10
736.446207
 20
135.495666
 30
0.0
 11
737.185931
 21
133.577863
 31
0.0
  0
LINE
  5
6BA
330
1F
100
AcDbEntity
  8
GR1-1
  6
CONTINUOUS
 62
     2
100
AcDbLine
 10
739.432091
 20
139.098612
 30
0.0
 11
738.652899
 21
138.050733
 31
0.0
  0
LINE
  5
6BB
330
1F
100
AcDbEntity
  8
GR1-1
  6
CONTINUOUS
 62
     2
100
AcDbLine
 10
737.710031
 20
138.145398
 30
0.0
 11
739.001476
 21
139.707595
 31
0.0
  0
LINE
  5
6BC
330
1F
100
AcDbEntity
  8
GR1-1
  6
CONTINUOUS
 62
     2
100
AcDbLine
 10
738.652899
 20
138.050733
 30
0.0
 11
737.901454
 21
136.88941
 31
0.0
  0
LINE
  5
6BD
330
1F
100
AcDbEntity
  8
GR1-1
  6
CONTINUOUS
 62
     2
100
AcDbLine
 10
744.184887
 20
131.764497
 30
0.0
 11
742.701333
 21
132.860611
 31
0.0
  0
LINE
  5
6BE
330
1F
100
AcDbEntity
  8
GR1-1
  6
CONTINUOUS
 62
     2
100
AcDbLine
 10
744.06822
 20
129.140407
 30
0.0
 11
744.003765
 21
130.44481
 31
0.0
  0
LINE
  5
6BF
330
1F
100
AcDbEntity
  8
GR1-1
  6
CONTINUOUS
 62
     2
100
AcDbLine
 10
745.096128
 20
129.835608
 30
0.0
 11
745.174642
 21
129.140407
 31
0.0
  0
LINE
  5
6C0
330
1F
100
AcDbEntity
  8
GR1-1
  6
CONTINUOUS
 62
     2
100
AcDbLine
 10
744.003765
 20
130.44481
 30
0.0
 11
742.409304
 21
132.347282
 31
0.0
  0
LINE
  5
6C1
330
1F
100
AcDbEntity
  8
GR1-1
  6
CONTINUOUS
 62
     2
100
AcDbLine
 10
744.184887
 20
131.764497
 30
0.0
 11
745.096128
 21
129.835608
 31
0.0
  0
LINE
  5
6C2
330
1F
100
AcDbEntity
  8
GR1-1
  6
CONTINUOUS
 62
     2
100
AcDbLine
 10
742.785361
 20
133.301758
 30
0.0
 11
744.096073
 21
136.835299
 31
0.0
  0
LINE
  5
6C3
330
1F
100
AcDbEntity
  8
GR1-1
  6
CONTINUOUS
 62
     2
100
AcDbLine
 10
742.701333
 20
132.860611
 30
0.0
 11
742.785361
 21
133.301758
 31
0.0
  0
LINE
  5
6C4
330
1F
100
AcDbEntity
  8
GR1-1
  6
CONTINUOUS
 62
     2
100
AcDbLine
 10
743.292843
 20
139.633351
 30
0.0
 11
743.582673
 21
137.730549
 31
0.0
  0
LINE
  5
6C5
330
1F
100
AcDbEntity
  8
GR1-1
  6
CONTINUOUS
 62
     2
100
AcDbLine
 10
741.409634
 20
139.572108
 30
0.0
 11
743.292843
 21
139.633351
 31
0.0
  0
LINE
  5
6C6
330
1F
100
AcDbEntity
  8
GR1-1
  6
CONTINUOUS
 62
     2
100
AcDbLine
 10
745.540034
 20
138.027406
 30
0.0
 11
744.406083
 21
138.038725
 31
0.0
  0
LINE
  5
6C7
330
1F
100
AcDbEntity
  8
GR1-1
  6
CONTINUOUS
 62
     2
100
AcDbLine
 10
744.096073
 20
136.835299
 30
0.0
 11
745.523883
 21
137.402161
 31
0.0
  0
LINE
  5
6C8
330
1F
100
AcDbEntity
  8
GR1-1
  6
CONTINUOUS
 62
     2
100
AcDbLine
 10
744.06779
 20
139.053606
 30
0.0
 11
744.406083
 21
138.038725
 31
0.0
  0
LINE
  5
6C9
330
1F
100
AcDbEntity
  8
GR1-1
  6
CONTINUOUS
 62
     2
100
AcDbLine
 10
740.536542
 20
139.907913
 30
0.0
 11
742.752854
 21
140.109396
 31
0.0
  0
LINE
  5
6CA
330
1F
100
AcDbEntity
  8
GR1-1
  6
CONTINUOUS
 62
     4
100
AcDbLine
 10
733.203883
 20
143.249136
 30
0.0
 11
745.703883
 21
143.249136
 31
0.0
  0
LINE
  5
6CB
330
1F
100
AcDbEntity
  8
GR1-1
  6
CONTINUOUS
 62
     2
100
AcDbLine
 10
738.991839
 20
141.654098
 30
0.0
 11
737.775117
 21
143.076727
 31
0.0
  0
LINE
  5
6CC
330
1F
100
AcDbEntity
  8
GR1-1
  6
CONTINUOUS
 62
     2
100
AcDbLine
 10
739.002448
 20
143.076727
 30
0.0
 11
739.596288
 21
142.258547
 31
0.0
  0
LINE
  5
6CD
330
1F
100
AcDbEntity
  8
GR1-1
  6
CONTINUOUS
 62
     2
100
AcDbLine
 10
739.663449
 20
140.042235
 30
0.0
 11
740.536542
 21
139.907913
 31
0.0
  0
LINE
  5
6CE
330
1F
100
AcDbEntity
  8
GR1-1
  6
CONTINUOUS
 62
     2
100
AcDbLine
 10
739.596288
 20
142.258547
 30
0.0
 11
739.663449
 21
140.042235
 31
0.0
  0
LINE
  5
6CF
330
1F
100
AcDbEntity
  8
GR1-1
  6
CONTINUOUS
 62
     2
100
AcDbLine
 10
742.752854
 20
140.109396
 30
0.0
 11
745.523883
 21
141.827489
 31
0.0
  0
LINE
  5
6D0
330
1F
100
AcDbEntity
  8
GR1-1
  6
CONTINUOUS
 62
     2
100
AcDbLine
 10
745.523883
 20
140.838674
 30
0.0
 11
744.262136
 21
140.338326
 31
0.0
  0
ARC
  5
6D1
330
1F
100
AcDbEntity
  8
GR1-1
  6
CONTINUOUS
 62
     4
100
AcDbCircle
 10
684.397451
 20
138.493719
 30
0.0
 40
0.6
100
AcDbArc
 50
90.0
 51
180.0
  0
ARC
  5
6D2
330
1F
100
AcDbEntity
  8
GR1-1
  6
CONTINUOUS
 62
     4
100
AcDbCircle
 10
684.397451
 20
133.693719
 30
0.0
 40
0.6
100
AcDbArc
 50
180.0
 51
270.0
  0
ARC
  5
6D3
330
1F
100
AcDbEntity
  8
GR1-1
  6
CONTINUOUS
 62
     4
100
AcDbCircle
 10
700.310917
 20
133.693719
 30
0.0
 40
0.6
100
AcDbArc
 50
270.0
 51
360.0
  0
ARC
  5
6D4
330
1F
100
AcDbEntity
  8
GR1-1
  6
CONTINUOUS
 62
     4
100
AcDbCircle
 10
700.310917
 20
138.493719
 30
0.0
 40
0.6
100
AcDbArc
 50
0.0
 51
90.0
  0
ARC
  5
6D5
330
1F
100
AcDbEntity
  8
GR1-1
  6
CONTINUOUS
 62
     4
100
AcDbCircle
 10
795.778536
 20
138.493719
 30
0.0
 40
0.6
100
AcDbArc
 50
90.0
 51
180.0
  0
LINE
  5
6D6
330
1F
100
AcDbEntity
  8
GR1-1
  6
CONTINUOUS
 62
     4
100
AcDbLine
 10
795.178536
 20
139.693719
 30
0.0
 11
795.778536
 21
139.093719
 31
0.0
  0
LINE
  5
6D7
330
1F
100
AcDbEntity
  8
GR1-1
  6
CONTINUOUS
 62
     4
100
AcDbLine
 10
795.178536
 20
132.493719
 30
0.0
 11
795.778536
 21
133.093719
 31
0.0
  0
ARC
  5
6D8
330
1F
100
AcDbEntity
  8
GR1-1
  6
CONTINUOUS
 62
     4
100
AcDbCircle
 10
795.778536
 20
133.693719
 30
0.0
 40
0.6
100
AcDbArc
 50
180.0
 51
270.0
  0
LINE
  5
6D9
330
1F
100
AcDbEntity
  8
GR1-1
  6
CONTINUOUS
 62
     4
100
AcDbLine
 10
812.292003
 20
139.693719
 30
0.0
 11
795.178536
 21
139.693719
 31
0.0
  0
LINE
  5
6DA
330
1F
100
AcDbEntity
  8
GR1-1
  6
CONTINUOUS
 62
     4
100
AcDbLine
 10
812.292003
 20
132.493719
 30
0.0
 11
795.178536
 21
132.493719
 31
0.0
  0
LINE
  5
6DB
330
1F
100
AcDbEntity
  8
GR1-1
  6
CONTINUOUS
 62
     4
100
AcDbLine
 10
794.578536
 20
133.093719
 30
0.0
 11
794.578536
 21
139.093719
 31
0.0
  0
LINE
  5
6DC
330
1F
100
AcDbEntity
  8
GR1-1
  6
CONTINUOUS
 62
     4
100
AcDbLine
 10
794.578536
 20
133.093719
 30
0.0
 11
795.178536
 21
133.693719
 31
0.0
  0
ARC
  5
6DD
330
1F
100
AcDbEntity
  8
GR1-1
  6
CONTINUOUS
 62
     4
100
AcDbCircle
 10
795.178536
 20
133.093719
 30
0.0
 40
0.6
100
AcDbArc
 50
180.0
 51
270.0
  0
LINE
  5
6DE
330
1F
100
AcDbEntity
  8
GR1-1
  6
CONTINUOUS
 62
     4
100
AcDbLine
 10
795.178536
 20
133.693719
 30
0.0
 11
795.178536
 21
138.493719
 31
0.0
  0
LINE
  5
6DF
330
1F
100
AcDbEntity
  8
GR1-1
  6
CONTINUOUS
 62
     4
100
AcDbLine
 10
794.578536
 20
139.093719
 30
0.0
 11
795.178536
 21
138.493719
 31
0.0
  0
ARC
  5
6E0
330
1F
100
AcDbEntity
  8
GR1-1
  6
CONTINUOUS
 62
     4
100
AcDbCircle
 10
795.178536
 20
139.093719
 30
0.0
 40
0.6
100
AcDbArc
 50
90.0
 51
180.0
  0
INSERT
  5
6E4
330
1F
100
AcDbEntity
  8
0
100
AcDbBlockReference
  2
BLKF108
 10
0.0
 20
0.0
 30
0.0
  0
INSERT
  5
6EC
330
1F
100
AcDbEntity
  8
0
100
AcDbBlockReference
  2
BLKF109
 10
0.0
 20
0.0
 30
0.0
  0
LINE
  5
6F1
330
1F
100
AcDbEntity
  8
GR1-1
  6
CONTINUOUS
 62
     4
100
AcDbLine
 10
811.692003
 20
139.093719
 30
0.0
 11
795.778536
 21
139.093719
 31
0.0
  0
LINE
  5
6F2
330
1F
100
AcDbEntity
  8
GR1-1
  6
CONTINUOUS
 62
     4
100
AcDbLine
 10
811.692003
 20
133.093719
 30
0.0
 11
795.778536
 21
133.093719
 31
0.0
  0
LINE
  5
6F3
330
1F
100
AcDbEntity
  8
GR1-1
  6
CONTINUOUS
 62
     4
100
AcDbLine
 10
812.892003
 20
133.093719
 30
0.0
 11
812.292003
 21
133.693719
 31
0.0
  0
ARC
  5
6F4
330
1F
100
AcDbEntity
  8
GR1-1
  6
CONTINUOUS
 62
     4
100
AcDbCircle
 10
811.692003
 20
133.693719
 30
0.0
 40
0.6
100
AcDbArc
 50
270.0
 51
360.0
  0
LINE
  5
6F5
330
1F
100
AcDbEntity
  8
GR1-1
  6
CONTINUOUS
 62
     4
100
AcDbLine
 10
812.892003
 20
139.093719
 30
0.0
 11
812.892003
 21
133.093719
 31
0.0
  0
ARC
  5
6F6
330
1F
100
AcDbEntity
  8
GR1-1
  6
CONTINUOUS
 62
     4
100
AcDbCircle
 10
812.292003
 20
133.093719
 30
0.0
 40
0.6
100
AcDbArc
 50
270.0
 51
360.0
  0
LINE
  5
6F7
330
1F
100
AcDbEntity
  8
GR1-1
  6
CONTINUOUS
 62
     4
100
AcDbLine
 10
811.692003
 20
133.093719
 30
0.0
 11
812.292003
 21
132.493719
 31
0.0
  0
LINE
  5
6F8
330
1F
100
AcDbEntity
  8
GR1-1
  6
CONTINUOUS
 62
     4
100
AcDbLine
 10
812.292003
 20
138.493719
 30
0.0
 11
812.292003
 21
133.693719
 31
0.0
  0
ARC
  5
6F9
330
1F
100
AcDbEntity
  8
GR1-1
  6
CONTINUOUS
 62
     4
100
AcDbCircle
 10
812.292003
 20
139.093719
 30
0.0
 40
0.6
100
AcDbArc
 50
0.0
 51
90.0
  0
LINE
  5
6FA
330
1F
100
AcDbEntity
  8
GR1-1
  6
CONTINUOUS
 62
     4
100
AcDbLine
 10
812.292003
 20
138.493719
 30
0.0
 11
812.892003
 21
139.093719
 31
0.0
  0
LINE
  5
6FB
330
1F
100
AcDbEntity
  8
GR1-1
  6
CONTINUOUS
 62
     4
100
AcDbLine
 10
812.292003
 20
139.693719
 30
0.0
 11
811.692003
 21
139.093719
 31
0.0
  0
ARC
  5
6FC
330
1F
100
AcDbEntity
  8
GR1-1
  6
CONTINUOUS
 62
     4
100
AcDbCircle
 10
811.692003
 20
138.493719
 30
0.0
 40
0.6
100
AcDbArc
 50
0.0
 51
90.0
  0
INSERT
  5
700
330
1F
100
AcDbEntity
  8
0
100
AcDbBlockReference
  2
BLKF110
 10
0.0
 20
0.0
 30
0.0
  0
TEXT
  5
705
330
1F
100
AcDbEntity
  8
GR1-1
  6
CONTINUOUS
 62
     4
100
AcDbText
 10
749.839766
 20
181.771563
 30
0.0
 40
1.5
  1
LKP-75
 41
0.7
  7
FX_VECTOR
 72
     5
 11
756.139766
 21
181.771563
 31
0.0
100
AcDbText
  0
ENDSEC
  0
SECTION
  2
OBJECTS
  0
DICTIONARY
  5
C
330
0
100
AcDbDictionary
  3
ACAD_GROUP
350
D
  3
ACAD_LAYOUT
350
1A
  3
ACAD_MLINESTYLE
350
17
  3
ACAD_PLOTSETTINGS
350
19
1001
ACAD
1000
TREAT_AS_HARD
1070
     0
  0
DICTIONARY
  5
70C
330
29
100
AcDbDictionary
  3
ACAD_XREC_ROUNDTRIP
360
70D
  0
DICTIONARY
  5
D
102
{ACAD_REACTORS
330
C
102
}
330
C
100
AcDbDictionary
1001
ACAD
1000
TREAT_AS_HARD
1070
     0
  0
DICTIONARY
  5
1A
102
{ACAD_REACTORS
330
C
102
}
330
C
100
AcDbDictionary
1001
ACAD
1000
TREAT_AS_HARD
1070
     0
  0
DICTIONARY
  5
17
102
{ACAD_REACTORS
330
C
102
}
330
C
100
AcDbDictionary
  3
STANDARD
350
18
1001
ACAD
1000
TREAT_AS_HARD
1070
     0
  0
DICTIONARY
  5
19
102
{ACAD_REACTORS
330
C
102
}
330
C
100
AcDbDictionary
1001
ACAD
1000
TREAT_AS_HARD
1070
     0
  0
XRECORD
  5
70D
102
{ACAD_REACTORS
330
70C
102
}
330
70C
100
AcDbXrecord
102
UCS
 74
     0
 71
     1
 10
0.0
 20
0.0
 30
0.0
 10
1.0
 20
0.0
 30
0.0
 10
0.0
 20
1.0
 30
0.0
146
0.0
 79
     0
102
VIEW
281
     0
  0
MLINESTYLE
  5
18
102
{ACAD_REACTORS
330
17
102
}
330
17
100
AcDbMlineStyle
  2
Standard
 70
     0
  3

 62
   256
 51
90.0
 52
90.0
 71
     2
 49
0.5
 62
   256
  6
BYLAYER
 49
-0.5
 62
   256
  6
BYLAYER
  0
ENDSEC
  0
EOF
