  0
SECTION
  2
HEADER
  9
$ACADVER
  1
AC1012
  9
$DWGCODEPAGE
  3
ansi_932
  9
$INSBASE
 10
591.720957
 20
8.11036
 30
0.0
  9
$EXTMIN
 10
591.720957
 20
8.11036
 30
0.0
  9
$EXTMAX
 10
962.970964
 20
270.610366
 30
0.0
  9
$LIMMIN
 10
591.720957
 20
8.11036
  9
$LIMMAX
 10
962.970964
 20
270.610366
  9
$ORTHOMODE
 70
     0
  9
$REGENMODE
 70
     1
  9
$FILLMODE
 70
     1
  9
$QTEXTMODE
 70
     0
  9
$MIRRTEXT
 70
     1
  9
$DRAGMODE
 70
     2
  9
$LTSCALE
 40
1.0
  9
$OSMODE
 70
    37
  9
$ATTMODE
 70
     1
  9
$TEXTSIZE
 40
0.2
  9
$TRACEWID
 40
0.05
  9
$TEXTSTYLE
  7
STYLE1
  9
$CLAYER
  8
0
  9
$CELTYPE
  6
BYLAYER
  9
$CECOLOR
 62
   256
  9
$CELTSCALE
 40
1.0
  9
$DELOBJ
 70
     1
  9
$DISPSILH
 70
     0
  9
$DIMSCALE
 40
1.0
  9
$DIMASZ
 40
2.0
  9
$DIMEXO
 40
2.0
  9
$DIMDLI
 40
7.0
  9
$DIMRND
 40
0.0
  9
$DIMDLE
 40
6.0
  9
$DIMEXE
 40
1.0
  9
$DIMTP
 40
0.0
  9
$DIMTM
 40
0.0
  9
$DIMTXT
 40
3.5
  9
$DIMCEN
 40
2.5
  9
$DIMTSZ
 40
0.0
  9
$DIMTOL
 70
     0
  9
$DIMLIM
 70
     0
  9
$DIMTIH
 70
     0
  9
$DIMTOH
 70
     0
  9
$DIMSE1
 70
     0
  9
$DIMSE2
 70
     0
  9
$DIMTAD
 70
     1
  9
$DIMZIN
 70
     8
  9
$DIMBLK
  1

  9
$DIMASO
 70
     1
  9
$DIMSHO
 70
     1
  9
$DIMPOST
  1

  9
$DIMAPOST
  1

  9
$DIMALT
 70
     0
  9
$DIMALTD
 70
     3
  9
$DIMALTF
 40
0.03937
  9
$DIMLFAC
 40
1.0
  9
$DIMTOFL
 70
     1
  9
$DIMTVP
 40
0.0
  9
$DIMTIX
 70
     0
  9
$DIMSOXD
 70
     0
  9
$DIMSAH
 70
     1
  9
$DIMBLK1
  1
FXTIP_ARROW_S
  9
$DIMBLK2
  1
FXTIP_ARROW_E
  9
$DIMSTYLE
  2
FXDIMINFO
  9
$DIMCLRD
 70
     7
  9
$DIMCLRE
 70
     7
  9
$DIMCLRT
 70
     7
  9
$DIMTFAC
 40
1.0
  9
$DIMGAP
 40
1.0
  9
$DIMJUST
 70
     0
  9
$DIMSD1
 70
     0
  9
$DIMSD2
 70
     0
  9
$DIMTOLJ
 70
     0
  9
$DIMTZIN
 70
     8
  9
$DIMALTZ
 70
     0
  9
$DIMALTTZ
 70
     0
  9
$DIMFIT
 70
     3
  9
$DIMUPT
 70
     0
  9
$DIMUNIT
 70
     2
  9
$DIMDEC
 70
     2
  9
$DIMTDEC
 70
     2
  9
$DIMALTU
 70
     2
  9
$DIMALTTD
 70
     3
  9
$DIMTXSTY
  7
STYLE1
  9
$DIMAUNIT
 70
     0
  9
$LUNITS
 70
     2
  9
$LUPREC
 70
     4
  9
$SKETCHINC
 40
0.1
  9
$FILLETRAD
 40
0.5
  9
$AUNITS
 70
     0
  9
$AUPREC
 70
     0
  9
$MENU
  1
.
  9
$ELEVATION
 40
0.0
  9
$PELEVATION
 40
0.0
  9
$THICKNESS
 40
0.0
  9
$LIMCHECK
 70
     0
  9
$CHAMFERA
 40
0.5
  9
$CHAMFERB
 40
0.5
  9
$CHAMFERC
 40
1.0
  9
$CHAMFERD
 40
0.0
  9
$SKPOLY
 70
     0
  9
$TDCREATE
 40
2455587.686215995
  9
$TDUPDATE
 40
2455587.686216007
  9
$TDINDWG
 40
0.0000000116
  9
$TDUSRTIMER
 40
0.0000000116
  9
$USRTIMER
 70
     1
  9
$ANGBASE
 50
0.0
  9
$ANGDIR
 70
     0
  9
$PDMODE
 70
     0
  9
$PDSIZE
 40
0.0
  9
$PLINEWID
 40
0.0
  9
$COORDS
 70
     1
  9
$SPLFRAME
 70
     0
  9
$SPLINETYPE
 70
     6
  9
$SPLINESEGS
 70
     8
  9
$ATTDIA
 70
     0
  9
$ATTREQ
 70
     1
  9
$HANDLING
 70
     1
  9
$HANDSEED
  5
775
  9
$SURFTAB1
 70
     6
  9
$SURFTAB2
 70
     6
  9
$SURFTYPE
 70
     6
  9
$SURFU
 70
     6
  9
$SURFV
 70
     6
  9
$UCSNAME
  2

  9
$UCSORG
 10
0.0
 20
0.0
 30
0.0
  9
$UCSXDIR
 10
1.0
 20
0.0
 30
0.0
  9
$UCSYDIR
 10
0.0
 20
1.0
 30
0.0
  9
$PUCSNAME
  2

  9
$PUCSORG
 10
0.0
 20
0.0
 30
0.0
  9
$PUCSXDIR
 10
1.0
 20
0.0
 30
0.0
  9
$PUCSYDIR
 10
0.0
 20
1.0
 30
0.0
  9
$USERI1
 70
     0
  9
$USERI2
 70
     0
  9
$USERI3
 70
     0
  9
$USERI4
 70
     0
  9
$USERI5
 70
     0
  9
$USERR1
 40
0.0
  9
$USERR2
 40
0.0
  9
$USERR3
 40
0.0
  9
$USERR4
 40
0.0
  9
$USERR5
 40
0.0
  9
$WORLDVIEW
 70
     1
  9
$SHADEDGE
 70
     3
  9
$SHADEDIF
 70
    70
  9
$TILEMODE
 70
     1
  9
$MAXACTVP
 70
    64
  9
$PINSBASE
 10
0.0
 20
0.0
 30
0.0
  9
$PLIMCHECK
 70
     0
  9
$PEXTMIN
 10
1.000000E+20
 20
1.000000E+20
 30
1.000000E+20
  9
$PEXTMAX
 10
-1.000000E+20
 20
-1.000000E+20
 30
-1.000000E+20
  9
$PLIMMIN
 10
0.0
 20
0.0
  9
$PLIMMAX
 10
12.0
 20
9.0
  9
$UNITMODE
 70
     0
  9
$VISRETAIN
 70
     1
  9
$PLINEGEN
 70
     0
  9
$PSLTSCALE
 70
     1
  9
$TREEDEPTH
 70
  3020
  9
$PICKSTYLE
 70
     1
  9
$CMLSTYLE
  2
STANDARD
  9
$CMLJUST
 70
     0
  9
$CMLSCALE
 40
1.0
  9
$SAVEIMAGES
 70
     1
  0
ENDSEC
  0
SECTION
  2
CLASSES
  0
CLASS
  1
ACDBDICTIONARYWDFLT
  2
AcDbDictionaryWithDefault
  3
ObjectDBX Classes
 90
        0
280
     0
281
     0
  0
CLASS
  1
XRECORD
  2
AcDbXrecord
  3
AutoCAD 2000
 90
    32768
280
     0
281
     0
  0
CLASS
  1
LWPOLYLINE
  2
AcDbPolyline
  3
AutoCAD 2000
 90
    32768
280
     0
281
     1
  0
CLASS
  1
HATCH
  2
AcDbHatch
  3
AutoCAD 2000
 90
    32768
280
     0
281
     1
  0
CLASS
  1
ACDBPLACEHOLDER
  2
AcDbPlaceHolder
  3
ObjectDBX Classes
 90
        0
280
     0
281
     0
  0
CLASS
  1
LAYOUT
  2
AcDbLayout
  3
ObjectDBX Classes
 90
        0
280
     0
281
     0
  0
ENDSEC
  0
SECTION
  2
TABLES
  0
TABLE
  2
VPORT
  5
8
330
0
100
AcDbSymbolTable
 70
     1
  0
VPORT
  5
29
102
{ACAD_XDICTIONARY
360
773
102
}
330
8
100
AcDbSymbolTableRecord
100
AcDbViewportTableRecord
  2
*ACTIVE
 70
     0
 10
0.0
 20
0.0
 11
1.0
 21
1.0
 12
777.34596
 22
139.360363
 13
0.0
 23
0.0
 14
0.5
 24
0.5
 15
0.5
 25
0.5
 16
0.0
 26
0.0
 36
1.0
 17
0.0
 27
0.0
 37
0.0
 40
262.500005
 41
1.414286
 42
50.0
 43
0.0
 44
0.0
 50
0.0
 51
0.0
 71
     0
 72
   100
 73
     1
 74
     3
 75
     0
 76
     0
 77
     0
 78
     0
  0
ENDTAB
  0
TABLE
  2
LTYPE
  5
5
330
0
100
AcDbSymbolTable
 70
     6
  0
LTYPE
  5
14
330
5
100
AcDbSymbolTableRecord
100
AcDbLinetypeTableRecord
  2
BYBLOCK
 70
     0
  3

 72
    65
 73
     0
 40
0.0
  0
LTYPE
  5
15
330
5
100
AcDbSymbolTableRecord
100
AcDbLinetypeTableRecord
  2
BYLAYER
 70
     0
  3

 72
    65
 73
     0
 40
0.0
  0
LTYPE
  5
16
330
5
100
AcDbSymbolTableRecord
100
AcDbLinetypeTableRecord
  2
CONTINUOUS
 70
     0
  3
--------------------
 72
    65
 73
     0
 40
0.0
  0
LTYPE
  5
A6
330
5
100
AcDbSymbolTableRecord
100
AcDbLinetypeTableRecord
  2
極太の実線
 70
     0
  3

 72
    65
 73
     0
 40
0.0
  0
LTYPE
  5
AF
330
5
100
AcDbSymbolTableRecord
100
AcDbLinetypeTableRecord
  2
太い実線
 70
     0
  3

 72
    65
 73
     0
 40
0.0
  0
LTYPE
  5
B6
330
5
100
AcDbSymbolTableRecord
100
AcDbLinetypeTableRecord
  2
細い実線
 70
     0
  3

 72
    65
 73
     0
 40
0.0
  0
LTYPE
  5
CC
330
5
100
AcDbSymbolTableRecord
100
AcDbLinetypeTableRecord
  2
020-1-CENTER2
 70
     0
  3

 72
    65
 73
     4
 40
1.0
 49
0.7
 74
     0
 49
-0.1
 74
     0
 49
0.1
 74
     0
 49
-0.1
 74
     0
  0
LTYPE
  5
65F
330
5
100
AcDbSymbolTableRecord
100
AcDbLinetypeTableRecord
  2
HIDDEN2
 70
     0
  3

 72
    65
 73
     2
 40
0.2
 49
0.1
 74
     0
 49
-0.1
 74
     0
  0
ENDTAB
  0
TABLE
  2
LAYER
  5
2
330
0
100
AcDbSymbolTable
 70
    19
  0
LAYER
  5
10
330
2
100
AcDbSymbolTableRecord
100
AcDbLayerTableRecord
  2
0
 70
     0
 62
     7
  6
CONTINUOUS
  0
LAYER
  5
A5
330
2
100
AcDbSymbolTableRecord
100
AcDbLayerTableRecord
  2
GR1-1
 70
     0
 62
     7
  6
CONTINUOUS
  0
ENDTAB
  0
TABLE
  2
STYLE
  5
3
330
0
100
AcDbSymbolTable
 70
     4
  0
STYLE
  5
11
330
3
100
AcDbSymbolTableRecord
100
AcDbTextStyleTableRecord
  2
STANDARD
 70
     0
 40
0.0
 41
1.0
 50
0.0
 71
     0
 42
0.2
  3
txt
  4

  0
STYLE
  5
3C
330
3
100
AcDbSymbolTableRecord
100
AcDbTextStyleTableRecord
  2
STYLE1
 70
     0
 40
0.0
 41
1.0
 50
0.0
 71
     0
 42
0.2
  3
MONOTXT.SHX
  4
extfont.shx
  0
STYLE
  5
3D
330
3
100
AcDbSymbolTableRecord
100
AcDbTextStyleTableRecord
  2
FX_VECTOR
 70
     0
 40
0.0
 41
1.0
 50
0.0
 71
     0
 42
0.2
  3
MONOTXT.SHX
  4
BIGFONT.SHX
  0
ENDTAB
  0
TABLE
  2
VIEW
  5
6
330
0
100
AcDbSymbolTable
 70
     0
  0
ENDTAB
  0
TABLE
  2
UCS
  5
7
330
0
100
AcDbSymbolTable
 70
     0
  0
ENDTAB
  0
TABLE
  2
APPID
  5
9
330
0
100
AcDbSymbolTable
 70
     1
  0
APPID
  5
12
330
9
100
AcDbSymbolTableRecord
100
AcDbRegAppTableRecord
  2
ACAD
 70
     0
  0
ENDTAB
  0
TABLE
  2
DIMSTYLE
  5
A
330
0
100
AcDbSymbolTable
 70
     2
  0
DIMSTYLE
105
27
330
A
100
AcDbSymbolTableRecord
100
AcDbDimStyleTableRecord
  2
STANDARD
 70
     0
  3

  4

  5

  6

  7

 40
1.0
 41
0.18
 42
0.0625
 43
0.38
 44
0.18
 45
0.0
 46
0.0
 47
0.0
 48
0.0
140
0.18
141
0.09
142
0.0
143
25.4
144
1.0
145
0.0
146
1.0
147
0.09
 71
     0
 72
     0
 73
     1
 74
     1
 75
     0
 76
     0
 77
     0
 78
     0
170
     0
171
     2
172
     0
173
     0
174
     0
175
     0
176
     0
177
     0
178
     0
270
     2
271
     4
272
     4
273
     2
274
     2
340
11
275
     0
280
     0
281
     0
282
     0
283
     1
284
     0
285
     0
286
     0
287
     3
288
     0
  0
DIMSTYLE
105
A4
330
A
100
AcDbSymbolTableRecord
100
AcDbDimStyleTableRecord
  2
FXDIMINFO
 70
     0
  3

  4

  5

  6
FXTIP_ARROW_S
  7
FXTIP_ARROW_E
 40
1.0
 41
2.0
 42
2.0
 43
7.0
 44
1.0
 45
0.0
 46
6.0
 47
0.0
 48
0.0
140
3.5
141
2.5
142
0.0
143
0.03937
144
1.0
145
0.0
146
1.0
147
1.0
 71
     0
 72
     0
 73
     0
 74
     0
 75
     0
 76
     0
 77
     1
 78
     8
170
     0
171
     3
172
     1
173
     1
174
     0
175
     0
176
     7
177
     7
178
     7
179
     2
270
     2
271
     2
272
     2
273
     2
274
     3
340
3C
275
     0
280
     0
281
     0
282
     0
283
     0
284
     8
285
     0
286
     0
287
     3
288
     0
  0
ENDTAB
  0
TABLE
  2
BLOCK_RECORD
  5
1
330
0
100
AcDbSymbolTable
 70
   114
  0
BLOCK_RECORD
  5
1F
330
1
100
AcDbSymbolTableRecord
100
AcDbBlockTableRecord
  2
*MODEL_SPACE
  0
BLOCK_RECORD
  5
1B
330
1
100
AcDbSymbolTableRecord
100
AcDbBlockTableRecord
  2
*PAPER_SPACE
  0
BLOCK_RECORD
  5
3E
330
1
100
AcDbSymbolTableRecord
100
AcDbBlockTableRecord
  2
FXTIP_ARROW_S
  0
BLOCK_RECORD
  5
44
330
1
100
AcDbSymbolTableRecord
100
AcDbBlockTableRecord
  2
FXTIP_ARROW_E
  0
BLOCK_RECORD
  5
4A
330
1
100
AcDbSymbolTableRecord
100
AcDbBlockTableRecord
  2
FXTIP_BLACKDOT_S
  0
BLOCK_RECORD
  5
50
330
1
100
AcDbSymbolTableRecord
100
AcDbBlockTableRecord
  2
FXTIP_BLACKDOT_E
  0
BLOCK_RECORD
  5
56
330
1
100
AcDbSymbolTableRecord
100
AcDbBlockTableRecord
  2
FXTIP_TRIANGLE_S
  0
BLOCK_RECORD
  5
5D
330
1
100
AcDbSymbolTableRecord
100
AcDbBlockTableRecord
  2
FXTIP_TRIANGLE_E
  0
BLOCK_RECORD
  5
64
330
1
100
AcDbSymbolTableRecord
100
AcDbBlockTableRecord
  2
FXTIP_ARCHITECT_S
  0
BLOCK_RECORD
  5
6A
330
1
100
AcDbSymbolTableRecord
100
AcDbBlockTableRecord
  2
FXTIP_ARCHITECT_E
  0
BLOCK_RECORD
  5
70
330
1
100
AcDbSymbolTableRecord
100
AcDbBlockTableRecord
  2
FXTIP_CIVIL_S
  0
BLOCK_RECORD
  5
76
330
1
100
AcDbSymbolTableRecord
100
AcDbBlockTableRecord
  2
FXTIP_CIVIL_E
  0
BLOCK_RECORD
  5
7C
330
1
100
AcDbSymbolTableRecord
100
AcDbBlockTableRecord
  2
FXTIP_WHITEDOT_S
  0
BLOCK_RECORD
  5
81
330
1
100
AcDbSymbolTableRecord
100
AcDbBlockTableRecord
  2
FXTIP_WHITEDOT_E
  0
BLOCK_RECORD
  5
86
330
1
100
AcDbSymbolTableRecord
100
AcDbBlockTableRecord
  2
FXTIP_UPARROW_S
  0
BLOCK_RECORD
  5
8B
330
1
100
AcDbSymbolTableRecord
100
AcDbBlockTableRecord
  2
FXTIP_UPARROW_E
  0
BLOCK_RECORD
  5
90
330
1
100
AcDbSymbolTableRecord
100
AcDbBlockTableRecord
  2
FXTIP_DOWNARROW_S
  0
BLOCK_RECORD
  5
95
330
1
100
AcDbSymbolTableRecord
100
AcDbBlockTableRecord
  2
FXTIP_DOWNARROW_E
  0
BLOCK_RECORD
  5
9A
330
1
100
AcDbSymbolTableRecord
100
AcDbBlockTableRecord
  2
FXTIP_BLACKTRIANGLE_S
  0
BLOCK_RECORD
  5
9F
330
1
100
AcDbSymbolTableRecord
100
AcDbBlockTableRecord
  2
FXTIP_BLACKTRIANGLE_E
  0
BLOCK_RECORD
  5
DC
330
1
100
AcDbSymbolTableRecord
100
AcDbBlockTableRecord
  2
BLKF021
  0
BLOCK_RECORD
  5
EB
330
1
100
AcDbSymbolTableRecord
100
AcDbBlockTableRecord
  2
BLKF022
  0
BLOCK_RECORD
  5
FE
330
1
100
AcDbSymbolTableRecord
100
AcDbBlockTableRecord
  2
BLKF023
  0
BLOCK_RECORD
  5
10D
330
1
100
AcDbSymbolTableRecord
100
AcDbBlockTableRecord
  2
BLKF024
  0
BLOCK_RECORD
  5
115
330
1
100
AcDbSymbolTableRecord
100
AcDbBlockTableRecord
  2
BLKF025
  0
BLOCK_RECORD
  5
121
330
1
100
AcDbSymbolTableRecord
100
AcDbBlockTableRecord
  2
BLKF026
  0
BLOCK_RECORD
  5
130
330
1
100
AcDbSymbolTableRecord
100
AcDbBlockTableRecord
  2
BLKF027
  0
BLOCK_RECORD
  5
13F
330
1
100
AcDbSymbolTableRecord
100
AcDbBlockTableRecord
  2
BLKF028
  0
BLOCK_RECORD
  5
14E
330
1
100
AcDbSymbolTableRecord
100
AcDbBlockTableRecord
  2
BLKF029
  0
BLOCK_RECORD
  5
15D
330
1
100
AcDbSymbolTableRecord
100
AcDbBlockTableRecord
  2
BLKF030
  0
BLOCK_RECORD
  5
16C
330
1
100
AcDbSymbolTableRecord
100
AcDbBlockTableRecord
  2
BLKF031
  0
BLOCK_RECORD
  5
17B
330
1
100
AcDbSymbolTableRecord
100
AcDbBlockTableRecord
  2
BLKF032
  0
BLOCK_RECORD
  5
18A
330
1
100
AcDbSymbolTableRecord
100
AcDbBlockTableRecord
  2
BLKF033
  0
BLOCK_RECORD
  5
198
330
1
100
AcDbSymbolTableRecord
100
AcDbBlockTableRecord
  2
BLKF034
  0
BLOCK_RECORD
  5
1A8
330
1
100
AcDbSymbolTableRecord
100
AcDbBlockTableRecord
  2
BLKF035
  0
BLOCK_RECORD
  5
1B6
330
1
100
AcDbSymbolTableRecord
100
AcDbBlockTableRecord
  2
BLKF036
  0
BLOCK_RECORD
  5
1C5
330
1
100
AcDbSymbolTableRecord
100
AcDbBlockTableRecord
  2
BLKF037
  0
BLOCK_RECORD
  5
1D4
330
1
100
AcDbSymbolTableRecord
100
AcDbBlockTableRecord
  2
BLKF038
  0
BLOCK_RECORD
  5
1E3
330
1
100
AcDbSymbolTableRecord
100
AcDbBlockTableRecord
  2
BLKF039
  0
BLOCK_RECORD
  5
1F2
330
1
100
AcDbSymbolTableRecord
100
AcDbBlockTableRecord
  2
BLKF040
  0
BLOCK_RECORD
  5
201
330
1
100
AcDbSymbolTableRecord
100
AcDbBlockTableRecord
  2
BLKF041
  0
BLOCK_RECORD
  5
210
330
1
100
AcDbSymbolTableRecord
100
AcDbBlockTableRecord
  2
BLKF042
  0
BLOCK_RECORD
  5
21E
330
1
100
AcDbSymbolTableRecord
100
AcDbBlockTableRecord
  2
BLKF043
  0
BLOCK_RECORD
  5
22F
330
1
100
AcDbSymbolTableRecord
100
AcDbBlockTableRecord
  2
BLKF044
  0
BLOCK_RECORD
  5
23E
330
1
100
AcDbSymbolTableRecord
100
AcDbBlockTableRecord
  2
BLKF045
  0
BLOCK_RECORD
  5
24D
330
1
100
AcDbSymbolTableRecord
100
AcDbBlockTableRecord
  2
BLKF046
  0
BLOCK_RECORD
  5
25C
330
1
100
AcDbSymbolTableRecord
100
AcDbBlockTableRecord
  2
BLKF047
  0
BLOCK_RECORD
  5
26C
330
1
100
AcDbSymbolTableRecord
100
AcDbBlockTableRecord
  2
BLKF048
  0
BLOCK_RECORD
  5
27B
330
1
100
AcDbSymbolTableRecord
100
AcDbBlockTableRecord
  2
BLKF049
  0
BLOCK_RECORD
  5
28B
330
1
100
AcDbSymbolTableRecord
100
AcDbBlockTableRecord
  2
BLKF050
  0
BLOCK_RECORD
  5
299
330
1
100
AcDbSymbolTableRecord
100
AcDbBlockTableRecord
  2
BLKF051
  0
BLOCK_RECORD
  5
2F7
330
1
100
AcDbSymbolTableRecord
100
AcDbBlockTableRecord
  2
BLKF052
  0
BLOCK_RECORD
  5
306
330
1
100
AcDbSymbolTableRecord
100
AcDbBlockTableRecord
  2
BLKF053
  0
BLOCK_RECORD
  5
315
330
1
100
AcDbSymbolTableRecord
100
AcDbBlockTableRecord
  2
BLKF054
  0
BLOCK_RECORD
  5
323
330
1
100
AcDbSymbolTableRecord
100
AcDbBlockTableRecord
  2
BLKF055
  0
BLOCK_RECORD
  5
331
330
1
100
AcDbSymbolTableRecord
100
AcDbBlockTableRecord
  2
BLKF056
  0
BLOCK_RECORD
  5
33E
330
1
100
AcDbSymbolTableRecord
100
AcDbBlockTableRecord
  2
BLKF057
  0
BLOCK_RECORD
  5
34F
330
1
100
AcDbSymbolTableRecord
100
AcDbBlockTableRecord
  2
BLKF058
  0
BLOCK_RECORD
  5
362
330
1
100
AcDbSymbolTableRecord
100
AcDbBlockTableRecord
  2
BLKF059
  0
BLOCK_RECORD
  5
377
330
1
100
AcDbSymbolTableRecord
100
AcDbBlockTableRecord
  2
BLKF060
  0
BLOCK_RECORD
  5
386
330
1
100
AcDbSymbolTableRecord
100
AcDbBlockTableRecord
  2
BLKF061
  0
BLOCK_RECORD
  5
3B6
330
1
100
AcDbSymbolTableRecord
100
AcDbBlockTableRecord
  2
BLKF062
  0
BLOCK_RECORD
  5
3C5
330
1
100
AcDbSymbolTableRecord
100
AcDbBlockTableRecord
  2
BLKF063
  0
BLOCK_RECORD
  5
3D4
330
1
100
AcDbSymbolTableRecord
100
AcDbBlockTableRecord
  2
BLKF064
  0
BLOCK_RECORD
  5
3E2
330
1
100
AcDbSymbolTableRecord
100
AcDbBlockTableRecord
  2
BLKF065
  0
BLOCK_RECORD
  5
3F0
330
1
100
AcDbSymbolTableRecord
100
AcDbBlockTableRecord
  2
BLKF066
  0
BLOCK_RECORD
  5
3FF
330
1
100
AcDbSymbolTableRecord
100
AcDbBlockTableRecord
  2
BLKF067
  0
BLOCK_RECORD
  5
416
330
1
100
AcDbSymbolTableRecord
100
AcDbBlockTableRecord
  2
BLKF068
  0
BLOCK_RECORD
  5
424
330
1
100
AcDbSymbolTableRecord
100
AcDbBlockTableRecord
  2
BLKF069
  0
BLOCK_RECORD
  5
432
330
1
100
AcDbSymbolTableRecord
100
AcDbBlockTableRecord
  2
BLKF070
  0
BLOCK_RECORD
  5
440
330
1
100
AcDbSymbolTableRecord
100
AcDbBlockTableRecord
  2
BLKF071
  0
BLOCK_RECORD
  5
44F
330
1
100
AcDbSymbolTableRecord
100
AcDbBlockTableRecord
  2
BLKF072
  0
BLOCK_RECORD
  5
465
330
1
100
AcDbSymbolTableRecord
100
AcDbBlockTableRecord
  2
BLKF073
  0
BLOCK_RECORD
  5
474
330
1
100
AcDbSymbolTableRecord
100
AcDbBlockTableRecord
  2
BLKF074
  0
BLOCK_RECORD
  5
483
330
1
100
AcDbSymbolTableRecord
100
AcDbBlockTableRecord
  2
BLKF075
  0
BLOCK_RECORD
  5
491
330
1
100
AcDbSymbolTableRecord
100
AcDbBlockTableRecord
  2
BLKF076
  0
BLOCK_RECORD
  5
4A0
330
1
100
AcDbSymbolTableRecord
100
AcDbBlockTableRecord
  2
BLKF077
  0
BLOCK_RECORD
  5
4AE
330
1
100
AcDbSymbolTableRecord
100
AcDbBlockTableRecord
  2
BLKF078
  0
BLOCK_RECORD
  5
4BD
330
1
100
AcDbSymbolTableRecord
100
AcDbBlockTableRecord
  2
BLKF079
  0
BLOCK_RECORD
  5
4CC
330
1
100
AcDbSymbolTableRecord
100
AcDbBlockTableRecord
  2
BLKF080
  0
BLOCK_RECORD
  5
4DA
330
1
100
AcDbSymbolTableRecord
100
AcDbBlockTableRecord
  2
BLKF081
  0
BLOCK_RECORD
  5
4E8
330
1
100
AcDbSymbolTableRecord
100
AcDbBlockTableRecord
  2
BLKF082
  0
BLOCK_RECORD
  5
4F8
330
1
100
AcDbSymbolTableRecord
100
AcDbBlockTableRecord
  2
BLKF083
  0
BLOCK_RECORD
  5
50C
330
1
100
AcDbSymbolTableRecord
100
AcDbBlockTableRecord
  2
BLKF084
  0
BLOCK_RECORD
  5
51B
330
1
100
AcDbSymbolTableRecord
100
AcDbBlockTableRecord
  2
BLKF085
  0
BLOCK_RECORD
  5
52C
330
1
100
AcDbSymbolTableRecord
100
AcDbBlockTableRecord
  2
BLKF086
  0
BLOCK_RECORD
  5
53B
330
1
100
AcDbSymbolTableRecord
100
AcDbBlockTableRecord
  2
BLKF087
  0
BLOCK_RECORD
  5
54D
330
1
100
AcDbSymbolTableRecord
100
AcDbBlockTableRecord
  2
BLKF088
  0
BLOCK_RECORD
  5
55F
330
1
100
AcDbSymbolTableRecord
100
AcDbBlockTableRecord
  2
BLKF089
  0
BLOCK_RECORD
  5
56E
330
1
100
AcDbSymbolTableRecord
100
AcDbBlockTableRecord
  2
BLKF090
  0
BLOCK_RECORD
  5
583
330
1
100
AcDbSymbolTableRecord
100
AcDbBlockTableRecord
  2
BLKF091
  0
BLOCK_RECORD
  5
592
330
1
100
AcDbSymbolTableRecord
100
AcDbBlockTableRecord
  2
BLKF092
  0
BLOCK_RECORD
  5
5A1
330
1
100
AcDbSymbolTableRecord
100
AcDbBlockTableRecord
  2
BLKF093
  0
BLOCK_RECORD
  5
5B1
330
1
100
AcDbSymbolTableRecord
100
AcDbBlockTableRecord
  2
BLKF094
  0
BLOCK_RECORD
  5
5BF
330
1
100
AcDbSymbolTableRecord
100
AcDbBlockTableRecord
  2
BLKF095
  0
BLOCK_RECORD
  5
5D6
330
1
100
AcDbSymbolTableRecord
100
AcDbBlockTableRecord
  2
BLKF096
  0
BLOCK_RECORD
  5
5E7
330
1
100
AcDbSymbolTableRecord
100
AcDbBlockTableRecord
  2
BLKF097
  0
BLOCK_RECORD
  5
5F7
330
1
100
AcDbSymbolTableRecord
100
AcDbBlockTableRecord
  2
BLKF098
  0
BLOCK_RECORD
  5
601
330
1
100
AcDbSymbolTableRecord
100
AcDbBlockTableRecord
  2
BLKF099
  0
BLOCK_RECORD
  5
63C
330
1
100
AcDbSymbolTableRecord
100
AcDbBlockTableRecord
  2
BLKF100
  0
BLOCK_RECORD
  5
64A
330
1
100
AcDbSymbolTableRecord
100
AcDbBlockTableRecord
  2
BLKF101
  0
BLOCK_RECORD
  5
66C
330
1
100
AcDbSymbolTableRecord
100
AcDbBlockTableRecord
  2
BLKF102
  0
BLOCK_RECORD
  5
67A
330
1
100
AcDbSymbolTableRecord
100
AcDbBlockTableRecord
  2
BLKF103
  0
BLOCK_RECORD
  5
689
330
1
100
AcDbSymbolTableRecord
100
AcDbBlockTableRecord
  2
BLKF104
  0
BLOCK_RECORD
  5
697
330
1
100
AcDbSymbolTableRecord
100
AcDbBlockTableRecord
  2
BLKF105
  0
BLOCK_RECORD
  5
6A9
330
1
100
AcDbSymbolTableRecord
100
AcDbBlockTableRecord
  2
BLKF106
  0
BLOCK_RECORD
  5
6B8
330
1
100
AcDbSymbolTableRecord
100
AcDbBlockTableRecord
  2
BLKF107
  0
BLOCK_RECORD
  5
6C6
330
1
100
AcDbSymbolTableRecord
100
AcDbBlockTableRecord
  2
BLKF108
  0
BLOCK_RECORD
  5
6D5
330
1
100
AcDbSymbolTableRecord
100
AcDbBlockTableRecord
  2
BLKF109
  0
BLOCK_RECORD
  5
6E3
330
1
100
AcDbSymbolTableRecord
100
AcDbBlockTableRecord
  2
BLKF110
  0
BLOCK_RECORD
  5
6F6
330
1
100
AcDbSymbolTableRecord
100
AcDbBlockTableRecord
  2
BLKF111
  0
BLOCK_RECORD
  5
725
330
1
100
AcDbSymbolTableRecord
100
AcDbBlockTableRecord
  2
BLKF112
  0
BLOCK_RECORD
  5
733
330
1
100
AcDbSymbolTableRecord
100
AcDbBlockTableRecord
  2
BLKF113
  0
BLOCK_RECORD
  5
757
330
1
100
AcDbSymbolTableRecord
100
AcDbBlockTableRecord
  2
BLKF114
  0
BLOCK_RECORD
  5
760
330
1
100
AcDbSymbolTableRecord
100
AcDbBlockTableRecord
  2
BLKF115
  0
ENDTAB
  0
ENDSEC
  0
SECTION
  2
BLOCKS
  0
BLOCK
  5
20
330
1F
100
AcDbEntity
  8
0
100
AcDbBlockBegin
  2
*MODEL_SPACE
 70
     0
 71
     0
 10
0.0
 20
0.0
 30
0.0
  3
*MODEL_SPACE
  1

  0
ENDBLK
  5
21
330
1F
100
AcDbEntity
  8
0
100
AcDbBlockEnd
  0
BLOCK
  5
1C
330
1B
100
AcDbEntity
 67
     1
  8
0
100
AcDbBlockBegin
  2
*PAPER_SPACE
 70
     0
 71
     0
 10
0.0
 20
0.0
 30
0.0
  3
*PAPER_SPACE
  1

  0
ENDBLK
  5
1D
330
1B
100
AcDbEntity
 67
     1
  8
0
100
AcDbBlockEnd
  0
BLOCK
  5
3F
330
3E
100
AcDbEntity
  8
0
100
AcDbBlockBegin
  2
FXTIP_ARROW_S
 70
     0
 71
     0
 10
0.0
 20
0.0
 30
0.0
  3
FXTIP_ARROW_S
  1

  0
LINE
  5
41
330
3E
100
AcDbEntity
  8
0
  6
CONTINUOUS
 62
     0
100
AcDbLine
 10
0.0
 20
0.0
 30
0.0
 11
-1.0
 21
0.0
 31
0.0
  0
LINE
  5
42
330
3E
100
AcDbEntity
  8
0
  6
CONTINUOUS
 62
     0
100
AcDbLine
 10
0.0
 20
0.0
 30
0.0
 11
-0.965926
 21
-0.258819
 31
0.0
  0
LINE
  5
43
330
3E
100
AcDbEntity
  8
0
  6
CONTINUOUS
 62
     0
100
AcDbLine
 10
0.0
 20
0.0
 30
0.0
 11
-0.965926
 21
0.258819
 31
0.0
  0
ENDBLK
  5
40
330
3E
100
AcDbEntity
  8
0
100
AcDbBlockEnd
  0
BLOCK
  5
45
330
44
100
AcDbEntity
  8
0
100
AcDbBlockBegin
  2
FXTIP_ARROW_E
 70
     0
 71
     0
 10
0.0
 20
0.0
 30
0.0
  3
FXTIP_ARROW_E
  1

  0
LINE
  5
47
330
44
100
AcDbEntity
  8
0
  6
CONTINUOUS
 62
     0
100
AcDbLine
 10
0.0
 20
0.0
 30
0.0
 11
-1.0
 21
0.0
 31
0.0
  0
LINE
  5
48
330
44
100
AcDbEntity
  8
0
  6
CONTINUOUS
 62
     0
100
AcDbLine
 10
0.0
 20
0.0
 30
0.0
 11
-0.965926
 21
0.258819
 31
0.0
  0
LINE
  5
49
330
44
100
AcDbEntity
  8
0
  6
CONTINUOUS
 62
     0
100
AcDbLine
 10
0.0
 20
0.0
 30
0.0
 11
-0.965926
 21
-0.258819
 31
0.0
  0
ENDBLK
  5
46
330
44
100
AcDbEntity
  8
0
100
AcDbBlockEnd
  0
BLOCK
  5
4B
330
4A
100
AcDbEntity
  8
0
100
AcDbBlockBegin
  2
FXTIP_BLACKDOT_S
 70
     0
 71
     0
 10
0.0
 20
0.0
 30
0.0
  3
FXTIP_BLACKDOT_S
  1

  0
LINE
  5
4D
330
4A
100
AcDbEntity
  8
0
  6
CONTINUOUS
 62
     0
100
AcDbLine
 10
0.0
 20
0.0
 30
0.0
 11
-1.0
 21
0.0
 31
0.0
  0
POLYLINE
  5
4E
330
4A
100
AcDbEntity
  8
0
  6
CONTINUOUS
 62
     0
100
AcDb2dPolyline
 66
     1
 10
0.0
 20
0.0
 30
0.0
 70
     1
  0
VERTEX
  5
76E
330
4E
100
AcDbEntity
  8
0
  6
CONTINUOUS
 62
     0
100
AcDbVertex
100
AcDb2dVertex
 10
-0.25
 20
0.0
 30
0.0
 40
0.5
 41
0.5
 42
1.0
  0
VERTEX
  5
76F
330
4E
100
AcDbEntity
  8
0
  6
CONTINUOUS
 62
     0
100
AcDbVertex
100
AcDb2dVertex
 10
0.25
 20
0.0
 30
0.0
 40
0.5
 41
0.5
 42
1.0
  0
SEQEND
  5
76D
330
4E
100
AcDbEntity
  8
0
  6
CONTINUOUS
 62
     0
  0
CIRCLE
  5
4F
330
4A
100
AcDbEntity
  8
0
  6
CONTINUOUS
 62
     0
100
AcDbCircle
 10
0.0
 20
0.0
 30
0.0
 40
0.5
  0
ENDBLK
  5
4C
330
4A
100
AcDbEntity
  8
0
100
AcDbBlockEnd
  0
BLOCK
  5
51
330
50
100
AcDbEntity
  8
0
100
AcDbBlockBegin
  2
FXTIP_BLACKDOT_E
 70
     0
 71
     0
 10
0.0
 20
0.0
 30
0.0
  3
FXTIP_BLACKDOT_E
  1

  0
LINE
  5
53
330
50
100
AcDbEntity
  8
0
  6
CONTINUOUS
 62
     0
100
AcDbLine
 10
0.0
 20
0.0
 30
0.0
 11
-1.0
 21
0.0
 31
0.0
  0
POLYLINE
  5
54
330
50
100
AcDbEntity
  8
0
  6
CONTINUOUS
 62
     0
100
AcDb2dPolyline
 66
     1
 10
0.0
 20
0.0
 30
0.0
 70
     1
  0
VERTEX
  5
771
330
54
100
AcDbEntity
  8
0
  6
CONTINUOUS
 62
     0
100
AcDbVertex
100
AcDb2dVertex
 10
-0.25
 20
0.0
 30
0.0
 40
0.5
 41
0.5
 42
1.0
  0
VERTEX
  5
772
330
54
100
AcDbEntity
  8
0
  6
CONTINUOUS
 62
     0
100
AcDbVertex
100
AcDb2dVertex
 10
0.25
 20
0.0
 30
0.0
 40
0.5
 41
0.5
 42
1.0
  0
SEQEND
  5
770
330
54
100
AcDbEntity
  8
0
  6
CONTINUOUS
 62
     0
  0
CIRCLE
  5
55
330
50
100
AcDbEntity
  8
0
  6
CONTINUOUS
 62
     0
100
AcDbCircle
 10
0.0
 20
0.0
 30
0.0
 40
0.5
  0
ENDBLK
  5
52
330
50
100
AcDbEntity
  8
0
100
AcDbBlockEnd
  0
BLOCK
  5
57
330
56
100
AcDbEntity
  8
0
100
AcDbBlockBegin
  2
FXTIP_TRIANGLE_S
 70
     0
 71
     0
 10
0.0
 20
0.0
 30
0.0
  3
FXTIP_TRIANGLE_S
  1

  0
LINE
  5
59
330
56
100
AcDbEntity
  8
0
  6
CONTINUOUS
 62
     0
100
AcDbLine
 10
0.0
 20
0.0
 30
0.0
 11
-1.0
 21
0.0
 31
0.0
  0
LINE
  5
5A
330
56
100
AcDbEntity
  8
0
  6
CONTINUOUS
 62
     0
100
AcDbLine
 10
0.0
 20
0.0
 30
0.0
 11
-0.965926
 21
-0.258819
 31
0.0
  0
LINE
  5
5B
330
56
100
AcDbEntity
  8
0
  6
CONTINUOUS
 62
     0
100
AcDbLine
 10
0.0
 20
0.0
 30
0.0
 11
-0.965926
 21
0.258819
 31
0.0
  0
LINE
  5
5C
330
56
100
AcDbEntity
  8
0
  6
CONTINUOUS
 62
     0
100
AcDbLine
 10
-0.965926
 20
-0.258819
 30
0.0
 11
-0.965926
 21
0.258819
 31
0.0
  0
ENDBLK
  5
58
330
56
100
AcDbEntity
  8
0
100
AcDbBlockEnd
  0
BLOCK
  5
5E
330
5D
100
AcDbEntity
  8
0
100
AcDbBlockBegin
  2
FXTIP_TRIANGLE_E
 70
     0
 71
     0
 10
0.0
 20
0.0
 30
0.0
  3
FXTIP_TRIANGLE_E
  1

  0
LINE
  5
60
330
5D
100
AcDbEntity
  8
0
  6
CONTINUOUS
 62
     0
100
AcDbLine
 10
0.0
 20
0.0
 30
0.0
 11
-1.0
 21
0.0
 31
0.0
  0
LINE
  5
61
330
5D
100
AcDbEntity
  8
0
  6
CONTINUOUS
 62
     0
100
AcDbLine
 10
0.0
 20
0.0
 30
0.0
 11
-0.965926
 21
0.258819
 31
0.0
  0
LINE
  5
62
330
5D
100
AcDbEntity
  8
0
  6
CONTINUOUS
 62
     0
100
AcDbLine
 10
0.0
 20
0.0
 30
0.0
 11
-0.965926
 21
-0.258819
 31
0.0
  0
LINE
  5
63
330
5D
100
AcDbEntity
  8
0
  6
CONTINUOUS
 62
     0
100
AcDbLine
 10
-0.965926
 20
0.258819
 30
0.0
 11
-0.965926
 21
-0.258819
 31
0.0
  0
ENDBLK
  5
5F
330
5D
100
AcDbEntity
  8
0
100
AcDbBlockEnd
  0
BLOCK
  5
65
330
64
100
AcDbEntity
  8
0
100
AcDbBlockBegin
  2
FXTIP_ARCHITECT_S
 70
     0
 71
     0
 10
0.0
 20
0.0
 30
0.0
  3
FXTIP_ARCHITECT_S
  1

  0
LINE
  5
67
330
64
100
AcDbEntity
  8
0
  6
CONTINUOUS
 62
     0
100
AcDbLine
 10
0.0
 20
0.0
 30
0.0
 11
-1.0
 21
0.0
 31
0.0
  0
LINE
  5
68
330
64
100
AcDbEntity
  8
0
  6
CONTINUOUS
 62
     0
100
AcDbLine
 10
0.0
 20
0.0
 30
0.0
 11
-0.707107
 21
-0.707107
 31
0.0
  0
LINE
  5
69
330
64
100
AcDbEntity
  8
0
  6
CONTINUOUS
 62
     0
100
AcDbLine
 10
0.0
 20
0.0
 30
0.0
 11
0.707107
 21
0.707107
 31
0.0
  0
ENDBLK
  5
66
330
64
100
AcDbEntity
  8
0
100
AcDbBlockEnd
  0
BLOCK
  5
6B
330
6A
100
AcDbEntity
  8
0
100
AcDbBlockBegin
  2
FXTIP_ARCHITECT_E
 70
     0
 71
     0
 10
0.0
 20
0.0
 30
0.0
  3
FXTIP_ARCHITECT_E
  1

  0
LINE
  5
6D
330
6A
100
AcDbEntity
  8
0
  6
CONTINUOUS
 62
     0
100
AcDbLine
 10
0.0
 20
0.0
 30
0.0
 11
-1.0
 21
0.0
 31
0.0
  0
LINE
  5
6E
330
6A
100
AcDbEntity
  8
0
  6
CONTINUOUS
 62
     0
100
AcDbLine
 10
0.0
 20
0.0
 30
0.0
 11
0.707107
 21
0.707107
 31
0.0
  0
LINE
  5
6F
330
6A
100
AcDbEntity
  8
0
  6
CONTINUOUS
 62
     0
100
AcDbLine
 10
0.0
 20
0.0
 30
0.0
 11
-0.707107
 21
-0.707107
 31
0.0
  0
ENDBLK
  5
6C
330
6A
100
AcDbEntity
  8
0
100
AcDbBlockEnd
  0
BLOCK
  5
71
330
70
100
AcDbEntity
  8
0
100
AcDbBlockBegin
  2
FXTIP_CIVIL_S
 70
     0
 71
     0
 10
0.0
 20
0.0
 30
0.0
  3
FXTIP_CIVIL_S
  1

  0
LINE
  5
73
330
70
100
AcDbEntity
  8
0
  6
CONTINUOUS
 62
     0
100
AcDbLine
 10
0.0
 20
0.0
 30
0.0
 11
-1.0
 21
0.0
 31
0.0
  0
LINE
  5
74
330
70
100
AcDbEntity
  8
0
  6
CONTINUOUS
 62
     0
100
AcDbLine
 10
0.0
 20
-0.125
 30
0.0
 11
-1.0
 21
-0.125
 31
0.0
  0
LINE
  5
75
330
70
100
AcDbEntity
  8
0
  6
CONTINUOUS
 62
     0
100
AcDbLine
 10
0.0
 20
-0.25
 30
0.0
 11
-1.0
 21
-0.25
 31
0.0
  0
ENDBLK
  5
72
330
70
100
AcDbEntity
  8
0
100
AcDbBlockEnd
  0
BLOCK
  5
77
330
76
100
AcDbEntity
  8
0
100
AcDbBlockBegin
  2
FXTIP_CIVIL_E
 70
     0
 71
     0
 10
0.0
 20
0.0
 30
0.0
  3
FXTIP_CIVIL_E
  1

  0
LINE
  5
79
330
76
100
AcDbEntity
  8
0
  6
CONTINUOUS
 62
     0
100
AcDbLine
 10
0.0
 20
0.0
 30
0.0
 11
-1.0
 21
0.0
 31
0.0
  0
LINE
  5
7A
330
76
100
AcDbEntity
  8
0
  6
CONTINUOUS
 62
     0
100
AcDbLine
 10
0.0
 20
0.125
 30
0.0
 11
-1.0
 21
0.125
 31
0.0
  0
LINE
  5
7B
330
76
100
AcDbEntity
  8
0
  6
CONTINUOUS
 62
     0
100
AcDbLine
 10
0.0
 20
0.25
 30
0.0
 11
-1.0
 21
0.25
 31
0.0
  0
ENDBLK
  5
78
330
76
100
AcDbEntity
  8
0
100
AcDbBlockEnd
  0
BLOCK
  5
7D
330
7C
100
AcDbEntity
  8
0
100
AcDbBlockBegin
  2
FXTIP_WHITEDOT_S
 70
     0
 71
     0
 10
0.0
 20
0.0
 30
0.0
  3
FXTIP_WHITEDOT_S
  1

  0
LINE
  5
7F
330
7C
100
AcDbEntity
  8
0
  6
CONTINUOUS
 62
     0
100
AcDbLine
 10
0.0
 20
0.0
 30
0.0
 11
-1.0
 21
0.0
 31
0.0
  0
CIRCLE
  5
80
330
7C
100
AcDbEntity
  8
0
  6
CONTINUOUS
 62
     0
100
AcDbCircle
 10
0.0
 20
0.0
 30
0.0
 40
0.5
  0
ENDBLK
  5
7E
330
7C
100
AcDbEntity
  8
0
100
AcDbBlockEnd
  0
BLOCK
  5
82
330
81
100
AcDbEntity
  8
0
100
AcDbBlockBegin
  2
FXTIP_WHITEDOT_E
 70
     0
 71
     0
 10
0.0
 20
0.0
 30
0.0
  3
FXTIP_WHITEDOT_E
  1

  0
LINE
  5
84
330
81
100
AcDbEntity
  8
0
  6
CONTINUOUS
 62
     0
100
AcDbLine
 10
0.0
 20
0.0
 30
0.0
 11
-1.0
 21
0.0
 31
0.0
  0
CIRCLE
  5
85
330
81
100
AcDbEntity
  8
0
  6
CONTINUOUS
 62
     0
100
AcDbCircle
 10
0.0
 20
0.0
 30
0.0
 40
0.5
  0
ENDBLK
  5
83
330
81
100
AcDbEntity
  8
0
100
AcDbBlockEnd
  0
BLOCK
  5
87
330
86
100
AcDbEntity
  8
0
100
AcDbBlockBegin
  2
FXTIP_UPARROW_S
 70
     0
 71
     0
 10
0.0
 20
0.0
 30
0.0
  3
FXTIP_UPARROW_S
  1

  0
LINE
  5
89
330
86
100
AcDbEntity
  8
0
  6
CONTINUOUS
 62
     0
100
AcDbLine
 10
0.0
 20
0.0
 30
0.0
 11
-1.0
 21
0.0
 31
0.0
  0
LINE
  5
8A
330
86
100
AcDbEntity
  8
0
  6
CONTINUOUS
 62
     0
100
AcDbLine
 10
0.0
 20
0.0
 30
0.0
 11
-0.965926
 21
-0.258819
 31
0.0
  0
ENDBLK
  5
88
330
86
100
AcDbEntity
  8
0
100
AcDbBlockEnd
  0
BLOCK
  5
8C
330
8B
100
AcDbEntity
  8
0
100
AcDbBlockBegin
  2
FXTIP_UPARROW_E
 70
     0
 71
     0
 10
0.0
 20
0.0
 30
0.0
  3
FXTIP_UPARROW_E
  1

  0
LINE
  5
8E
330
8B
100
AcDbEntity
  8
0
  6
CONTINUOUS
 62
     0
100
AcDbLine
 10
0.0
 20
0.0
 30
0.0
 11
-1.0
 21
0.0
 31
0.0
  0
LINE
  5
8F
330
8B
100
AcDbEntity
  8
0
  6
CONTINUOUS
 62
     0
100
AcDbLine
 10
0.0
 20
0.0
 30
0.0
 11
-0.965926
 21
0.258819
 31
0.0
  0
ENDBLK
  5
8D
330
8B
100
AcDbEntity
  8
0
100
AcDbBlockEnd
  0
BLOCK
  5
91
330
90
100
AcDbEntity
  8
0
100
AcDbBlockBegin
  2
FXTIP_DOWNARROW_S
 70
     0
 71
     0
 10
0.0
 20
0.0
 30
0.0
  3
FXTIP_DOWNARROW_S
  1

  0
LINE
  5
93
330
90
100
AcDbEntity
  8
0
  6
CONTINUOUS
 62
     0
100
AcDbLine
 10
0.0
 20
0.0
 30
0.0
 11
-1.0
 21
0.0
 31
0.0
  0
LINE
  5
94
330
90
100
AcDbEntity
  8
0
  6
CONTINUOUS
 62
     0
100
AcDbLine
 10
0.0
 20
0.0
 30
0.0
 11
-0.965926
 21
0.258819
 31
0.0
  0
ENDBLK
  5
92
330
90
100
AcDbEntity
  8
0
100
AcDbBlockEnd
  0
BLOCK
  5
96
330
95
100
AcDbEntity
  8
0
100
AcDbBlockBegin
  2
FXTIP_DOWNARROW_E
 70
     0
 71
     0
 10
0.0
 20
0.0
 30
0.0
  3
FXTIP_DOWNARROW_E
  1

  0
LINE
  5
98
330
95
100
AcDbEntity
  8
0
  6
CONTINUOUS
 62
     0
100
AcDbLine
 10
0.0
 20
0.0
 30
0.0
 11
-1.0
 21
0.0
 31
0.0
  0
LINE
  5
99
330
95
100
AcDbEntity
  8
0
  6
CONTINUOUS
 62
     0
100
AcDbLine
 10
0.0
 20
0.0
 30
0.0
 11
-0.965926
 21
-0.258819
 31
0.0
  0
ENDBLK
  5
97
330
95
100
AcDbEntity
  8
0
100
AcDbBlockEnd
  0
BLOCK
  5
9B
330
9A
100
AcDbEntity
  8
0
100
AcDbBlockBegin
  2
FXTIP_BLACKTRIANGLE_S
 70
     0
 71
     0
 10
0.0
 20
0.0
 30
0.0
  3
FXTIP_BLACKTRIANGLE_S
  1

  0
LINE
  5
9D
330
9A
100
AcDbEntity
  8
0
  6
CONTINUOUS
 62
     0
100
AcDbLine
 10
0.0
 20
0.0
 30
0.0
 11
-1.0
 21
0.0
 31
0.0
  0
SOLID
  5
9E
330
9A
100
AcDbEntity
  8
0
  6
CONTINUOUS
 62
     0
100
AcDbTrace
 10
0.0
 20
0.0
 30
0.0
 11
-0.965926
 21
-0.258819
 31
0.0
 12
-0.965926
 22
0.258819
 32
0.0
 13
-0.965926
 23
0.258819
 33
0.0
  0
ENDBLK
  5
9C
330
9A
100
AcDbEntity
  8
0
100
AcDbBlockEnd
  0
BLOCK
  5
A0
330
9F
100
AcDbEntity
  8
0
100
AcDbBlockBegin
  2
FXTIP_BLACKTRIANGLE_E
 70
     0
 71
     0
 10
0.0
 20
0.0
 30
0.0
  3
FXTIP_BLACKTRIANGLE_E
  1

  0
LINE
  5
A2
330
9F
100
AcDbEntity
  8
0
  6
CONTINUOUS
 62
     0
100
AcDbLine
 10
0.0
 20
0.0
 30
0.0
 11
-1.0
 21
0.0
 31
0.0
  0
SOLID
  5
A3
330
9F
100
AcDbEntity
  8
0
  6
CONTINUOUS
 62
     0
100
AcDbTrace
 10
0.0
 20
0.0
 30
0.0
 11
-0.965926
 21
0.258819
 31
0.0
 12
-0.965926
 22
-0.258819
 32
0.0
 13
-0.965926
 23
-0.258819
 33
0.0
  0
ENDBLK
  5
A1
330
9F
100
AcDbEntity
  8
0
100
AcDbBlockEnd
  0
BLOCK
  5
DD
330
DC
100
AcDbEntity
  8
0
100
AcDbBlockBegin
  2
BLKF021
 70
     0
 71
     0
 10
0.0
 20
0.0
 30
0.0
  3
BLKF021
  1

  0
LINE
  5
E0
330
DC
100
AcDbEntity
  8
GR1-1
  6
細い実線
 62
     2
100
AcDbLine
 10
679.863387
 20
183.503677
 30
0.0
 11
679.863387
 21
188.318702
 31
0.0
  0
LINE
  5
E1
330
DC
100
AcDbEntity
  8
GR1-1
  6
細い実線
 62
     2
100
AcDbLine
 10
681.663387
 20
183.503677
 30
0.0
 11
681.663387
 21
188.318702
 31
0.0
  0
LINE
  5
E2
330
DC
100
AcDbEntity
  8
GR1-1
  6
細い実線
 62
     2
100
AcDbLine
 10
679.083387
 20
187.718702
 30
0.0
 11
678.303387
 21
187.718702
 31
0.0
  0
LINE
  5
E3
330
DC
100
AcDbEntity
  8
GR1-1
  6
細い実線
 62
     2
100
AcDbLine
 10
682.443387
 20
187.718702
 30
0.0
 11
683.223387
 21
187.718702
 31
0.0
  0
TEXT
  5
E4
330
DC
100
AcDbEntity
  8
GR1-1
  6
細い実線
 62
     4
100
AcDbText
 10
679.188359
 20
189.218711
 30
0.0
 40
1.5
  1
%%c30
 41
0.7
  7
FX_VECTOR
 72
     5
 11
682.338359
 21
189.218711
 31
0.0
100
AcDbText
  0
LINE
  5
E5
330
DC
100
AcDbEntity
  8
GR1-1
  6
細い実線
 62
     2
100
AcDbLine
 10
679.083387
 20
187.848702
 30
0.0
 11
679.083387
 21
187.588702
 31
0.0
  0
LINE
  5
E6
330
DC
100
AcDbEntity
  8
GR1-1
  6
細い実線
 62
     2
100
AcDbLine
 10
679.083387
 20
187.588702
 30
0.0
 11
679.863387
 21
187.718702
 31
0.0
  0
LINE
  5
E7
330
DC
100
AcDbEntity
  8
GR1-1
  6
細い実線
 62
     2
100
AcDbLine
 10
679.863387
 20
187.718702
 30
0.0
 11
679.083387
 21
187.848702
 31
0.0
  0
LINE
  5
E8
330
DC
100
AcDbEntity
  8
GR1-1
  6
細い実線
 62
     2
100
AcDbLine
 10
682.443387
 20
187.848702
 30
0.0
 11
682.443387
 21
187.588702
 31
0.0
  0
LINE
  5
E9
330
DC
100
AcDbEntity
  8
GR1-1
  6
細い実線
 62
     2
100
AcDbLine
 10
682.443387
 20
187.588702
 30
0.0
 11
681.663387
 21
187.718702
 31
0.0
  0
LINE
  5
EA
330
DC
100
AcDbEntity
  8
GR1-1
  6
細い実線
 62
     2
100
AcDbLine
 10
681.663387
 20
187.718702
 30
0.0
 11
682.443387
 21
187.848702
 31
0.0
  0
ENDBLK
  5
DE
330
DC
100
AcDbEntity
  8
0
100
AcDbBlockEnd
  0
BLOCK
  5
EC
330
EB
100
AcDbEntity
  8
0
100
AcDbBlockBegin
  2
BLKF022
 70
     0
 71
     0
 10
0.0
 20
0.0
 30
0.0
  3
BLKF022
  1

  0
LINE
  5
EF
330
EB
100
AcDbEntity
  8
GR1-1
  6
細い実線
 62
     2
100
AcDbLine
 10
680.388387
 20
178.703677
 30
0.0
 11
680.388387
 21
176.140071
 31
0.0
  0
LINE
  5
F0
330
EB
100
AcDbEntity
  8
GR1-1
  6
細い実線
 62
     2
100
AcDbLine
 10
681.138387
 20
178.703677
 30
0.0
 11
681.138387
 21
176.140071
 31
0.0
  0
LINE
  5
F1
330
EB
100
AcDbEntity
  8
GR1-1
  6
細い実線
 62
     2
100
AcDbLine
 10
679.608387
 20
176.740071
 30
0.0
 11
678.828387
 21
176.740071
 31
0.0
  0
LINE
  5
F2
330
EB
100
AcDbEntity
  8
GR1-1
  6
細い実線
 62
     2
100
AcDbLine
 10
681.918387
 20
176.740071
 30
0.0
 11
682.698387
 21
176.740071
 31
0.0
  0
TEXT
  5
F3
330
EB
100
AcDbEntity
  8
GR1-1
  6
細い実線
 62
     4
100
AcDbText
 10
681.239453
 20
177.285684
 30
0.0
 40
1.5
  1
%%c12.5
 41
0.7
  7
FX_VECTOR
 72
     5
 11
686.489453
 21
177.285684
 31
0.0
100
AcDbText
  0
LINE
  5
F4
330
EB
100
AcDbEntity
  8
GR1-1
  6
細い実線
 62
     2
100
AcDbLine
 10
679.608387
 20
176.870071
 30
0.0
 11
679.608387
 21
176.610071
 31
0.0
  0
LINE
  5
F5
330
EB
100
AcDbEntity
  8
GR1-1
  6
細い実線
 62
     2
100
AcDbLine
 10
679.608387
 20
176.610071
 30
0.0
 11
680.388387
 21
176.740071
 31
0.0
  0
LINE
  5
F6
330
EB
100
AcDbEntity
  8
GR1-1
  6
細い実線
 62
     2
100
AcDbLine
 10
680.388387
 20
176.740071
 30
0.0
 11
679.608387
 21
176.870071
 31
0.0
  0
LINE
  5
F7
330
EB
100
AcDbEntity
  8
GR1-1
  6
細い実線
 62
     2
100
AcDbLine
 10
681.918387
 20
176.870071
 30
0.0
 11
681.918387
 21
176.610071
 31
0.0
  0
LINE
  5
F8
330
EB
100
AcDbEntity
  8
GR1-1
  6
細い実線
 62
     2
100
AcDbLine
 10
681.918387
 20
176.610071
 30
0.0
 11
681.138387
 21
176.740071
 31
0.0
  0
LINE
  5
F9
330
EB
100
AcDbEntity
  8
GR1-1
  6
細い実線
 62
     2
100
AcDbLine
 10
681.138387
 20
176.740071
 30
0.0
 11
681.918387
 21
176.870071
 31
0.0
  0
ENDBLK
  5
ED
330
EB
100
AcDbEntity
  8
0
100
AcDbBlockEnd
  0
BLOCK
  5
FF
330
FE
100
AcDbEntity
  8
0
100
AcDbBlockBegin
  2
BLKF023
 70
     0
 71
     0
 10
0.0
 20
0.0
 30
0.0
  3
BLKF023
  1

  0
LINE
  5
102
330
FE
100
AcDbEntity
  8
GR1-1
  6
細い実線
 62
     2
100
AcDbLine
 10
697.592263
 20
186.718822
 30
0.0
 11
697.592263
 21
188.85793
 31
0.0
  0
LINE
  5
103
330
FE
100
AcDbEntity
  8
GR1-1
  6
細い実線
 62
     2
100
AcDbLine
 10
698.342263
 20
186.718822
 30
0.0
 11
698.342263
 21
188.85793
 31
0.0
  0
LINE
  5
104
330
FE
100
AcDbEntity
  8
GR1-1
  6
細い実線
 62
     2
100
AcDbLine
 10
696.812263
 20
188.25793
 30
0.0
 11
696.032263
 21
188.25793
 31
0.0
  0
LINE
  5
105
330
FE
100
AcDbEntity
  8
GR1-1
  6
細い実線
 62
     2
100
AcDbLine
 10
699.122263
 20
188.25793
 30
0.0
 11
699.902263
 21
188.25793
 31
0.0
  0
TEXT
  5
106
330
FE
100
AcDbEntity
  8
GR1-1
  6
細い実線
 62
     4
100
AcDbText
 10
695.867266
 20
189.75793
 30
0.0
 40
1.5
  1
12.5
 41
0.7
  7
FX_VECTOR
 72
     5
 11
700.067266
 21
189.75793
 31
0.0
100
AcDbText
  0
LINE
  5
107
330
FE
100
AcDbEntity
  8
GR1-1
  6
細い実線
 62
     2
100
AcDbLine
 10
696.812263
 20
188.38793
 30
0.0
 11
696.812263
 21
188.12793
 31
0.0
  0
LINE
  5
108
330
FE
100
AcDbEntity
  8
GR1-1
  6
細い実線
 62
     2
100
AcDbLine
 10
696.812263
 20
188.12793
 30
0.0
 11
697.592263
 21
188.25793
 31
0.0
  0
LINE
  5
109
330
FE
100
AcDbEntity
  8
GR1-1
  6
細い実線
 62
     2
100
AcDbLine
 10
697.592263
 20
188.25793
 30
0.0
 11
696.812263
 21
188.38793
 31
0.0
  0
LINE
  5
10A
330
FE
100
AcDbEntity
  8
GR1-1
  6
細い実線
 62
     2
100
AcDbLine
 10
699.122263
 20
188.38793
 30
0.0
 11
699.122263
 21
188.12793
 31
0.0
  0
LINE
  5
10B
330
FE
100
AcDbEntity
  8
GR1-1
  6
細い実線
 62
     2
100
AcDbLine
 10
699.122263
 20
188.12793
 30
0.0
 11
698.342263
 21
188.25793
 31
0.0
  0
LINE
  5
10C
330
FE
100
AcDbEntity
  8
GR1-1
  6
細い実線
 62
     2
100
AcDbLine
 10
698.342263
 20
188.25793
 30
0.0
 11
699.122263
 21
188.38793
 31
0.0
  0
ENDBLK
  5
100
330
FE
100
AcDbEntity
  8
0
100
AcDbBlockEnd
  0
BLOCK
  5
10E
330
10D
100
AcDbEntity
  8
0
100
AcDbBlockBegin
  2
BLKF024
 70
     0
 71
     0
 10
0.0
 20
0.0
 30
0.0
  3
BLKF024
  1

  0
LINE
  5
111
330
10D
100
AcDbEntity
  8
GR1-1
  6
細い実線
 62
     4
100
AcDbLine
 10
697.067263
 20
181.261561
 30
0.0
 11
698.867263
 21
181.261561
 31
0.0
  0
LINE
  5
112
330
10D
100
AcDbEntity
  8
GR1-1
  6
細い実線
 62
     4
100
AcDbLine
 10
698.867263
 20
181.261561
 30
0.0
 11
698.867263
 21
177.961561
 31
0.0
  0
LINE
  5
113
330
10D
100
AcDbEntity
  8
GR1-1
  6
細い実線
 62
     4
100
AcDbLine
 10
698.867263
 20
177.961561
 30
0.0
 11
697.067263
 21
177.961561
 31
0.0
  0
LINE
  5
114
330
10D
100
AcDbEntity
  8
GR1-1
  6
細い実線
 62
     4
100
AcDbLine
 10
697.067263
 20
177.961561
 30
0.0
 11
697.067263
 21
181.261561
 31
0.0
  0
ENDBLK
  5
10F
330
10D
100
AcDbEntity
  8
0
100
AcDbBlockEnd
  0
BLOCK
  5
116
330
115
100
AcDbEntity
  8
0
100
AcDbBlockBegin
  2
BLKF025
 70
     0
 71
     0
 10
0.0
 20
0.0
 30
0.0
  3
BLKF025
  1

  0
LINE
  5
119
330
115
100
AcDbEntity
  8
GR1-1
  6
細い実線
 62
     4
100
AcDbLine
 10
697.592263
 20
180.661561
 30
0.0
 11
698.342263
 21
180.661561
 31
0.0
  0
LINE
  5
11A
330
115
100
AcDbEntity
  8
GR1-1
  6
細い実線
 62
     4
100
AcDbLine
 10
698.342263
 20
180.661561
 30
0.0
 11
698.342263
 21
178.561561
 31
0.0
  0
LINE
  5
11B
330
115
100
AcDbEntity
  8
GR1-1
  6
細い実線
 62
     4
100
AcDbLine
 10
698.342263
 20
178.561561
 30
0.0
 11
697.592263
 21
178.561561
 31
0.0
  0
LINE
  5
11C
330
115
100
AcDbEntity
  8
GR1-1
  6
細い実線
 62
     4
100
AcDbLine
 10
697.592263
 20
178.561561
 30
0.0
 11
697.592263
 21
180.661561
 31
0.0
  0
ENDBLK
  5
117
330
115
100
AcDbEntity
  8
0
100
AcDbBlockEnd
  0
BLOCK
  5
122
330
121
100
AcDbEntity
  8
0
100
AcDbBlockBegin
  2
BLKF026
 70
     0
 71
     0
 10
0.0
 20
0.0
 30
0.0
  3
BLKF026
  1

  0
LINE
  5
125
330
121
100
AcDbEntity
  8
GR1-1
  6
細い実線
 62
     2
100
AcDbLine
 10
698.342263
 20
177.661561
 30
0.0
 11
698.342263
 21
172.945628
 31
0.0
  0
LINE
  5
126
330
121
100
AcDbEntity
  8
GR1-1
  6
細い実線
 62
     2
100
AcDbLine
 10
698.867263
 20
177.061561
 30
0.0
 11
698.867263
 21
172.945628
 31
0.0
  0
LINE
  5
127
330
121
100
AcDbEntity
  8
GR1-1
  6
細い実線
 62
     2
100
AcDbLine
 10
697.562263
 20
173.545628
 30
0.0
 11
696.782263
 21
173.545628
 31
0.0
  0
LINE
  5
128
330
121
100
AcDbEntity
  8
GR1-1
  6
細い実線
 62
     2
100
AcDbLine
 10
699.647263
 20
173.545628
 30
0.0
 11
700.427263
 21
173.545628
 31
0.0
  0
TEXT
  5
129
330
121
100
AcDbEntity
  8
GR1-1
  6
細い実線
 62
     4
100
AcDbText
 10
698.848438
 20
173.98041
 30
0.0
 40
1.5
  1
8.75
 41
0.7
  7
FX_VECTOR
 72
     5
 11
703.048438
 21
173.98041
 31
0.0
100
AcDbText
  0
LINE
  5
12A
330
121
100
AcDbEntity
  8
GR1-1
  6
細い実線
 62
     2
100
AcDbLine
 10
697.562263
 20
173.675628
 30
0.0
 11
697.562263
 21
173.415628
 31
0.0
  0
LINE
  5
12B
330
121
100
AcDbEntity
  8
GR1-1
  6
細い実線
 62
     2
100
AcDbLine
 10
697.562263
 20
173.415628
 30
0.0
 11
698.342263
 21
173.545628
 31
0.0
  0
LINE
  5
12C
330
121
100
AcDbEntity
  8
GR1-1
  6
細い実線
 62
     2
100
AcDbLine
 10
698.342263
 20
173.545628
 30
0.0
 11
697.562263
 21
173.675628
 31
0.0
  0
LINE
  5
12D
330
121
100
AcDbEntity
  8
GR1-1
  6
細い実線
 62
     2
100
AcDbLine
 10
699.647263
 20
173.675628
 30
0.0
 11
699.647263
 21
173.415628
 31
0.0
  0
LINE
  5
12E
330
121
100
AcDbEntity
  8
GR1-1
  6
細い実線
 62
     2
100
AcDbLine
 10
699.647263
 20
173.415628
 30
0.0
 11
698.867263
 21
173.545628
 31
0.0
  0
LINE
  5
12F
330
121
100
AcDbEntity
  8
GR1-1
  6
細い実線
 62
     2
100
AcDbLine
 10
698.867263
 20
173.545628
 30
0.0
 11
699.647263
 21
173.675628
 31
0.0
  0
ENDBLK
  5
123
330
121
100
AcDbEntity
  8
0
100
AcDbBlockEnd
  0
BLOCK
  5
131
330
130
100
AcDbEntity
  8
0
100
AcDbBlockBegin
  2
BLKF027
 70
     0
 71
     0
 10
0.0
 20
0.0
 30
0.0
  3
BLKF027
  1

  0
LINE
  5
134
330
130
100
AcDbEntity
  8
GR1-1
  6
細い実線
 62
     2
100
AcDbLine
 10
698.342263
 20
177.661561
 30
0.0
 11
698.342263
 21
172.945628
 31
0.0
  0
LINE
  5
135
330
130
100
AcDbEntity
  8
GR1-1
  6
細い実線
 62
     2
100
AcDbLine
 10
697.592263
 20
177.661561
 30
0.0
 11
697.592263
 21
172.945628
 31
0.0
  0
LINE
  5
136
330
130
100
AcDbEntity
  8
GR1-1
  6
細い実線
 62
     2
100
AcDbLine
 10
699.122263
 20
173.545628
 30
0.0
 11
699.902263
 21
173.545628
 31
0.0
  0
LINE
  5
137
330
130
100
AcDbEntity
  8
GR1-1
  6
細い実線
 62
     2
100
AcDbLine
 10
696.812263
 20
173.545628
 30
0.0
 11
696.032263
 21
173.545628
 31
0.0
  0
TEXT
  5
138
330
130
100
AcDbEntity
  8
GR1-1
  6
細い実線
 62
     4
100
AcDbText
 10
695.750313
 20
171.241387
 30
0.0
 40
1.5
  1
12.5
 41
0.7
  7
FX_VECTOR
 72
     5
 11
699.950313
 21
171.241387
 31
0.0
100
AcDbText
  0
LINE
  5
139
330
130
100
AcDbEntity
  8
GR1-1
  6
細い実線
 62
     2
100
AcDbLine
 10
699.122263
 20
173.675628
 30
0.0
 11
699.122263
 21
173.415628
 31
0.0
  0
LINE
  5
13A
330
130
100
AcDbEntity
  8
GR1-1
  6
細い実線
 62
     2
100
AcDbLine
 10
699.122263
 20
173.415628
 30
0.0
 11
698.342263
 21
173.545628
 31
0.0
  0
LINE
  5
13B
330
130
100
AcDbEntity
  8
GR1-1
  6
細い実線
 62
     2
100
AcDbLine
 10
698.342263
 20
173.545628
 30
0.0
 11
699.122263
 21
173.675628
 31
0.0
  0
LINE
  5
13C
330
130
100
AcDbEntity
  8
GR1-1
  6
細い実線
 62
     2
100
AcDbLine
 10
696.812263
 20
173.675628
 30
0.0
 11
696.812263
 21
173.415628
 31
0.0
  0
LINE
  5
13D
330
130
100
AcDbEntity
  8
GR1-1
  6
細い実線
 62
     2
100
AcDbLine
 10
696.812263
 20
173.415628
 30
0.0
 11
697.592263
 21
173.545628
 31
0.0
  0
LINE
  5
13E
330
130
100
AcDbEntity
  8
GR1-1
  6
細い実線
 62
     2
100
AcDbLine
 10
697.592263
 20
173.545628
 30
0.0
 11
696.812263
 21
173.675628
 31
0.0
  0
ENDBLK
  5
132
330
130
100
AcDbEntity
  8
0
100
AcDbBlockEnd
  0
BLOCK
  5
140
330
13F
100
AcDbEntity
  8
0
100
AcDbBlockBegin
  2
BLKF028
 70
     0
 71
     0
 10
0.0
 20
0.0
 30
0.0
  3
BLKF028
  1

  0
LINE
  5
143
330
13F
100
AcDbEntity
  8
GR1-1
  6
細い実線
 62
     2
100
AcDbLine
 10
697.592263
 20
177.661561
 30
0.0
 11
697.592263
 21
172.945628
 31
0.0
  0
LINE
  5
144
330
13F
100
AcDbEntity
  8
GR1-1
  6
細い実線
 62
     2
100
AcDbLine
 10
697.067263
 20
177.061561
 30
0.0
 11
697.067263
 21
172.945628
 31
0.0
  0
LINE
  5
145
330
13F
100
AcDbEntity
  8
GR1-1
  6
細い実線
 62
     2
100
AcDbLine
 10
698.372263
 20
173.545628
 30
0.0
 11
699.152263
 21
173.545628
 31
0.0
  0
LINE
  5
146
330
13F
100
AcDbEntity
  8
GR1-1
  6
細い実線
 62
     2
100
AcDbLine
 10
696.287263
 20
173.545628
 30
0.0
 11
695.507263
 21
173.545628
 31
0.0
  0
TEXT
  5
147
330
13F
100
AcDbEntity
  8
GR1-1
  6
細い実線
 62
     4
100
AcDbText
 10
692.964219
 20
173.869063
 30
0.0
 40
1.5
  1
8.75
 41
0.7
  7
FX_VECTOR
 72
     5
 11
697.164219
 21
173.869063
 31
0.0
100
AcDbText
  0
LINE
  5
148
330
13F
100
AcDbEntity
  8
GR1-1
  6
細い実線
 62
     2
100
AcDbLine
 10
698.372263
 20
173.675628
 30
0.0
 11
698.372263
 21
173.415628
 31
0.0
  0
LINE
  5
149
330
13F
100
AcDbEntity
  8
GR1-1
  6
細い実線
 62
     2
100
AcDbLine
 10
698.372263
 20
173.415628
 30
0.0
 11
697.592263
 21
173.545628
 31
0.0
  0
LINE
  5
14A
330
13F
100
AcDbEntity
  8
GR1-1
  6
細い実線
 62
     2
100
AcDbLine
 10
697.592263
 20
173.545628
 30
0.0
 11
698.372263
 21
173.675628
 31
0.0
  0
LINE
  5
14B
330
13F
100
AcDbEntity
  8
GR1-1
  6
細い実線
 62
     2
100
AcDbLine
 10
696.287263
 20
173.675628
 30
0.0
 11
696.287263
 21
173.415628
 31
0.0
  0
LINE
  5
14C
330
13F
100
AcDbEntity
  8
GR1-1
  6
細い実線
 62
     2
100
AcDbLine
 10
696.287263
 20
173.415628
 30
0.0
 11
697.067263
 21
173.545628
 31
0.0
  0
LINE
  5
14D
330
13F
100
AcDbEntity
  8
GR1-1
  6
細い実線
 62
     2
100
AcDbLine
 10
697.067263
 20
173.545628
 30
0.0
 11
696.287263
 21
173.675628
 31
0.0
  0
ENDBLK
  5
141
330
13F
100
AcDbEntity
  8
0
100
AcDbBlockEnd
  0
BLOCK
  5
14F
330
14E
100
AcDbEntity
  8
0
100
AcDbBlockBegin
  2
BLKF029
 70
     0
 71
     0
 10
0.0
 20
0.0
 30
0.0
  3
BLKF029
  1

  0
LINE
  5
152
330
14E
100
AcDbEntity
  8
GR1-1
  6
細い実線
 62
     2
100
AcDbLine
 10
697.067263
 20
177.061561
 30
0.0
 11
697.067263
 21
167.862866
 31
0.0
  0
LINE
  5
153
330
14E
100
AcDbEntity
  8
GR1-1
  6
細い実線
 62
     2
100
AcDbLine
 10
698.867263
 20
177.061561
 30
0.0
 11
698.867263
 21
167.862866
 31
0.0
  0
LINE
  5
154
330
14E
100
AcDbEntity
  8
GR1-1
  6
細い実線
 62
     2
100
AcDbLine
 10
696.287263
 20
168.462866
 30
0.0
 11
695.507263
 21
168.462866
 31
0.0
  0
LINE
  5
155
330
14E
100
AcDbEntity
  8
GR1-1
  6
細い実線
 62
     2
100
AcDbLine
 10
699.647263
 20
168.462866
 30
0.0
 11
700.427263
 21
168.462866
 31
0.0
  0
TEXT
  5
156
330
14E
100
AcDbEntity
  8
GR1-1
  6
細い実線
 62
     4
100
AcDbText
 10
696.917266
 20
168.975996
 30
0.0
 40
1.5
  1
30
 41
0.7
  7
FX_VECTOR
 72
     5
 11
699.017266
 21
168.975996
 31
0.0
100
AcDbText
  0
LINE
  5
157
330
14E
100
AcDbEntity
  8
GR1-1
  6
細い実線
 62
     2
100
AcDbLine
 10
696.287263
 20
168.592866
 30
0.0
 11
696.287263
 21
168.332866
 31
0.0
  0
LINE
  5
158
330
14E
100
AcDbEntity
  8
GR1-1
  6
細い実線
 62
     2
100
AcDbLine
 10
696.287263
 20
168.332866
 30
0.0
 11
697.067263
 21
168.462866
 31
0.0
  0
LINE
  5
159
330
14E
100
AcDbEntity
  8
GR1-1
  6
細い実線
 62
     2
100
AcDbLine
 10
697.067263
 20
168.462866
 30
0.0
 11
696.287263
 21
168.592866
 31
0.0
  0
LINE
  5
15A
330
14E
100
AcDbEntity
  8
GR1-1
  6
細い実線
 62
     2
100
AcDbLine
 10
699.647263
 20
168.592866
 30
0.0
 11
699.647263
 21
168.332866
 31
0.0
  0
LINE
  5
15B
330
14E
100
AcDbEntity
  8
GR1-1
  6
細い実線
 62
     2
100
AcDbLine
 10
699.647263
 20
168.332866
 30
0.0
 11
698.867263
 21
168.462866
 31
0.0
  0
LINE
  5
15C
330
14E
100
AcDbEntity
  8
GR1-1
  6
細い実線
 62
     2
100
AcDbLine
 10
698.867263
 20
168.462866
 30
0.0
 11
699.647263
 21
168.592866
 31
0.0
  0
ENDBLK
  5
150
330
14E
100
AcDbEntity
  8
0
100
AcDbBlockEnd
  0
BLOCK
  5
15E
330
15D
100
AcDbEntity
  8
0
100
AcDbBlockBegin
  2
BLKF030
 70
     0
 71
     0
 10
0.0
 20
0.0
 30
0.0
  3
BLKF030
  1

  0
LINE
  5
161
330
15D
100
AcDbEntity
  8
GR1-1
  6
細い実線
 62
     2
100
AcDbLine
 10
699.242263
 20
180.661561
 30
0.0
 11
703.673689
 21
180.661561
 31
0.0
  0
LINE
  5
162
330
15D
100
AcDbEntity
  8
GR1-1
  6
細い実線
 62
     2
100
AcDbLine
 10
699.767263
 20
181.261561
 30
0.0
 11
703.673689
 21
181.261561
 31
0.0
  0
LINE
  5
163
330
15D
100
AcDbEntity
  8
GR1-1
  6
細い実線
 62
     2
100
AcDbLine
 10
703.073689
 20
179.881561
 30
0.0
 11
703.073689
 21
179.101561
 31
0.0
  0
LINE
  5
164
330
15D
100
AcDbEntity
  8
GR1-1
  6
細い実線
 62
     2
100
AcDbLine
 10
703.073689
 20
182.041561
 30
0.0
 11
703.073689
 21
182.821561
 31
0.0
  0
TEXT
  5
165
330
15D
100
AcDbEntity
  8
GR1-1
  6
細い実線
 62
     4
100
AcDbText
 10
702.512109
 20
181.246934
 30
0.0
 40
1.5
  1
10
 50
90.0
 41
0.7
  7
FX_VECTOR
 72
     5
 11
702.512109
 21
183.346934
 31
0.0
100
AcDbText
  0
LINE
  5
166
330
15D
100
AcDbEntity
  8
GR1-1
  6
細い実線
 62
     2
100
AcDbLine
 10
702.943689
 20
179.881561
 30
0.0
 11
703.203689
 21
179.881561
 31
0.0
  0
LINE
  5
167
330
15D
100
AcDbEntity
  8
GR1-1
  6
細い実線
 62
     2
100
AcDbLine
 10
703.203689
 20
179.881561
 30
0.0
 11
703.073689
 21
180.661561
 31
0.0
  0
LINE
  5
168
330
15D
100
AcDbEntity
  8
GR1-1
  6
細い実線
 62
     2
100
AcDbLine
 10
703.073689
 20
180.661561
 30
0.0
 11
702.943689
 21
179.881561
 31
0.0
  0
LINE
  5
169
330
15D
100
AcDbEntity
  8
GR1-1
  6
細い実線
 62
     2
100
AcDbLine
 10
702.943689
 20
182.041561
 30
0.0
 11
703.203689
 21
182.041561
 31
0.0
  0
LINE
  5
16A
330
15D
100
AcDbEntity
  8
GR1-1
  6
細い実線
 62
     2
100
AcDbLine
 10
703.203689
 20
182.041561
 30
0.0
 11
703.073689
 21
181.261561
 31
0.0
  0
LINE
  5
16B
330
15D
100
AcDbEntity
  8
GR1-1
  6
細い実線
 62
     2
100
AcDbLine
 10
703.073689
 20
181.261561
 30
0.0
 11
702.943689
 21
182.041561
 31
0.0
  0
ENDBLK
  5
15F
330
15D
100
AcDbEntity
  8
0
100
AcDbBlockEnd
  0
BLOCK
  5
16D
330
16C
100
AcDbEntity
  8
0
100
AcDbBlockBegin
  2
BLKF031
 70
     0
 71
     0
 10
0.0
 20
0.0
 30
0.0
  3
BLKF031
  1

  0
LINE
  5
170
330
16C
100
AcDbEntity
  8
GR1-1
  6
細い実線
 62
     2
100
AcDbLine
 10
699.242263
 20
180.661561
 30
0.0
 11
703.673689
 21
180.661561
 31
0.0
  0
LINE
  5
171
330
16C
100
AcDbEntity
  8
GR1-1
  6
細い実線
 62
     2
100
AcDbLine
 10
699.242263
 20
178.561561
 30
0.0
 11
703.673689
 21
178.561561
 31
0.0
  0
LINE
  5
172
330
16C
100
AcDbEntity
  8
GR1-1
  6
細い実線
 62
     2
100
AcDbLine
 10
703.073689
 20
181.441561
 30
0.0
 11
703.073689
 21
182.221561
 31
0.0
  0
LINE
  5
173
330
16C
100
AcDbEntity
  8
GR1-1
  6
細い実線
 62
     2
100
AcDbLine
 10
703.073689
 20
177.781561
 30
0.0
 11
703.073689
 21
177.001561
 31
0.0
  0
TEXT
  5
174
330
16C
100
AcDbEntity
  8
GR1-1
  6
細い実線
 62
     4
100
AcDbText
 10
702.628516
 20
178.501523
 30
0.0
 40
1.5
  1
35
 50
90.0
 41
0.7
  7
FX_VECTOR
 72
     5
 11
702.628516
 21
180.601523
 31
0.0
100
AcDbText
  0
LINE
  5
175
330
16C
100
AcDbEntity
  8
GR1-1
  6
細い実線
 62
     2
100
AcDbLine
 10
702.943689
 20
181.441561
 30
0.0
 11
703.203689
 21
181.441561
 31
0.0
  0
LINE
  5
176
330
16C
100
AcDbEntity
  8
GR1-1
  6
細い実線
 62
     2
100
AcDbLine
 10
703.203689
 20
181.441561
 30
0.0
 11
703.073689
 21
180.661561
 31
0.0
  0
LINE
  5
177
330
16C
100
AcDbEntity
  8
GR1-1
  6
細い実線
 62
     2
100
AcDbLine
 10
703.073689
 20
180.661561
 30
0.0
 11
702.943689
 21
181.441561
 31
0.0
  0
LINE
  5
178
330
16C
100
AcDbEntity
  8
GR1-1
  6
細い実線
 62
     2
100
AcDbLine
 10
702.943689
 20
177.781561
 30
0.0
 11
703.203689
 21
177.781561
 31
0.0
  0
LINE
  5
179
330
16C
100
AcDbEntity
  8
GR1-1
  6
細い実線
 62
     2
100
AcDbLine
 10
703.203689
 20
177.781561
 30
0.0
 11
703.073689
 21
178.561561
 31
0.0
  0
LINE
  5
17A
330
16C
100
AcDbEntity
  8
GR1-1
  6
細い実線
 62
     2
100
AcDbLine
 10
703.073689
 20
178.561561
 30
0.0
 11
702.943689
 21
177.781561
 31
0.0
  0
ENDBLK
  5
16E
330
16C
100
AcDbEntity
  8
0
100
AcDbBlockEnd
  0
BLOCK
  5
17C
330
17B
100
AcDbEntity
  8
0
100
AcDbBlockBegin
  2
BLKF032
 70
     0
 71
     0
 10
0.0
 20
0.0
 30
0.0
  3
BLKF032
  1

  0
LINE
  5
17F
330
17B
100
AcDbEntity
  8
GR1-1
  6
細い実線
 62
     2
100
AcDbLine
 10
699.242263
 20
178.561561
 30
0.0
 11
703.673689
 21
178.561561
 31
0.0
  0
LINE
  5
180
330
17B
100
AcDbEntity
  8
GR1-1
  6
細い実線
 62
     2
100
AcDbLine
 10
699.767263
 20
177.961561
 30
0.0
 11
703.673689
 21
177.961561
 31
0.0
  0
LINE
  5
181
330
17B
100
AcDbEntity
  8
GR1-1
  6
細い実線
 62
     2
100
AcDbLine
 10
703.073689
 20
179.341561
 30
0.0
 11
703.073689
 21
180.121561
 31
0.0
  0
LINE
  5
182
330
17B
100
AcDbEntity
  8
GR1-1
  6
細い実線
 62
     2
100
AcDbLine
 10
703.073689
 20
177.181561
 30
0.0
 11
703.073689
 21
176.401561
 31
0.0
  0
TEXT
  5
183
330
17B
100
AcDbEntity
  8
GR1-1
  6
細い実線
 62
     4
100
AcDbText
 10
702.605234
 20
175.942246
 30
0.0
 40
1.5
  1
10
 50
90.0
 41
0.7
  7
FX_VECTOR
 72
     5
 11
702.605234
 21
178.042246
 31
0.0
100
AcDbText
  0
LINE
  5
184
330
17B
100
AcDbEntity
  8
GR1-1
  6
細い実線
 62
     2
100
AcDbLine
 10
702.943689
 20
179.341561
 30
0.0
 11
703.203689
 21
179.341561
 31
0.0
  0
LINE
  5
185
330
17B
100
AcDbEntity
  8
GR1-1
  6
細い実線
 62
     2
100
AcDbLine
 10
703.203689
 20
179.341561
 30
0.0
 11
703.073689
 21
178.561561
 31
0.0
  0
LINE
  5
186
330
17B
100
AcDbEntity
  8
GR1-1
  6
細い実線
 62
     2
100
AcDbLine
 10
703.073689
 20
178.561561
 30
0.0
 11
702.943689
 21
179.341561
 31
0.0
  0
LINE
  5
187
330
17B
100
AcDbEntity
  8
GR1-1
  6
細い実線
 62
     2
100
AcDbLine
 10
702.943689
 20
177.181561
 30
0.0
 11
703.203689
 21
177.181561
 31
0.0
  0
LINE
  5
188
330
17B
100
AcDbEntity
  8
GR1-1
  6
細い実線
 62
     2
100
AcDbLine
 10
703.203689
 20
177.181561
 30
0.0
 11
703.073689
 21
177.961561
 31
0.0
  0
LINE
  5
189
330
17B
100
AcDbEntity
  8
GR1-1
  6
細い実線
 62
     2
100
AcDbLine
 10
703.073689
 20
177.961561
 30
0.0
 11
702.943689
 21
177.181561
 31
0.0
  0
ENDBLK
  5
17D
330
17B
100
AcDbEntity
  8
0
100
AcDbBlockEnd
  0
BLOCK
  5
18B
330
18A
100
AcDbEntity
  8
0
100
AcDbBlockBegin
  2
BLKF033
 70
     0
 71
     0
 10
0.0
 20
0.0
 30
0.0
  3
BLKF033
  1

  0
LINE
  5
18E
330
18A
100
AcDbEntity
  8
GR1-1
  6
細い実線
 62
     2
100
AcDbLine
 10
699.767263
 20
181.261561
 30
0.0
 11
706.836621
 21
181.261561
 31
0.0
  0
LINE
  5
18F
330
18A
100
AcDbEntity
  8
GR1-1
  6
細い実線
 62
     2
100
AcDbLine
 10
699.767263
 20
177.961561
 30
0.0
 11
706.836621
 21
177.961561
 31
0.0
  0
LINE
  5
190
330
18A
100
AcDbEntity
  8
GR1-1
  6
細い実線
 62
     2
100
AcDbLine
 10
706.236621
 20
180.481561
 30
0.0
 11
706.236621
 21
178.741561
 31
0.0
  0
LINE
  5
191
330
18A
100
AcDbEntity
  8
GR1-1
  6
細い実線
 62
     2
100
AcDbLine
 10
706.106621
 20
180.481561
 30
0.0
 11
706.366621
 21
180.481561
 31
0.0
  0
LINE
  5
192
330
18A
100
AcDbEntity
  8
GR1-1
  6
細い実線
 62
     2
100
AcDbLine
 10
706.366621
 20
180.481561
 30
0.0
 11
706.236621
 21
181.261561
 31
0.0
  0
LINE
  5
193
330
18A
100
AcDbEntity
  8
GR1-1
  6
細い実線
 62
     2
100
AcDbLine
 10
706.236621
 20
181.261561
 30
0.0
 11
706.106621
 21
180.481561
 31
0.0
  0
LINE
  5
194
330
18A
100
AcDbEntity
  8
GR1-1
  6
細い実線
 62
     2
100
AcDbLine
 10
706.106621
 20
178.741561
 30
0.0
 11
706.366621
 21
178.741561
 31
0.0
  0
LINE
  5
195
330
18A
100
AcDbEntity
  8
GR1-1
  6
細い実線
 62
     2
100
AcDbLine
 10
706.366621
 20
178.741561
 30
0.0
 11
706.236621
 21
177.961561
 31
0.0
  0
LINE
  5
196
330
18A
100
AcDbEntity
  8
GR1-1
  6
細い実線
 62
     2
100
AcDbLine
 10
706.236621
 20
177.961561
 30
0.0
 11
706.106621
 21
178.741561
 31
0.0
  0
TEXT
  5
197
330
18A
100
AcDbEntity
  8
GR1-1
  6
細い実線
 62
     4
100
AcDbText
 10
705.636562
 20
178.561563
 30
0.0
 40
1.5
  1
55
 50
90.0
 41
0.7
  7
FX_VECTOR
 72
     5
 11
705.636562
 21
180.661563
 31
0.0
100
AcDbText
  0
ENDBLK
  5
18C
330
18A
100
AcDbEntity
  8
0
100
AcDbBlockEnd
  0
BLOCK
  5
199
330
198
100
AcDbEntity
  8
0
100
AcDbBlockBegin
  2
BLKF034
 70
     0
 71
     0
 10
0.0
 20
0.0
 30
0.0
  3
BLKF034
  1

  0
LINE
  5
19C
330
198
100
AcDbEntity
  8
GR1-1
  6
細い実線
 62
     2
100
AcDbLine
 10
696.692263
 20
185.818822
 30
0.0
 11
693.055547
 21
185.818822
 31
0.0
  0
LINE
  5
19D
330
198
100
AcDbEntity
  8
GR1-1
  6
細い実線
 62
     2
100
AcDbLine
 10
695.277937
 20
182.818822
 30
0.0
 11
693.055547
 21
182.818822
 31
0.0
  0
LINE
  5
19E
330
198
100
AcDbEntity
  8
GR1-1
  6
細い実線
 62
     2
100
AcDbLine
 10
693.655547
 20
185.038822
 30
0.0
 11
693.655547
 21
183.598822
 31
0.0
  0
LINE
  5
19F
330
198
100
AcDbEntity
  8
GR1-1
  6
細い実線
 62
     2
100
AcDbLine
 10
693.525547
 20
185.038822
 30
0.0
 11
693.785547
 21
185.038822
 31
0.0
  0
LINE
  5
1A0
330
198
100
AcDbEntity
  8
GR1-1
  6
細い実線
 62
     2
100
AcDbLine
 10
693.785547
 20
185.038822
 30
0.0
 11
693.655547
 21
185.818822
 31
0.0
  0
LINE
  5
1A1
330
198
100
AcDbEntity
  8
GR1-1
  6
細い実線
 62
     2
100
AcDbLine
 10
693.655547
 20
185.818822
 30
0.0
 11
693.525547
 21
185.038822
 31
0.0
  0
LINE
  5
1A2
330
198
100
AcDbEntity
  8
GR1-1
  6
細い実線
 62
     2
100
AcDbLine
 10
693.525547
 20
183.598822
 30
0.0
 11
693.785547
 21
183.598822
 31
0.0
  0
LINE
  5
1A3
330
198
100
AcDbEntity
  8
GR1-1
  6
細い実線
 62
     2
100
AcDbLine
 10
693.785547
 20
183.598822
 30
0.0
 11
693.655547
 21
182.818822
 31
0.0
  0
LINE
  5
1A4
330
198
100
AcDbEntity
  8
GR1-1
  6
細い実線
 62
     2
100
AcDbLine
 10
693.655547
 20
182.818822
 30
0.0
 11
693.525547
 21
183.598822
 31
0.0
  0
TEXT
  5
1A5
330
198
100
AcDbEntity
  8
GR1-1
  6
細い実線
 62
     4
100
AcDbText
 10
693.055547
 20
183.268828
 30
0.0
 40
1.5
  1
50
 50
90.0
 41
0.7
  7
FX_VECTOR
 72
     5
 11
693.055547
 21
185.368828
 31
0.0
100
AcDbText
  0
ENDBLK
  5
19A
330
198
100
AcDbEntity
  8
0
100
AcDbBlockEnd
  0
BLOCK
  5
1A9
330
1A8
100
AcDbEntity
  8
0
100
AcDbBlockBegin
  2
BLKF035
 70
     0
 71
     0
 10
0.0
 20
0.0
 30
0.0
  3
BLKF035
  1

  0
LINE
  5
1AC
330
1A8
100
AcDbEntity
  8
GR1-1
  6
細い実線
 62
     2
100
AcDbLine
 10
683.452713
 20
182.603677
 30
0.0
 11
686.427091
 21
182.603677
 31
0.0
  0
LINE
  5
1AD
330
1A8
100
AcDbEntity
  8
GR1-1
  6
細い実線
 62
     2
100
AcDbLine
 10
682.038387
 20
179.603677
 30
0.0
 11
686.427091
 21
179.603677
 31
0.0
  0
LINE
  5
1AE
330
1A8
100
AcDbEntity
  8
GR1-1
  6
細い実線
 62
     2
100
AcDbLine
 10
685.827091
 20
181.823677
 30
0.0
 11
685.827091
 21
180.383677
 31
0.0
  0
LINE
  5
1AF
330
1A8
100
AcDbEntity
  8
GR1-1
  6
細い実線
 62
     2
100
AcDbLine
 10
685.697091
 20
181.823677
 30
0.0
 11
685.957091
 21
181.823677
 31
0.0
  0
LINE
  5
1B0
330
1A8
100
AcDbEntity
  8
GR1-1
  6
細い実線
 62
     2
100
AcDbLine
 10
685.957091
 20
181.823677
 30
0.0
 11
685.827091
 21
182.603677
 31
0.0
  0
LINE
  5
1B1
330
1A8
100
AcDbEntity
  8
GR1-1
  6
細い実線
 62
     2
100
AcDbLine
 10
685.827091
 20
182.603677
 30
0.0
 11
685.697091
 21
181.823677
 31
0.0
  0
LINE
  5
1B2
330
1A8
100
AcDbEntity
  8
GR1-1
  6
細い実線
 62
     2
100
AcDbLine
 10
685.697091
 20
180.383677
 30
0.0
 11
685.957091
 21
180.383677
 31
0.0
  0
LINE
  5
1B3
330
1A8
100
AcDbEntity
  8
GR1-1
  6
細い実線
 62
     2
100
AcDbLine
 10
685.957091
 20
180.383677
 30
0.0
 11
685.827091
 21
179.603677
 31
0.0
  0
LINE
  5
1B4
330
1A8
100
AcDbEntity
  8
GR1-1
  6
細い実線
 62
     2
100
AcDbLine
 10
685.827091
 20
179.603677
 30
0.0
 11
685.697091
 21
180.383677
 31
0.0
  0
TEXT
  5
1B5
330
1A8
100
AcDbEntity
  8
GR1-1
  6
細い実線
 62
     4
100
AcDbText
 10
685.227031
 20
180.053672
 30
0.0
 40
1.5
  1
50
 50
90.0
 41
0.7
  7
FX_VECTOR
 72
     5
 11
685.227031
 21
182.153672
 31
0.0
100
AcDbText
  0
ENDBLK
  5
1AA
330
1A8
100
AcDbEntity
  8
0
100
AcDbBlockEnd
  0
BLOCK
  5
1B7
330
1B6
100
AcDbEntity
  8
0
100
AcDbBlockBegin
  2
BLKF036
 70
     0
 71
     0
 10
0.0
 20
0.0
 30
0.0
  3
BLKF036
  1

  0
LINE
  5
1BA
330
1B6
100
AcDbEntity
  8
GR1-1
  6
細い実線
 62
     2
100
AcDbLine
 10
693.501493
 20
212.140298
 30
0.0
 11
693.501493
 21
208.171677
 31
0.0
  0
LINE
  5
1BB
330
1B6
100
AcDbEntity
  8
GR1-1
  6
細い実線
 62
     2
100
AcDbLine
 10
693.201493
 20
211.420298
 30
0.0
 11
693.201493
 21
208.171677
 31
0.0
  0
LINE
  5
1BC
330
1B6
100
AcDbEntity
  8
GR1-1
  6
細い実線
 62
     2
100
AcDbLine
 10
694.281493
 20
208.771677
 30
0.0
 11
695.061493
 21
208.771677
 31
0.0
  0
LINE
  5
1BD
330
1B6
100
AcDbEntity
  8
GR1-1
  6
細い実線
 62
     2
100
AcDbLine
 10
692.421493
 20
208.771677
 30
0.0
 11
691.641493
 21
208.771677
 31
0.0
  0
TEXT
  5
1BE
330
1B6
100
AcDbEntity
  8
GR1-1
  6
細い実線
 62
     4
100
AcDbText
 10
691.75
 20
209.1375
 30
0.0
 40
1.5
  1
5
 41
0.7
  7
FX_VECTOR
 72
     5
 11
692.8
 21
209.1375
 31
0.0
100
AcDbText
  0
LINE
  5
1BF
330
1B6
100
AcDbEntity
  8
GR1-1
  6
細い実線
 62
     2
100
AcDbLine
 10
694.281493
 20
208.901677
 30
0.0
 11
694.281493
 21
208.641677
 31
0.0
  0
LINE
  5
1C0
330
1B6
100
AcDbEntity
  8
GR1-1
  6
細い実線
 62
     2
100
AcDbLine
 10
694.281493
 20
208.641677
 30
0.0
 11
693.501493
 21
208.771677
 31
0.0
  0
LINE
  5
1C1
330
1B6
100
AcDbEntity
  8
GR1-1
  6
細い実線
 62
     2
100
AcDbLine
 10
693.501493
 20
208.771677
 30
0.0
 11
694.281493
 21
208.901677
 31
0.0
  0
LINE
  5
1C2
330
1B6
100
AcDbEntity
  8
GR1-1
  6
細い実線
 62
     2
100
AcDbLine
 10
692.421493
 20
208.901677
 30
0.0
 11
692.421493
 21
208.641677
 31
0.0
  0
LINE
  5
1C3
330
1B6
100
AcDbEntity
  8
GR1-1
  6
細い実線
 62
     2
100
AcDbLine
 10
692.421493
 20
208.641677
 30
0.0
 11
693.201493
 21
208.771677
 31
0.0
  0
LINE
  5
1C4
330
1B6
100
AcDbEntity
  8
GR1-1
  6
細い実線
 62
     2
100
AcDbLine
 10
693.201493
 20
208.771677
 30
0.0
 11
692.421493
 21
208.901677
 31
0.0
  0
ENDBLK
  5
1B8
330
1B6
100
AcDbEntity
  8
0
100
AcDbBlockEnd
  0
BLOCK
  5
1C6
330
1C5
100
AcDbEntity
  8
0
100
AcDbBlockBegin
  2
BLKF037
 70
     0
 71
     0
 10
0.0
 20
0.0
 30
0.0
  3
BLKF037
  1

  0
LINE
  5
1C9
330
1C5
100
AcDbEntity
  8
GR1-1
  6
細い実線
 62
     2
100
AcDbLine
 10
693.501493
 20
212.140298
 30
0.0
 11
693.501493
 21
208.171677
 31
0.0
  0
LINE
  5
1CA
330
1C5
100
AcDbEntity
  8
GR1-1
  6
細い実線
 62
     2
100
AcDbLine
 10
695.901493
 20
212.140298
 30
0.0
 11
695.901493
 21
208.171677
 31
0.0
  0
LINE
  5
1CB
330
1C5
100
AcDbEntity
  8
GR1-1
  6
細い実線
 62
     2
100
AcDbLine
 10
692.721493
 20
208.771677
 30
0.0
 11
691.941493
 21
208.771677
 31
0.0
  0
LINE
  5
1CC
330
1C5
100
AcDbEntity
  8
GR1-1
  6
細い実線
 62
     2
100
AcDbLine
 10
696.681493
 20
208.771677
 30
0.0
 11
697.461493
 21
208.771677
 31
0.0
  0
TEXT
  5
1CD
330
1C5
100
AcDbEntity
  8
GR1-1
  6
細い実線
 62
     4
100
AcDbText
 10
693.536563
 20
209.215352
 30
0.0
 40
1.5
  1
40
 41
0.7
  7
FX_VECTOR
 72
     5
 11
695.636563
 21
209.215352
 31
0.0
100
AcDbText
  0
LINE
  5
1CE
330
1C5
100
AcDbEntity
  8
GR1-1
  6
細い実線
 62
     2
100
AcDbLine
 10
692.721493
 20
208.901677
 30
0.0
 11
692.721493
 21
208.641677
 31
0.0
  0
LINE
  5
1CF
330
1C5
100
AcDbEntity
  8
GR1-1
  6
細い実線
 62
     2
100
AcDbLine
 10
692.721493
 20
208.641677
 30
0.0
 11
693.501493
 21
208.771677
 31
0.0
  0
LINE
  5
1D0
330
1C5
100
AcDbEntity
  8
GR1-1
  6
細い実線
 62
     2
100
AcDbLine
 10
693.501493
 20
208.771677
 30
0.0
 11
692.721493
 21
208.901677
 31
0.0
  0
LINE
  5
1D1
330
1C5
100
AcDbEntity
  8
GR1-1
  6
細い実線
 62
     2
100
AcDbLine
 10
696.681493
 20
208.901677
 30
0.0
 11
696.681493
 21
208.641677
 31
0.0
  0
LINE
  5
1D2
330
1C5
100
AcDbEntity
  8
GR1-1
  6
細い実線
 62
     2
100
AcDbLine
 10
696.681493
 20
208.641677
 30
0.0
 11
695.901493
 21
208.771677
 31
0.0
  0
LINE
  5
1D3
330
1C5
100
AcDbEntity
  8
GR1-1
  6
細い実線
 62
     2
100
AcDbLine
 10
695.901493
 20
208.771677
 30
0.0
 11
696.681493
 21
208.901677
 31
0.0
  0
ENDBLK
  5
1C7
330
1C5
100
AcDbEntity
  8
0
100
AcDbBlockEnd
  0
BLOCK
  5
1D5
330
1D4
100
AcDbEntity
  8
0
100
AcDbBlockBegin
  2
BLKF038
 70
     0
 71
     0
 10
0.0
 20
0.0
 30
0.0
  3
BLKF038
  1

  0
LINE
  5
1D8
330
1D4
100
AcDbEntity
  8
GR1-1
  6
細い実線
 62
     2
100
AcDbLine
 10
693.201493
 20
211.420298
 30
0.0
 11
693.201493
 21
204.528202
 31
0.0
  0
LINE
  5
1D9
330
1D4
100
AcDbEntity
  8
GR1-1
  6
細い実線
 62
     2
100
AcDbLine
 10
695.901493
 20
212.140298
 30
0.0
 11
695.901493
 21
204.528202
 31
0.0
  0
LINE
  5
1DA
330
1D4
100
AcDbEntity
  8
GR1-1
  6
細い実線
 62
     2
100
AcDbLine
 10
692.421493
 20
205.128202
 30
0.0
 11
691.641493
 21
205.128202
 31
0.0
  0
LINE
  5
1DB
330
1D4
100
AcDbEntity
  8
GR1-1
  6
細い実線
 62
     2
100
AcDbLine
 10
696.681493
 20
205.128202
 30
0.0
 11
697.461493
 21
205.128202
 31
0.0
  0
TEXT
  5
1DC
330
1D4
100
AcDbEntity
  8
GR1-1
  6
細い実線
 62
     4
100
AcDbText
 10
693.458594
 20
205.596563
 30
0.0
 40
1.5
  1
45
 41
0.7
  7
FX_VECTOR
 72
     5
 11
695.558594
 21
205.596563
 31
0.0
100
AcDbText
  0
LINE
  5
1DD
330
1D4
100
AcDbEntity
  8
GR1-1
  6
細い実線
 62
     2
100
AcDbLine
 10
692.421493
 20
205.258202
 30
0.0
 11
692.421493
 21
204.998202
 31
0.0
  0
LINE
  5
1DE
330
1D4
100
AcDbEntity
  8
GR1-1
  6
細い実線
 62
     2
100
AcDbLine
 10
692.421493
 20
204.998202
 30
0.0
 11
693.201493
 21
205.128202
 31
0.0
  0
LINE
  5
1DF
330
1D4
100
AcDbEntity
  8
GR1-1
  6
細い実線
 62
     2
100
AcDbLine
 10
693.201493
 20
205.128202
 30
0.0
 11
692.421493
 21
205.258202
 31
0.0
  0
LINE
  5
1E0
330
1D4
100
AcDbEntity
  8
GR1-1
  6
細い実線
 62
     2
100
AcDbLine
 10
696.681493
 20
205.258202
 30
0.0
 11
696.681493
 21
204.998202
 31
0.0
  0
LINE
  5
1E1
330
1D4
100
AcDbEntity
  8
GR1-1
  6
細い実線
 62
     2
100
AcDbLine
 10
696.681493
 20
204.998202
 30
0.0
 11
695.901493
 21
205.128202
 31
0.0
  0
LINE
  5
1E2
330
1D4
100
AcDbEntity
  8
GR1-1
  6
細い実線
 62
     2
100
AcDbLine
 10
695.901493
 20
205.128202
 30
0.0
 11
696.681493
 21
205.258202
 31
0.0
  0
ENDBLK
  5
1D6
330
1D4
100
AcDbEntity
  8
0
100
AcDbBlockEnd
  0
BLOCK
  5
1E4
330
1E3
100
AcDbEntity
  8
0
100
AcDbBlockBegin
  2
BLKF039
 70
     0
 71
     0
 10
0.0
 20
0.0
 30
0.0
  3
BLKF039
  1

  0
LINE
  5
1E7
330
1E3
100
AcDbEntity
  8
GR1-1
  6
細い実線
 62
     2
100
AcDbLine
 10
683.35119
 20
212.140298
 30
0.0
 11
683.35119
 21
208.171677
 31
0.0
  0
LINE
  5
1E8
330
1E3
100
AcDbEntity
  8
GR1-1
  6
細い実線
 62
     2
100
AcDbLine
 10
683.05119
 20
211.420298
 30
0.0
 11
683.05119
 21
208.171677
 31
0.0
  0
LINE
  5
1E9
330
1E3
100
AcDbEntity
  8
GR1-1
  6
細い実線
 62
     2
100
AcDbLine
 10
684.13119
 20
208.771677
 30
0.0
 11
684.91119
 21
208.771677
 31
0.0
  0
LINE
  5
1EA
330
1E3
100
AcDbEntity
  8
GR1-1
  6
細い実線
 62
     2
100
AcDbLine
 10
682.27119
 20
208.771677
 30
0.0
 11
681.49119
 21
208.771677
 31
0.0
  0
TEXT
  5
1EB
330
1E3
100
AcDbEntity
  8
GR1-1
  6
細い実線
 62
     4
100
AcDbText
 10
681.620625
 20
209.189395
 30
0.0
 40
1.5
  1
5
 41
0.7
  7
FX_VECTOR
 72
     5
 11
682.670625
 21
209.189395
 31
0.0
100
AcDbText
  0
LINE
  5
1EC
330
1E3
100
AcDbEntity
  8
GR1-1
  6
細い実線
 62
     2
100
AcDbLine
 10
684.13119
 20
208.901677
 30
0.0
 11
684.13119
 21
208.641677
 31
0.0
  0
LINE
  5
1ED
330
1E3
100
AcDbEntity
  8
GR1-1
  6
細い実線
 62
     2
100
AcDbLine
 10
684.13119
 20
208.641677
 30
0.0
 11
683.35119
 21
208.771677
 31
0.0
  0
LINE
  5
1EE
330
1E3
100
AcDbEntity
  8
GR1-1
  6
細い実線
 62
     2
100
AcDbLine
 10
683.35119
 20
208.771677
 30
0.0
 11
684.13119
 21
208.901677
 31
0.0
  0
LINE
  5
1EF
330
1E3
100
AcDbEntity
  8
GR1-1
  6
細い実線
 62
     2
100
AcDbLine
 10
682.27119
 20
208.901677
 30
0.0
 11
682.27119
 21
208.641677
 31
0.0
  0
LINE
  5
1F0
330
1E3
100
AcDbEntity
  8
GR1-1
  6
細い実線
 62
     2
100
AcDbLine
 10
682.27119
 20
208.641677
 30
0.0
 11
683.05119
 21
208.771677
 31
0.0
  0
LINE
  5
1F1
330
1E3
100
AcDbEntity
  8
GR1-1
  6
細い実線
 62
     2
100
AcDbLine
 10
683.05119
 20
208.771677
 30
0.0
 11
682.27119
 21
208.901677
 31
0.0
  0
ENDBLK
  5
1E5
330
1E3
100
AcDbEntity
  8
0
100
AcDbBlockEnd
  0
BLOCK
  5
1F3
330
1F2
100
AcDbEntity
  8
0
100
AcDbBlockBegin
  2
BLKF040
 70
     0
 71
     0
 10
0.0
 20
0.0
 30
0.0
  3
BLKF040
  1

  0
LINE
  5
1F6
330
1F2
100
AcDbEntity
  8
GR1-1
  6
細い実線
 62
     2
100
AcDbLine
 10
683.35119
 20
212.140298
 30
0.0
 11
683.35119
 21
208.171677
 31
0.0
  0
LINE
  5
1F7
330
1F2
100
AcDbEntity
  8
GR1-1
  6
細い実線
 62
     2
100
AcDbLine
 10
685.75119
 20
212.140298
 30
0.0
 11
685.75119
 21
208.171677
 31
0.0
  0
LINE
  5
1F8
330
1F2
100
AcDbEntity
  8
GR1-1
  6
細い実線
 62
     2
100
AcDbLine
 10
682.57119
 20
208.771677
 30
0.0
 11
681.79119
 21
208.771677
 31
0.0
  0
LINE
  5
1F9
330
1F2
100
AcDbEntity
  8
GR1-1
  6
細い実線
 62
     2
100
AcDbLine
 10
686.53119
 20
208.771677
 30
0.0
 11
687.31119
 21
208.771677
 31
0.0
  0
TEXT
  5
1FA
330
1F2
100
AcDbEntity
  8
GR1-1
  6
細い実線
 62
     4
100
AcDbText
 10
683.277344
 20
209.215352
 30
0.0
 40
1.5
  1
40
 41
0.7
  7
FX_VECTOR
 72
     5
 11
685.377344
 21
209.215352
 31
0.0
100
AcDbText
  0
LINE
  5
1FB
330
1F2
100
AcDbEntity
  8
GR1-1
  6
細い実線
 62
     2
100
AcDbLine
 10
682.57119
 20
208.901677
 30
0.0
 11
682.57119
 21
208.641677
 31
0.0
  0
LINE
  5
1FC
330
1F2
100
AcDbEntity
  8
GR1-1
  6
細い実線
 62
     2
100
AcDbLine
 10
682.57119
 20
208.641677
 30
0.0
 11
683.35119
 21
208.771677
 31
0.0
  0
LINE
  5
1FD
330
1F2
100
AcDbEntity
  8
GR1-1
  6
細い実線
 62
     2
100
AcDbLine
 10
683.35119
 20
208.771677
 30
0.0
 11
682.57119
 21
208.901677
 31
0.0
  0
LINE
  5
1FE
330
1F2
100
AcDbEntity
  8
GR1-1
  6
細い実線
 62
     2
100
AcDbLine
 10
686.53119
 20
208.901677
 30
0.0
 11
686.53119
 21
208.641677
 31
0.0
  0
LINE
  5
1FF
330
1F2
100
AcDbEntity
  8
GR1-1
  6
細い実線
 62
     2
100
AcDbLine
 10
686.53119
 20
208.641677
 30
0.0
 11
685.75119
 21
208.771677
 31
0.0
  0
LINE
  5
200
330
1F2
100
AcDbEntity
  8
GR1-1
  6
細い実線
 62
     2
100
AcDbLine
 10
685.75119
 20
208.771677
 30
0.0
 11
686.53119
 21
208.901677
 31
0.0
  0
ENDBLK
  5
1F4
330
1F2
100
AcDbEntity
  8
0
100
AcDbBlockEnd
  0
BLOCK
  5
202
330
201
100
AcDbEntity
  8
0
100
AcDbBlockBegin
  2
BLKF041
 70
     0
 71
     0
 10
0.0
 20
0.0
 30
0.0
  3
BLKF041
  1

  0
LINE
  5
205
330
201
100
AcDbEntity
  8
GR1-1
  6
細い実線
 62
     2
100
AcDbLine
 10
685.75119
 20
212.140298
 30
0.0
 11
685.75119
 21
208.171677
 31
0.0
  0
LINE
  5
206
330
201
100
AcDbEntity
  8
GR1-1
  6
細い実線
 62
     2
100
AcDbLine
 10
686.05119
 20
211.420298
 30
0.0
 11
686.05119
 21
208.171677
 31
0.0
  0
LINE
  5
207
330
201
100
AcDbEntity
  8
GR1-1
  6
細い実線
 62
     2
100
AcDbLine
 10
684.97119
 20
208.771677
 30
0.0
 11
684.19119
 21
208.771677
 31
0.0
  0
LINE
  5
208
330
201
100
AcDbEntity
  8
GR1-1
  6
細い実線
 62
     2
100
AcDbLine
 10
686.83119
 20
208.771677
 30
0.0
 11
687.61119
 21
208.771677
 31
0.0
  0
TEXT
  5
209
330
201
100
AcDbEntity
  8
GR1-1
  6
細い実線
 62
     4
100
AcDbText
 10
686.217813
 20
209.215352
 30
0.0
 40
1.5
  1
5
 41
0.7
  7
FX_VECTOR
 72
     5
 11
687.267812
 21
209.215352
 31
0.0
100
AcDbText
  0
LINE
  5
20A
330
201
100
AcDbEntity
  8
GR1-1
  6
細い実線
 62
     2
100
AcDbLine
 10
684.97119
 20
208.901677
 30
0.0
 11
684.97119
 21
208.641677
 31
0.0
  0
LINE
  5
20B
330
201
100
AcDbEntity
  8
GR1-1
  6
細い実線
 62
     2
100
AcDbLine
 10
684.97119
 20
208.641677
 30
0.0
 11
685.75119
 21
208.771677
 31
0.0
  0
LINE
  5
20C
330
201
100
AcDbEntity
  8
GR1-1
  6
細い実線
 62
     2
100
AcDbLine
 10
685.75119
 20
208.771677
 30
0.0
 11
684.97119
 21
208.901677
 31
0.0
  0
LINE
  5
20D
330
201
100
AcDbEntity
  8
GR1-1
  6
細い実線
 62
     2
100
AcDbLine
 10
686.83119
 20
208.901677
 30
0.0
 11
686.83119
 21
208.641677
 31
0.0
  0
LINE
  5
20E
330
201
100
AcDbEntity
  8
GR1-1
  6
細い実線
 62
     2
100
AcDbLine
 10
686.83119
 20
208.641677
 30
0.0
 11
686.05119
 21
208.771677
 31
0.0
  0
LINE
  5
20F
330
201
100
AcDbEntity
  8
GR1-1
  6
細い実線
 62
     2
100
AcDbLine
 10
686.05119
 20
208.771677
 30
0.0
 11
686.83119
 21
208.901677
 31
0.0
  0
ENDBLK
  5
203
330
201
100
AcDbEntity
  8
0
100
AcDbBlockEnd
  0
BLOCK
  5
211
330
210
100
AcDbEntity
  8
0
100
AcDbBlockBegin
  2
BLKF042
 70
     0
 71
     0
 10
0.0
 20
0.0
 30
0.0
  3
BLKF042
  1

  0
LINE
  5
214
330
210
100
AcDbEntity
  8
GR1-1
  6
細い実線
 62
     2
100
AcDbLine
 10
683.05119
 20
211.420298
 30
0.0
 11
683.05119
 21
204.528202
 31
0.0
  0
LINE
  5
215
330
210
100
AcDbEntity
  8
GR1-1
  6
細い実線
 62
     2
100
AcDbLine
 10
686.05119
 20
211.420298
 30
0.0
 11
686.05119
 21
204.528202
 31
0.0
  0
LINE
  5
216
330
210
100
AcDbEntity
  8
GR1-1
  6
細い実線
 62
     2
100
AcDbLine
 10
683.83119
 20
205.128202
 30
0.0
 11
685.27119
 21
205.128202
 31
0.0
  0
LINE
  5
217
330
210
100
AcDbEntity
  8
GR1-1
  6
細い実線
 62
     2
100
AcDbLine
 10
683.83119
 20
205.258202
 30
0.0
 11
683.83119
 21
204.998202
 31
0.0
  0
LINE
  5
218
330
210
100
AcDbEntity
  8
GR1-1
  6
細い実線
 62
     2
100
AcDbLine
 10
683.83119
 20
204.998202
 30
0.0
 11
683.05119
 21
205.128202
 31
0.0
  0
LINE
  5
219
330
210
100
AcDbEntity
  8
GR1-1
  6
細い実線
 62
     2
100
AcDbLine
 10
683.05119
 20
205.128202
 30
0.0
 11
683.83119
 21
205.258202
 31
0.0
  0
LINE
  5
21A
330
210
100
AcDbEntity
  8
GR1-1
  6
細い実線
 62
     2
100
AcDbLine
 10
685.27119
 20
205.258202
 30
0.0
 11
685.27119
 21
204.998202
 31
0.0
  0
LINE
  5
21B
330
210
100
AcDbEntity
  8
GR1-1
  6
細い実線
 62
     2
100
AcDbLine
 10
685.27119
 20
204.998202
 30
0.0
 11
686.05119
 21
205.128202
 31
0.0
  0
LINE
  5
21C
330
210
100
AcDbEntity
  8
GR1-1
  6
細い実線
 62
     2
100
AcDbLine
 10
686.05119
 20
205.128202
 30
0.0
 11
685.27119
 21
205.258202
 31
0.0
  0
TEXT
  5
21D
330
210
100
AcDbEntity
  8
GR1-1
  6
細い実線
 62
     4
100
AcDbText
 10
683.501172
 20
205.728203
 30
0.0
 40
1.5
  1
50
 41
0.7
  7
FX_VECTOR
 72
     5
 11
685.601172
 21
205.728203
 31
0.0
100
AcDbText
  0
ENDBLK
  5
212
330
210
100
AcDbEntity
  8
0
100
AcDbBlockEnd
  0
BLOCK
  5
21F
330
21E
100
AcDbEntity
  8
0
100
AcDbBlockBegin
  2
BLKF043
 70
     0
 71
     0
 10
0.0
 20
0.0
 30
0.0
  3
BLKF043
  1

  0
LINE
  5
222
330
21E
100
AcDbEntity
  8
GR1-1
  6
細い実線
 62
     2
100
AcDbLine
 10
692.301493
 20
212.320298
 30
0.0
 11
688.649178
 21
212.320298
 31
0.0
  0
LINE
  5
223
330
21E
100
AcDbEntity
  8
GR1-1
  6
細い実線
 62
     2
100
AcDbLine
 10
692.601493
 20
213.040298
 30
0.0
 11
688.649178
 21
213.040298
 31
0.0
  0
LINE
  5
224
330
21E
100
AcDbEntity
  8
GR1-1
  6
細い実線
 62
     2
100
AcDbLine
 10
689.249178
 20
211.540298
 30
0.0
 11
689.249178
 21
210.760298
 31
0.0
  0
LINE
  5
225
330
21E
100
AcDbEntity
  8
GR1-1
  6
細い実線
 62
     2
100
AcDbLine
 10
689.249178
 20
213.820298
 30
0.0
 11
689.249178
 21
214.600298
 31
0.0
  0
TEXT
  5
226
330
21E
100
AcDbEntity
  8
GR1-1
  6
細い実線
 62
     4
100
AcDbText
 10
688.700547
 20
213.391562
 30
0.0
 40
1.5
  1
12
 50
90.0
 41
0.7
  7
FX_VECTOR
 72
     5
 11
688.700547
 21
215.491563
 31
0.0
100
AcDbText
  0
LINE
  5
227
330
21E
100
AcDbEntity
  8
GR1-1
  6
細い実線
 62
     2
100
AcDbLine
 10
689.119178
 20
211.540298
 30
0.0
 11
689.379178
 21
211.540298
 31
0.0
  0
LINE
  5
228
330
21E
100
AcDbEntity
  8
GR1-1
  6
細い実線
 62
     2
100
AcDbLine
 10
689.379178
 20
211.540298
 30
0.0
 11
689.249178
 21
212.320298
 31
0.0
  0
LINE
  5
229
330
21E
100
AcDbEntity
  8
GR1-1
  6
細い実線
 62
     2
100
AcDbLine
 10
689.249178
 20
212.320298
 30
0.0
 11
689.119178
 21
211.540298
 31
0.0
  0
LINE
  5
22A
330
21E
100
AcDbEntity
  8
GR1-1
  6
細い実線
 62
     2
100
AcDbLine
 10
689.119178
 20
213.820298
 30
0.0
 11
689.379178
 21
213.820298
 31
0.0
  0
LINE
  5
22B
330
21E
100
AcDbEntity
  8
GR1-1
  6
細い実線
 62
     2
100
AcDbLine
 10
689.379178
 20
213.820298
 30
0.0
 11
689.249178
 21
213.040298
 31
0.0
  0
LINE
  5
22C
330
21E
100
AcDbEntity
  8
GR1-1
  6
細い実線
 62
     2
100
AcDbLine
 10
689.249178
 20
213.040298
 30
0.0
 11
689.119178
 21
213.820298
 31
0.0
  0
ENDBLK
  5
220
330
21E
100
AcDbEntity
  8
0
100
AcDbBlockEnd
  0
BLOCK
  5
230
330
22F
100
AcDbEntity
  8
0
100
AcDbBlockBegin
  2
BLKF044
 70
     0
 71
     0
 10
0.0
 20
0.0
 30
0.0
  3
BLKF044
  1

  0
LINE
  5
233
330
22F
100
AcDbEntity
  8
GR1-1
  6
CONTINUOUS
 62
     2
100
AcDbLine
 10
782.113846
 20
117.454213
 30
0.0
 11
779.602251
 21
112.431022
 31
0.0
  0
LINE
  5
234
330
22F
100
AcDbEntity
  8
GR1-1
  6
CONTINUOUS
 62
     2
100
AcDbLine
 10
782.471617
 20
117.275328
 30
0.0
 11
779.960022
 21
112.252136
 31
0.0
  0
LINE
  5
235
330
22F
100
AcDbEntity
  8
GR1-1
  6
CONTINUOUS
 62
     2
100
AcDbLine
 10
779.172926
 20
113.316504
 30
0.0
 11
778.475273
 21
113.665331
 31
0.0
  0
LINE
  5
236
330
22F
100
AcDbEntity
  8
GR1-1
  6
CONTINUOUS
 62
     2
100
AcDbLine
 10
780.926003
 20
112.439966
 30
0.0
 11
781.623656
 21
112.091139
 31
0.0
  0
TEXT
  5
237
330
22F
100
AcDbEntity
  8
GR1-1
  6
CONTINUOUS
 62
     4
100
AcDbText
 10
780.724844
 20
113.198555
 30
0.0
 40
1.5
  1
20
 50
333.434937
 41
0.7
  7
FX_VECTOR
 72
     5
 11
782.603141
 21
112.259406
 31
0.0
100
AcDbText
  0
LINE
  5
238
330
22F
100
AcDbEntity
  8
GR1-1
  6
CONTINUOUS
 62
     2
100
AcDbLine
 10
779.231063
 20
113.43278
 30
0.0
 11
779.114788
 21
113.200229
 31
0.0
  0
LINE
  5
239
330
22F
100
AcDbEntity
  8
GR1-1
  6
CONTINUOUS
 62
     2
100
AcDbLine
 10
779.114788
 20
113.200229
 30
0.0
 11
779.870579
 21
112.967678
 31
0.0
  0
LINE
  5
23A
330
22F
100
AcDbEntity
  8
GR1-1
  6
CONTINUOUS
 62
     2
100
AcDbLine
 10
779.870579
 20
112.967678
 30
0.0
 11
779.231063
 21
113.43278
 31
0.0
  0
LINE
  5
23B
330
22F
100
AcDbEntity
  8
GR1-1
  6
CONTINUOUS
 62
     2
100
AcDbLine
 10
780.984141
 20
112.556241
 30
0.0
 11
780.867865
 21
112.32369
 31
0.0
  0
LINE
  5
23C
330
22F
100
AcDbEntity
  8
GR1-1
  6
CONTINUOUS
 62
     2
100
AcDbLine
 10
780.867865
 20
112.32369
 30
0.0
 11
780.22835
 21
112.788792
 31
0.0
  0
LINE
  5
23D
330
22F
100
AcDbEntity
  8
GR1-1
  6
CONTINUOUS
 62
     2
100
AcDbLine
 10
780.22835
 20
112.788792
 30
0.0
 11
780.984141
 21
112.556241
 31
0.0
  0
ENDBLK
  5
231
330
22F
100
AcDbEntity
  8
0
100
AcDbBlockEnd
  0
BLOCK
  5
23F
330
23E
100
AcDbEntity
  8
0
100
AcDbBlockBegin
  2
BLKF045
 70
     0
 71
     0
 10
0.0
 20
0.0
 30
0.0
  3
BLKF045
  1

  0
LINE
  5
242
330
23E
100
AcDbEntity
  8
GR1-1
  6
CONTINUOUS
 62
     2
100
AcDbLine
 10
782.113846
 20
117.454213
 30
0.0
 11
779.602251
 21
112.431022
 31
0.0
  0
LINE
  5
243
330
23E
100
AcDbEntity
  8
GR1-1
  6
CONTINUOUS
 62
     2
100
AcDbLine
 10
781.219419
 20
117.901427
 30
0.0
 11
778.707824
 21
112.878235
 31
0.0
  0
LINE
  5
244
330
23E
100
AcDbEntity
  8
GR1-1
  6
CONTINUOUS
 62
     2
100
AcDbLine
 10
780.568232
 20
112.618851
 30
0.0
 11
781.265885
 21
112.270025
 31
0.0
  0
LINE
  5
245
330
23E
100
AcDbEntity
  8
GR1-1
  6
CONTINUOUS
 62
     2
100
AcDbLine
 10
778.278499
 20
113.763718
 30
0.0
 11
777.580845
 21
114.112545
 31
0.0
  0
TEXT
  5
246
330
23E
100
AcDbEntity
  8
GR1-1
  6
CONTINUOUS
 62
     4
100
AcDbText
 10
778.631953
 20
114.223496
 30
0.0
 40
1.5
  1
50
 50
333.434937
 41
0.7
  7
FX_VECTOR
 72
     5
 11
780.51025
 21
113.284347
 31
0.0
100
AcDbText
  0
LINE
  5
247
330
23E
100
AcDbEntity
  8
GR1-1
  6
CONTINUOUS
 62
     2
100
AcDbLine
 10
780.62637
 20
112.735127
 30
0.0
 11
780.510094
 21
112.502576
 31
0.0
  0
LINE
  5
248
330
23E
100
AcDbEntity
  8
GR1-1
  6
CONTINUOUS
 62
     2
100
AcDbLine
 10
780.510094
 20
112.502576
 30
0.0
 11
779.870579
 21
112.967678
 31
0.0
  0
LINE
  5
249
330
23E
100
AcDbEntity
  8
GR1-1
  6
CONTINUOUS
 62
     2
100
AcDbLine
 10
779.870579
 20
112.967678
 30
0.0
 11
780.62637
 21
112.735127
 31
0.0
  0
LINE
  5
24A
330
23E
100
AcDbEntity
  8
GR1-1
  6
CONTINUOUS
 62
     2
100
AcDbLine
 10
778.336636
 20
113.879994
 30
0.0
 11
778.220361
 21
113.647443
 31
0.0
  0
LINE
  5
24B
330
23E
100
AcDbEntity
  8
GR1-1
  6
CONTINUOUS
 62
     2
100
AcDbLine
 10
778.220361
 20
113.647443
 30
0.0
 11
778.976152
 21
113.414891
 31
0.0
  0
LINE
  5
24C
330
23E
100
AcDbEntity
  8
GR1-1
  6
CONTINUOUS
 62
     2
100
AcDbLine
 10
778.976152
 20
113.414891
 30
0.0
 11
778.336636
 21
113.879994
 31
0.0
  0
ENDBLK
  5
240
330
23E
100
AcDbEntity
  8
0
100
AcDbBlockEnd
  0
BLOCK
  5
24E
330
24D
100
AcDbEntity
  8
0
100
AcDbBlockBegin
  2
BLKF046
 70
     0
 71
     0
 10
0.0
 20
0.0
 30
0.0
  3
BLKF046
  1

  0
LINE
  5
251
330
24D
100
AcDbEntity
  8
GR1-1
  6
CONTINUOUS
 62
     2
100
AcDbLine
 10
816.142973
 20
117.479338
 30
0.0
 11
813.631377
 21
112.456146
 31
0.0
  0
LINE
  5
252
330
24D
100
AcDbEntity
  8
GR1-1
  6
CONTINUOUS
 62
     2
100
AcDbLine
 10
815.785202
 20
117.658223
 30
0.0
 11
813.273606
 21
112.635032
 31
0.0
  0
LINE
  5
253
330
24D
100
AcDbEntity
  8
GR1-1
  6
CONTINUOUS
 62
     2
100
AcDbLine
 10
814.597359
 20
112.643976
 30
0.0
 11
815.295012
 21
112.295149
 31
0.0
  0
LINE
  5
254
330
24D
100
AcDbEntity
  8
GR1-1
  6
CONTINUOUS
 62
     2
100
AcDbLine
 10
812.844281
 20
113.520515
 30
0.0
 11
812.146628
 21
113.869341
 31
0.0
  0
TEXT
  5
255
330
24D
100
AcDbEntity
  8
GR1-1
  6
CONTINUOUS
 62
     4
100
AcDbText
 10
811.693594
 20
114.753867
 30
0.0
 40
1.5
  1
20
 50
333.434937
 41
0.7
  7
FX_VECTOR
 72
     5
 11
813.571891
 21
113.814718
 31
0.0
100
AcDbText
  0
LINE
  5
256
330
24D
100
AcDbEntity
  8
GR1-1
  6
CONTINUOUS
 62
     2
100
AcDbLine
 10
814.655496
 20
112.760251
 30
0.0
 11
814.539221
 21
112.5277
 31
0.0
  0
LINE
  5
257
330
24D
100
AcDbEntity
  8
GR1-1
  6
CONTINUOUS
 62
     2
100
AcDbLine
 10
814.539221
 20
112.5277
 30
0.0
 11
813.899706
 21
112.992803
 31
0.0
  0
LINE
  5
258
330
24D
100
AcDbEntity
  8
GR1-1
  6
CONTINUOUS
 62
     2
100
AcDbLine
 10
813.899706
 20
112.992803
 30
0.0
 11
814.655496
 21
112.760251
 31
0.0
  0
LINE
  5
259
330
24D
100
AcDbEntity
  8
GR1-1
  6
CONTINUOUS
 62
     2
100
AcDbLine
 10
812.902419
 20
113.63679
 30
0.0
 11
812.786144
 21
113.404239
 31
0.0
  0
LINE
  5
25A
330
24D
100
AcDbEntity
  8
GR1-1
  6
CONTINUOUS
 62
     2
100
AcDbLine
 10
812.786144
 20
113.404239
 30
0.0
 11
813.541935
 21
113.171688
 31
0.0
  0
LINE
  5
25B
330
24D
100
AcDbEntity
  8
GR1-1
  6
CONTINUOUS
 62
     2
100
AcDbLine
 10
813.541935
 20
113.171688
 30
0.0
 11
812.902419
 21
113.63679
 31
0.0
  0
ENDBLK
  5
24F
330
24D
100
AcDbEntity
  8
0
100
AcDbBlockEnd
  0
BLOCK
  5
25D
330
25C
100
AcDbEntity
  8
0
100
AcDbBlockBegin
  2
BLKF047
 70
     0
 71
     0
 10
0.0
 20
0.0
 30
0.0
  3
BLKF047
  1

  0
LINE
  5
260
330
25C
100
AcDbEntity
  8
GR1-1
  6
CONTINUOUS
 62
     2
100
AcDbLine
 10
816.142973
 20
117.479338
 30
0.0
 11
813.631377
 21
112.456146
 31
0.0
  0
LINE
  5
261
330
25C
100
AcDbEntity
  8
GR1-1
  6
CONTINUOUS
 62
     2
100
AcDbLine
 10
817.0374
 20
117.032124
 30
0.0
 11
814.525805
 21
112.008933
 31
0.0
  0
LINE
  5
262
330
25C
100
AcDbEntity
  8
GR1-1
  6
CONTINUOUS
 62
     2
100
AcDbLine
 10
813.202052
 20
113.341629
 30
0.0
 11
812.504399
 21
113.690456
 31
0.0
  0
LINE
  5
263
330
25C
100
AcDbEntity
  8
GR1-1
  6
CONTINUOUS
 62
     2
100
AcDbLine
 10
815.491786
 20
112.196762
 30
0.0
 11
816.189439
 21
111.847936
 31
0.0
  0
TEXT
  5
264
330
25C
100
AcDbEntity
  8
GR1-1
  6
CONTINUOUS
 62
     4
100
AcDbText
 10
813.769297
 20
113.694512
 30
0.0
 40
1.5
  1
50
 50
333.434937
 41
0.7
  7
FX_VECTOR
 72
     5
 11
815.647594
 21
112.755363
 31
0.0
100
AcDbText
  0
LINE
  5
265
330
25C
100
AcDbEntity
  8
GR1-1
  6
CONTINUOUS
 62
     2
100
AcDbLine
 10
813.26019
 20
113.457905
 30
0.0
 11
813.143915
 21
113.225354
 31
0.0
  0
LINE
  5
266
330
25C
100
AcDbEntity
  8
GR1-1
  6
CONTINUOUS
 62
     2
100
AcDbLine
 10
813.143915
 20
113.225354
 30
0.0
 11
813.899706
 21
112.992803
 31
0.0
  0
LINE
  5
267
330
25C
100
AcDbEntity
  8
GR1-1
  6
CONTINUOUS
 62
     2
100
AcDbLine
 10
813.899706
 20
112.992803
 30
0.0
 11
813.26019
 21
113.457905
 31
0.0
  0
LINE
  5
268
330
25C
100
AcDbEntity
  8
GR1-1
  6
CONTINUOUS
 62
     2
100
AcDbLine
 10
815.549924
 20
112.313038
 30
0.0
 11
815.433648
 21
112.080487
 31
0.0
  0
LINE
  5
269
330
25C
100
AcDbEntity
  8
GR1-1
  6
CONTINUOUS
 62
     2
100
AcDbLine
 10
815.433648
 20
112.080487
 30
0.0
 11
814.794133
 21
112.545589
 31
0.0
  0
LINE
  5
26A
330
25C
100
AcDbEntity
  8
GR1-1
  6
CONTINUOUS
 62
     2
100
AcDbLine
 10
814.794133
 20
112.545589
 30
0.0
 11
815.549924
 21
112.313038
 31
0.0
  0
ENDBLK
  5
25E
330
25C
100
AcDbEntity
  8
0
100
AcDbBlockEnd
  0
BLOCK
  5
26D
330
26C
100
AcDbEntity
  8
0
100
AcDbBlockBegin
  2
BLKF048
 70
     0
 71
     0
 10
0.0
 20
0.0
 30
0.0
  3
BLKF048
  1

  0
LINE
  5
270
330
26C
100
AcDbEntity
  8
GR1-1
  6
CONTINUOUS
 62
     2
100
AcDbLine
 10
711.621214
 20
131.988655
 30
0.0
 11
713.808939
 21
127.613206
 31
0.0
  0
LINE
  5
271
330
26C
100
AcDbEntity
  8
GR1-1
  6
CONTINUOUS
 62
     2
100
AcDbLine
 10
712.247313
 20
132.301704
 30
0.0
 11
714.435038
 21
127.926255
 31
0.0
  0
LINE
  5
272
330
26C
100
AcDbEntity
  8
GR1-1
  6
CONTINUOUS
 62
     2
100
AcDbLine
 10
712.842958
 20
127.801035
 30
0.0
 11
712.145304
 21
127.452209
 31
0.0
  0
LINE
  5
273
330
26C
100
AcDbEntity
  8
GR1-1
  6
CONTINUOUS
 62
     2
100
AcDbLine
 10
714.864363
 20
128.811738
 30
0.0
 11
715.562016
 21
129.160565
 31
0.0
  0
TEXT
  5
274
330
26C
100
AcDbEntity
  8
GR1-1
  6
CONTINUOUS
 62
     4
100
AcDbText
 10
715.069375
 20
129.540977
 30
0.0
 40
1.5
  1
35
 50
26.565052
 41
0.7
  7
FX_VECTOR
 72
     5
 11
716.947672
 21
130.480125
 31
0.0
100
AcDbText
  0
LINE
  5
275
330
26C
100
AcDbEntity
  8
GR1-1
  6
CONTINUOUS
 62
     2
100
AcDbLine
 10
712.78482
 20
127.917311
 30
0.0
 11
712.901095
 21
127.68476
 31
0.0
  0
LINE
  5
276
330
26C
100
AcDbEntity
  8
GR1-1
  6
CONTINUOUS
 62
     2
100
AcDbLine
 10
712.901095
 20
127.68476
 30
0.0
 11
713.540611
 21
128.149862
 31
0.0
  0
LINE
  5
277
330
26C
100
AcDbEntity
  8
GR1-1
  6
CONTINUOUS
 62
     2
100
AcDbLine
 10
713.540611
 20
128.149862
 30
0.0
 11
712.78482
 21
127.917311
 31
0.0
  0
LINE
  5
278
330
26C
100
AcDbEntity
  8
GR1-1
  6
CONTINUOUS
 62
     2
100
AcDbLine
 10
714.806225
 20
128.928014
 30
0.0
 11
714.922501
 21
128.695463
 31
0.0
  0
LINE
  5
279
330
26C
100
AcDbEntity
  8
GR1-1
  6
CONTINUOUS
 62
     2
100
AcDbLine
 10
714.922501
 20
128.695463
 30
0.0
 11
714.16671
 21
128.462911
 31
0.0
  0
LINE
  5
27A
330
26C
100
AcDbEntity
  8
GR1-1
  6
CONTINUOUS
 62
     2
100
AcDbLine
 10
714.16671
 20
128.462911
 30
0.0
 11
714.806225
 21
128.928014
 31
0.0
  0
ENDBLK
  5
26E
330
26C
100
AcDbEntity
  8
0
100
AcDbBlockEnd
  0
BLOCK
  5
27C
330
27B
100
AcDbEntity
  8
0
100
AcDbBlockBegin
  2
BLKF049
 70
     0
 71
     0
 10
0.0
 20
0.0
 30
0.0
  3
BLKF049
  1

  0
LINE
  5
27F
330
27B
100
AcDbEntity
  8
GR1-1
  6
CONTINUOUS
 62
     2
100
AcDbLine
 10
719.27414
 20
118.482804
 30
0.0
 11
723.749607
 21
118.482804
 31
0.0
  0
LINE
  5
280
330
27B
100
AcDbEntity
  8
GR1-1
  6
CONTINUOUS
 62
     2
100
AcDbLine
 10
712.118722
 20
132.793639
 30
0.0
 11
723.749607
 21
132.793639
 31
0.0
  0
LINE
  5
281
330
27B
100
AcDbEntity
  8
GR1-1
  6
CONTINUOUS
 62
     2
100
AcDbLine
 10
723.149607
 20
119.262804
 30
0.0
 11
723.149607
 21
132.013639
 31
0.0
  0
LINE
  5
282
330
27B
100
AcDbEntity
  8
GR1-1
  6
CONTINUOUS
 62
     2
100
AcDbLine
 10
723.019607
 20
119.262804
 30
0.0
 11
723.279607
 21
119.262804
 31
0.0
  0
LINE
  5
283
330
27B
100
AcDbEntity
  8
GR1-1
  6
CONTINUOUS
 62
     2
100
AcDbLine
 10
723.279607
 20
119.262804
 30
0.0
 11
723.149607
 21
118.482804
 31
0.0
  0
LINE
  5
284
330
27B
100
AcDbEntity
  8
GR1-1
  6
CONTINUOUS
 62
     2
100
AcDbLine
 10
723.149607
 20
118.482804
 30
0.0
 11
723.019607
 21
119.262804
 31
0.0
  0
LINE
  5
285
330
27B
100
AcDbEntity
  8
GR1-1
  6
CONTINUOUS
 62
     2
100
AcDbLine
 10
723.019607
 20
132.013639
 30
0.0
 11
723.279607
 21
132.013639
 31
0.0
  0
LINE
  5
286
330
27B
100
AcDbEntity
  8
GR1-1
  6
CONTINUOUS
 62
     2
100
AcDbLine
 10
723.279607
 20
132.013639
 30
0.0
 11
723.149607
 21
132.793639
 31
0.0
  0
LINE
  5
287
330
27B
100
AcDbEntity
  8
GR1-1
  6
CONTINUOUS
 62
     2
100
AcDbLine
 10
723.149607
 20
132.793639
 30
0.0
 11
723.019607
 21
132.013639
 31
0.0
  0
TEXT
  5
288
330
27B
100
AcDbEntity
  8
GR1-1
  6
CONTINUOUS
 62
     4
100
AcDbText
 10
722.549609
 20
123.013223
 30
0.0
 40
1.5
  1
715.5
 50
90.0
 41
0.7
  7
FX_VECTOR
 72
     5
 11
722.549609
 21
128.263223
 31
0.0
100
AcDbText
  0
ENDBLK
  5
27D
330
27B
100
AcDbEntity
  8
0
100
AcDbBlockEnd
  0
BLOCK
  5
28C
330
28B
100
AcDbEntity
  8
0
100
AcDbBlockBegin
  2
BLKF050
 70
     0
 71
     0
 10
0.0
 20
0.0
 30
0.0
  3
BLKF050
  1

  0
LINE
  5
28F
330
28B
100
AcDbEntity
  8
GR1-1
  6
CONTINUOUS
 62
     2
100
AcDbLine
 10
781.062895
 20
122.95494
 30
0.0
 11
775.811688
 21
125.580543
 31
0.0
  0
LINE
  5
290
330
28B
100
AcDbEntity
  8
GR1-1
  6
CONTINUOUS
 62
     2
100
AcDbLine
 10
779.072794
 20
118.974739
 30
0.0
 11
773.821588
 21
121.600342
 31
0.0
  0
LINE
  5
291
330
28B
100
AcDbEntity
  8
GR1-1
  6
CONTINUOUS
 62
     2
100
AcDbLine
 10
775.999518
 20
124.614562
 30
0.0
 11
774.707071
 21
122.029667
 31
0.0
  0
TEXT
  5
292
330
28B
100
AcDbEntity
  8
GR1-1
  6
CONTINUOUS
 62
     4
100
AcDbText
 10
773.531719
 20
121.35377
 30
0.0
 40
1.5
  1
222.5
 50
63.434948
 41
0.7
  7
FX_VECTOR
 72
     5
 11
775.87959
 21
126.049512
 31
0.0
100
AcDbText
  0
LINE
  5
293
330
28B
100
AcDbEntity
  8
GR1-1
  6
CONTINUOUS
 62
     2
100
AcDbLine
 10
775.883242
 20
124.6727
 30
0.0
 11
776.115794
 21
124.556424
 31
0.0
  0
LINE
  5
294
330
28B
100
AcDbEntity
  8
GR1-1
  6
CONTINUOUS
 62
     2
100
AcDbLine
 10
776.115794
 20
124.556424
 30
0.0
 11
776.348345
 21
125.312215
 31
0.0
  0
LINE
  5
295
330
28B
100
AcDbEntity
  8
GR1-1
  6
CONTINUOUS
 62
     2
100
AcDbLine
 10
776.348345
 20
125.312215
 30
0.0
 11
775.883242
 21
124.6727
 31
0.0
  0
LINE
  5
296
330
28B
100
AcDbEntity
  8
GR1-1
  6
CONTINUOUS
 62
     2
100
AcDbLine
 10
774.590795
 20
122.087805
 30
0.0
 11
774.823346
 21
121.97153
 31
0.0
  0
LINE
  5
297
330
28B
100
AcDbEntity
  8
GR1-1
  6
CONTINUOUS
 62
     2
100
AcDbLine
 10
774.823346
 20
121.97153
 30
0.0
 11
774.358244
 21
121.332014
 31
0.0
  0
LINE
  5
298
330
28B
100
AcDbEntity
  8
GR1-1
  6
CONTINUOUS
 62
     2
100
AcDbLine
 10
774.358244
 20
121.332014
 30
0.0
 11
774.590795
 21
122.087805
 31
0.0
  0
ENDBLK
  5
28D
330
28B
100
AcDbEntity
  8
0
100
AcDbBlockEnd
  0
BLOCK
  5
29A
330
299
100
AcDbEntity
  8
0
100
AcDbBlockBegin
  2
BLKF051
 70
     0
 71
     0
 10
0.0
 20
0.0
 30
0.0
  3
BLKF051
  1

  0
LINE
  5
29D
330
299
100
AcDbEntity
  8
GR1-1
  6
CONTINUOUS
 62
     2
100
AcDbLine
 10
781.823158
 20
124.475466
 30
0.0
 11
779.372147
 21
125.700972
 31
0.0
  0
LINE
  5
29E
330
299
100
AcDbEntity
  8
GR1-1
  6
CONTINUOUS
 62
     2
100
AcDbLine
 10
780.302631
 20
121.434414
 30
0.0
 11
777.851621
 21
122.659919
 31
0.0
  0
LINE
  5
29F
330
299
100
AcDbEntity
  8
GR1-1
  6
CONTINUOUS
 62
     2
100
AcDbLine
 10
779.559977
 20
124.73499
 30
0.0
 11
778.737104
 21
123.089244
 31
0.0
  0
TEXT
  5
2A0
330
299
100
AcDbEntity
  8
GR1-1
  6
CONTINUOUS
 62
     4
100
AcDbText
 10
777.851797
 20
122.786094
 30
0.0
 40
1.5
  1
170
 50
63.434948
 41
0.7
  7
FX_VECTOR
 72
     5
 11
779.26052
 21
125.603539
 31
0.0
100
AcDbText
  0
LINE
  5
2A1
330
299
100
AcDbEntity
  8
GR1-1
  6
CONTINUOUS
 62
     2
100
AcDbLine
 10
779.443702
 20
124.793128
 30
0.0
 11
779.676253
 21
124.676852
 31
0.0
  0
LINE
  5
2A2
330
299
100
AcDbEntity
  8
GR1-1
  6
CONTINUOUS
 62
     2
100
AcDbLine
 10
779.676253
 20
124.676852
 30
0.0
 11
779.908804
 21
125.432643
 31
0.0
  0
LINE
  5
2A3
330
299
100
AcDbEntity
  8
GR1-1
  6
CONTINUOUS
 62
     2
100
AcDbLine
 10
779.908804
 20
125.432643
 30
0.0
 11
779.443702
 21
124.793128
 31
0.0
  0
LINE
  5
2A4
330
299
100
AcDbEntity
  8
GR1-1
  6
CONTINUOUS
 62
     2
100
AcDbLine
 10
778.620828
 20
123.147382
 30
0.0
 11
778.85338
 21
123.031106
 31
0.0
  0
LINE
  5
2A5
330
299
100
AcDbEntity
  8
GR1-1
  6
CONTINUOUS
 62
     2
100
AcDbLine
 10
778.85338
 20
123.031106
 30
0.0
 11
778.388277
 21
122.391591
 31
0.0
  0
LINE
  5
2A6
330
299
100
AcDbEntity
  8
GR1-1
  6
CONTINUOUS
 62
     2
100
AcDbLine
 10
778.388277
 20
122.391591
 30
0.0
 11
778.620828
 21
123.147382
 31
0.0
  0
ENDBLK
  5
29B
330
299
100
AcDbEntity
  8
0
100
AcDbBlockEnd
  0
BLOCK
  5
2F8
330
2F7
100
AcDbEntity
  8
0
100
AcDbBlockBegin
  2
BLKF052
 70
     0
 71
     0
 10
0.0
 20
0.0
 30
0.0
  3
BLKF052
  1

  0
LINE
  5
2FB
330
2F7
100
AcDbEntity
  8
GR1-1
  6
CONTINUOUS
 62
     2
100
AcDbLine
 10
711.218722
 20
133.693639
 30
0.0
 11
711.218722
 21
135.359888
 31
0.0
  0
LINE
  5
2FC
330
2F7
100
AcDbEntity
  8
GR1-1
  6
CONTINUOUS
 62
     2
100
AcDbLine
 10
709.218722
 20
132.128225
 30
0.0
 11
709.218722
 21
135.359888
 31
0.0
  0
LINE
  5
2FD
330
2F7
100
AcDbEntity
  8
GR1-1
  6
CONTINUOUS
 62
     2
100
AcDbLine
 10
711.998722
 20
134.759888
 30
0.0
 11
712.778722
 21
134.759888
 31
0.0
  0
LINE
  5
2FE
330
2F7
100
AcDbEntity
  8
GR1-1
  6
CONTINUOUS
 62
     2
100
AcDbLine
 10
708.438722
 20
134.759888
 30
0.0
 11
707.658722
 21
134.759888
 31
0.0
  0
TEXT
  5
2FF
330
2F7
100
AcDbEntity
  8
GR1-1
  6
CONTINUOUS
 62
     4
100
AcDbText
 10
708.64375
 20
136.259883
 30
0.0
 40
1.5
  1
100
 41
0.7
  7
FX_VECTOR
 72
     5
 11
711.79375
 21
136.259883
 31
0.0
100
AcDbText
  0
LINE
  5
300
330
2F7
100
AcDbEntity
  8
GR1-1
  6
CONTINUOUS
 62
     2
100
AcDbLine
 10
711.998722
 20
134.889888
 30
0.0
 11
711.998722
 21
134.629888
 31
0.0
  0
LINE
  5
301
330
2F7
100
AcDbEntity
  8
GR1-1
  6
CONTINUOUS
 62
     2
100
AcDbLine
 10
711.998722
 20
134.629888
 30
0.0
 11
711.218722
 21
134.759888
 31
0.0
  0
LINE
  5
302
330
2F7
100
AcDbEntity
  8
GR1-1
  6
CONTINUOUS
 62
     2
100
AcDbLine
 10
711.218722
 20
134.759888
 30
0.0
 11
711.998722
 21
134.889888
 31
0.0
  0
LINE
  5
303
330
2F7
100
AcDbEntity
  8
GR1-1
  6
CONTINUOUS
 62
     2
100
AcDbLine
 10
708.438722
 20
134.889888
 30
0.0
 11
708.438722
 21
134.629888
 31
0.0
  0
LINE
  5
304
330
2F7
100
AcDbEntity
  8
GR1-1
  6
CONTINUOUS
 62
     2
100
AcDbLine
 10
708.438722
 20
134.629888
 30
0.0
 11
709.218722
 21
134.759888
 31
0.0
  0
LINE
  5
305
330
2F7
100
AcDbEntity
  8
GR1-1
  6
CONTINUOUS
 62
     2
100
AcDbLine
 10
709.218722
 20
134.759888
 30
0.0
 11
708.438722
 21
134.889888
 31
0.0
  0
ENDBLK
  5
2F9
330
2F7
100
AcDbEntity
  8
0
100
AcDbBlockEnd
  0
BLOCK
  5
307
330
306
100
AcDbEntity
  8
0
100
AcDbBlockBegin
  2
BLKF053
 70
     0
 71
     0
 10
0.0
 20
0.0
 30
0.0
  3
BLKF053
  1

  0
LINE
  5
30A
330
306
100
AcDbEntity
  8
GR1-1
  6
CONTINUOUS
 62
     2
100
AcDbLine
 10
716.37414
 20
119.054468
 30
0.0
 11
716.37414
 21
114.636385
 31
0.0
  0
LINE
  5
30B
330
306
100
AcDbEntity
  8
GR1-1
  6
CONTINUOUS
 62
     2
100
AcDbLine
 10
718.37414
 20
117.582804
 30
0.0
 11
718.37414
 21
114.636385
 31
0.0
  0
LINE
  5
30C
330
306
100
AcDbEntity
  8
GR1-1
  6
CONTINUOUS
 62
     2
100
AcDbLine
 10
715.59414
 20
115.236385
 30
0.0
 11
714.81414
 21
115.236385
 31
0.0
  0
LINE
  5
30D
330
306
100
AcDbEntity
  8
GR1-1
  6
CONTINUOUS
 62
     2
100
AcDbLine
 10
719.15414
 20
115.236385
 30
0.0
 11
719.93414
 21
115.236385
 31
0.0
  0
TEXT
  5
30E
330
306
100
AcDbEntity
  8
GR1-1
  6
CONTINUOUS
 62
     4
100
AcDbText
 10
715.799141
 20
115.72082
 30
0.0
 40
1.5
  1
100
 41
0.7
  7
FX_VECTOR
 72
     5
 11
718.949141
 21
115.72082
 31
0.0
100
AcDbText
  0
LINE
  5
30F
330
306
100
AcDbEntity
  8
GR1-1
  6
CONTINUOUS
 62
     2
100
AcDbLine
 10
715.59414
 20
115.366385
 30
0.0
 11
715.59414
 21
115.106385
 31
0.0
  0
LINE
  5
310
330
306
100
AcDbEntity
  8
GR1-1
  6
CONTINUOUS
 62
     2
100
AcDbLine
 10
715.59414
 20
115.106385
 30
0.0
 11
716.37414
 21
115.236385
 31
0.0
  0
LINE
  5
311
330
306
100
AcDbEntity
  8
GR1-1
  6
CONTINUOUS
 62
     2
100
AcDbLine
 10
716.37414
 20
115.236385
 30
0.0
 11
715.59414
 21
115.366385
 31
0.0
  0
LINE
  5
312
330
306
100
AcDbEntity
  8
GR1-1
  6
CONTINUOUS
 62
     2
100
AcDbLine
 10
719.15414
 20
115.366385
 30
0.0
 11
719.15414
 21
115.106385
 31
0.0
  0
LINE
  5
313
330
306
100
AcDbEntity
  8
GR1-1
  6
CONTINUOUS
 62
     2
100
AcDbLine
 10
719.15414
 20
115.106385
 30
0.0
 11
718.37414
 21
115.236385
 31
0.0
  0
LINE
  5
314
330
306
100
AcDbEntity
  8
GR1-1
  6
CONTINUOUS
 62
     2
100
AcDbLine
 10
718.37414
 20
115.236385
 30
0.0
 11
719.15414
 21
115.366385
 31
0.0
  0
ENDBLK
  5
308
330
306
100
AcDbEntity
  8
0
100
AcDbBlockEnd
  0
BLOCK
  5
316
330
315
100
AcDbEntity
  8
0
100
AcDbBlockBegin
  2
BLKF054
 70
     0
 71
     0
 10
0.0
 20
0.0
 30
0.0
  3
BLKF054
  1

  0
LINE
  5
319
330
315
100
AcDbEntity
  8
GR1-1
  6
CONTINUOUS
 62
     2
100
AcDbLine
 10
718.37414
 20
117.582804
 30
0.0
 11
718.37414
 21
109.716705
 31
0.0
  0
LINE
  5
31A
330
315
100
AcDbEntity
  8
GR1-1
  6
CONTINUOUS
 62
     2
100
AcDbLine
 10
712.97414
 20
117.582804
 30
0.0
 11
712.97414
 21
109.716705
 31
0.0
  0
LINE
  5
31B
330
315
100
AcDbEntity
  8
GR1-1
  6
CONTINUOUS
 62
     2
100
AcDbLine
 10
717.59414
 20
110.316705
 30
0.0
 11
713.75414
 21
110.316705
 31
0.0
  0
LINE
  5
31C
330
315
100
AcDbEntity
  8
GR1-1
  6
CONTINUOUS
 62
     2
100
AcDbLine
 10
717.59414
 20
110.446705
 30
0.0
 11
717.59414
 21
110.186705
 31
0.0
  0
LINE
  5
31D
330
315
100
AcDbEntity
  8
GR1-1
  6
CONTINUOUS
 62
     2
100
AcDbLine
 10
717.59414
 20
110.186705
 30
0.0
 11
718.37414
 21
110.316705
 31
0.0
  0
LINE
  5
31E
330
315
100
AcDbEntity
  8
GR1-1
  6
CONTINUOUS
 62
     2
100
AcDbLine
 10
718.37414
 20
110.316705
 30
0.0
 11
717.59414
 21
110.446705
 31
0.0
  0
LINE
  5
31F
330
315
100
AcDbEntity
  8
GR1-1
  6
CONTINUOUS
 62
     2
100
AcDbLine
 10
713.75414
 20
110.446705
 30
0.0
 11
713.75414
 21
110.186705
 31
0.0
  0
LINE
  5
320
330
315
100
AcDbEntity
  8
GR1-1
  6
CONTINUOUS
 62
     2
100
AcDbLine
 10
713.75414
 20
110.186705
 30
0.0
 11
712.97414
 21
110.316705
 31
0.0
  0
LINE
  5
321
330
315
100
AcDbEntity
  8
GR1-1
  6
CONTINUOUS
 62
     2
100
AcDbLine
 10
712.97414
 20
110.316705
 30
0.0
 11
713.75414
 21
110.446705
 31
0.0
  0
TEXT
  5
322
330
315
100
AcDbEntity
  8
GR1-1
  6
CONTINUOUS
 62
     4
100
AcDbText
 10
714.099141
 20
110.916699
 30
0.0
 40
1.5
  1
270
 41
0.7
  7
FX_VECTOR
 72
     5
 11
717.249141
 21
110.916699
 31
0.0
100
AcDbText
  0
ENDBLK
  5
317
330
315
100
AcDbEntity
  8
0
100
AcDbBlockEnd
  0
BLOCK
  5
324
330
323
100
AcDbEntity
  8
0
100
AcDbBlockBegin
  2
BLKF055
 70
     0
 71
     0
 10
0.0
 20
0.0
 30
0.0
  3
BLKF055
  1

  0
LINE
  5
327
330
323
100
AcDbEntity
  8
GR1-1
  6
CONTINUOUS
 62
     2
100
AcDbLine
 10
683.44295
 20
117.582804
 30
0.0
 11
683.44295
 21
109.716705
 31
0.0
  0
LINE
  5
328
330
323
100
AcDbEntity
  8
GR1-1
  6
CONTINUOUS
 62
     2
100
AcDbLine
 10
679.24295
 20
117.582804
 30
0.0
 11
679.24295
 21
109.716705
 31
0.0
  0
LINE
  5
329
330
323
100
AcDbEntity
  8
GR1-1
  6
CONTINUOUS
 62
     2
100
AcDbLine
 10
682.66295
 20
110.316705
 30
0.0
 11
680.02295
 21
110.316705
 31
0.0
  0
LINE
  5
32A
330
323
100
AcDbEntity
  8
GR1-1
  6
CONTINUOUS
 62
     2
100
AcDbLine
 10
682.66295
 20
110.446705
 30
0.0
 11
682.66295
 21
110.186705
 31
0.0
  0
LINE
  5
32B
330
323
100
AcDbEntity
  8
GR1-1
  6
CONTINUOUS
 62
     2
100
AcDbLine
 10
682.66295
 20
110.186705
 30
0.0
 11
683.44295
 21
110.316705
 31
0.0
  0
LINE
  5
32C
330
323
100
AcDbEntity
  8
GR1-1
  6
CONTINUOUS
 62
     2
100
AcDbLine
 10
683.44295
 20
110.316705
 30
0.0
 11
682.66295
 21
110.446705
 31
0.0
  0
LINE
  5
32D
330
323
100
AcDbEntity
  8
GR1-1
  6
CONTINUOUS
 62
     2
100
AcDbLine
 10
680.02295
 20
110.446705
 30
0.0
 11
680.02295
 21
110.186705
 31
0.0
  0
LINE
  5
32E
330
323
100
AcDbEntity
  8
GR1-1
  6
CONTINUOUS
 62
     2
100
AcDbLine
 10
680.02295
 20
110.186705
 30
0.0
 11
679.24295
 21
110.316705
 31
0.0
  0
LINE
  5
32F
330
323
100
AcDbEntity
  8
GR1-1
  6
CONTINUOUS
 62
     2
100
AcDbLine
 10
679.24295
 20
110.316705
 30
0.0
 11
680.02295
 21
110.446705
 31
0.0
  0
TEXT
  5
330
330
323
100
AcDbEntity
  8
GR1-1
  6
CONTINUOUS
 62
     4
100
AcDbText
 10
679.767969
 20
110.916699
 30
0.0
 40
1.5
  1
210
 41
0.7
  7
FX_VECTOR
 72
     5
 11
682.917969
 21
110.916699
 31
0.0
100
AcDbText
  0
ENDBLK
  5
325
330
323
100
AcDbEntity
  8
0
100
AcDbBlockEnd
  0
BLOCK
  5
332
330
331
100
AcDbEntity
  8
0
100
AcDbBlockBegin
  2
BLKF056
 70
     0
 71
     0
 10
0.0
 20
0.0
 30
0.0
  3
BLKF056
  1

  0
LINE
  5
335
330
331
100
AcDbEntity
  8
GR1-1
  6
CONTINUOUS
 62
     2
100
AcDbLine
 10
679.5355
 20
118.90982
 30
0.0
 11
697.386489
 21
124.176775
 31
0.0
  0
INSERT
  5
336
330
331
100
AcDbEntity
  8
GR1-1
  6
CONTINUOUS
 62
     2
100
AcDbBlockReference
  2
FXTIP_ARROW_S
 10
679.5355
 20
118.90982
 30
0.0
 41
2.0
 42
2.0
 50
196.438754
  0
LINE
  5
337
330
331
100
AcDbEntity
  8
GR1-1
  6
CONTINUOUS
 62
     2
100
AcDbLine
 10
697.386489
 20
124.176775
 30
0.0
 11
697.067324
 21
124.176775
 31
0.0
  0
LINE
  5
338
330
331
100
AcDbEntity
  8
GR1-1
  6
CONTINUOUS
 62
     2
100
AcDbLine
 10
697.067324
 20
124.176775
 30
0.0
 11
705.127324
 21
124.176775
 31
0.0
  0
TEXT
  5
339
330
331
100
AcDbEntity
  8
GR1-1
  6
CONTINUOUS
 62
     4
100
AcDbText
 10
698.447344
 20
124.776777
 30
0.0
 40
1.5
  1
バール挿入孔
 41
0.7
  7
FX_VECTOR
 72
     5
 11
704.747344
 21
124.776777
 31
0.0
100
AcDbText
  0
ENDBLK
  5
333
330
331
100
AcDbEntity
  8
0
100
AcDbBlockEnd
  0
BLOCK
  5
33F
330
33E
100
AcDbEntity
  8
0
100
AcDbBlockBegin
  2
BLKF057
 70
     0
 71
     0
 10
0.0
 20
0.0
 30
0.0
  3
BLKF057
  1

  0
LINE
  5
342
330
33E
100
AcDbEntity
  8
GR1-1
  6
CONTINUOUS
 62
     2
100
AcDbLine
 10
736.697382
 20
117.582804
 30
0.0
 11
736.697382
 21
109.590356
 31
0.0
  0
LINE
  5
343
330
33E
100
AcDbEntity
  8
GR1-1
  6
CONTINUOUS
 62
     2
100
AcDbLine
 10
749.197382
 20
117.582804
 30
0.0
 11
749.197382
 21
109.590356
 31
0.0
  0
LINE
  5
344
330
33E
100
AcDbEntity
  8
GR1-1
  6
CONTINUOUS
 62
     2
100
AcDbLine
 10
737.477382
 20
110.190356
 30
0.0
 11
748.417382
 21
110.190356
 31
0.0
  0
LINE
  5
345
330
33E
100
AcDbEntity
  8
GR1-1
  6
CONTINUOUS
 62
     2
100
AcDbLine
 10
737.477382
 20
110.320356
 30
0.0
 11
737.477382
 21
110.060356
 31
0.0
  0
LINE
  5
346
330
33E
100
AcDbEntity
  8
GR1-1
  6
CONTINUOUS
 62
     2
100
AcDbLine
 10
737.477382
 20
110.060356
 30
0.0
 11
736.697382
 21
110.190356
 31
0.0
  0
LINE
  5
347
330
33E
100
AcDbEntity
  8
GR1-1
  6
CONTINUOUS
 62
     2
100
AcDbLine
 10
736.697382
 20
110.190356
 30
0.0
 11
737.477382
 21
110.320356
 31
0.0
  0
LINE
  5
348
330
33E
100
AcDbEntity
  8
GR1-1
  6
CONTINUOUS
 62
     2
100
AcDbLine
 10
748.417382
 20
110.320356
 30
0.0
 11
748.417382
 21
110.060356
 31
0.0
  0
LINE
  5
349
330
33E
100
AcDbEntity
  8
GR1-1
  6
CONTINUOUS
 62
     2
100
AcDbLine
 10
748.417382
 20
110.060356
 30
0.0
 11
749.197382
 21
110.190356
 31
0.0
  0
LINE
  5
34A
330
33E
100
AcDbEntity
  8
GR1-1
  6
CONTINUOUS
 62
     2
100
AcDbLine
 10
749.197382
 20
110.190356
 30
0.0
 11
748.417382
 21
110.320356
 31
0.0
  0
TEXT
  5
34B
330
33E
100
AcDbEntity
  8
GR1-1
  6
CONTINUOUS
 62
     4
100
AcDbText
 10
741.372422
 20
110.790352
 30
0.0
 40
1.5
  1
625
 41
0.7
  7
FX_VECTOR
 72
     5
 11
744.522422
 21
110.790352
 31
0.0
100
AcDbText
  0
ENDBLK
  5
340
330
33E
100
AcDbEntity
  8
0
100
AcDbBlockEnd
  0
BLOCK
  5
350
330
34F
100
AcDbEntity
  8
0
100
AcDbBlockBegin
  2
BLKF058
 70
     0
 71
     0
 10
0.0
 20
0.0
 30
0.0
  3
BLKF058
  1

  0
LINE
  5
353
330
34F
100
AcDbEntity
  8
GR1-1
  6
CONTINUOUS
 62
     2
100
AcDbLine
 10
787.212081
 20
133.693639
 30
0.0
 11
787.212081
 21
140.483873
 31
0.0
  0
LINE
  5
354
330
34F
100
AcDbEntity
  8
GR1-1
  6
CONTINUOUS
 62
     2
100
AcDbLine
 10
826.343271
 20
133.693639
 30
0.0
 11
826.343271
 21
140.483873
 31
0.0
  0
LINE
  5
355
330
34F
100
AcDbEntity
  8
GR1-1
  6
CONTINUOUS
 62
     2
100
AcDbLine
 10
787.992081
 20
139.883873
 30
0.0
 11
825.563271
 21
139.883873
 31
0.0
  0
LINE
  5
356
330
34F
100
AcDbEntity
  8
GR1-1
  6
CONTINUOUS
 62
     2
100
AcDbLine
 10
787.992081
 20
140.013873
 30
0.0
 11
787.992081
 21
139.753873
 31
0.0
  0
LINE
  5
357
330
34F
100
AcDbEntity
  8
GR1-1
  6
CONTINUOUS
 62
     2
100
AcDbLine
 10
787.992081
 20
139.753873
 30
0.0
 11
787.212081
 21
139.883873
 31
0.0
  0
LINE
  5
358
330
34F
100
AcDbEntity
  8
GR1-1
  6
CONTINUOUS
 62
     2
100
AcDbLine
 10
787.212081
 20
139.883873
 30
0.0
 11
787.992081
 21
140.013873
 31
0.0
  0
LINE
  5
359
330
34F
100
AcDbEntity
  8
GR1-1
  6
CONTINUOUS
 62
     2
100
AcDbLine
 10
825.563271
 20
140.013873
 30
0.0
 11
825.563271
 21
139.753873
 31
0.0
  0
LINE
  5
35A
330
34F
100
AcDbEntity
  8
GR1-1
  6
CONTINUOUS
 62
     2
100
AcDbLine
 10
825.563271
 20
139.753873
 30
0.0
 11
826.343271
 21
139.883873
 31
0.0
  0
LINE
  5
35B
330
34F
100
AcDbEntity
  8
GR1-1
  6
CONTINUOUS
 62
     2
100
AcDbLine
 10
826.343271
 20
139.883873
 30
0.0
 11
825.563271
 21
140.013873
 31
0.0
  0
TEXT
  5
35C
330
34F
100
AcDbEntity
  8
GR1-1
  6
CONTINUOUS
 62
     4
100
AcDbText
 10
803.627656
 20
140.483867
 30
0.0
 40
1.5
  1
1656.6
 41
0.7
  7
FX_VECTOR
 72
     5
 11
809.927656
 21
140.483867
 31
0.0
100
AcDbText
  0
ENDBLK
  5
351
330
34F
100
AcDbEntity
  8
0
100
AcDbBlockEnd
  0
BLOCK
  5
363
330
362
100
AcDbEntity
  8
0
100
AcDbBlockBegin
  2
BLKF059
 70
     0
 71
     0
 10
0.0
 20
0.0
 30
0.0
  3
BLKF059
  1

  0
LINE
  5
366
330
362
100
AcDbEntity
  8
GR1-1
  6
CONTINUOUS
 62
     2
100
AcDbLine
 10
779.251679
 20
118.885297
 30
0.0
 11
770.845751
 21
123.088261
 31
0.0
  0
LINE
  5
367
330
362
100
AcDbEntity
  8
GR1-1
  6
CONTINUOUS
 62
     2
100
AcDbLine
 10
786.407097
 20
133.196132
 30
0.0
 11
778.001168
 21
137.399096
 31
0.0
  0
LINE
  5
368
330
362
100
AcDbEntity
  8
GR1-1
  6
CONTINUOUS
 62
     2
100
AcDbLine
 10
771.731234
 20
123.517586
 30
0.0
 11
778.188998
 21
136.433115
 31
0.0
  0
LINE
  5
369
330
362
100
AcDbEntity
  8
GR1-1
  6
CONTINUOUS
 62
     2
100
AcDbLine
 10
771.614958
 20
123.575724
 30
0.0
 11
771.847509
 21
123.459448
 31
0.0
  0
LINE
  5
36A
330
362
100
AcDbEntity
  8
GR1-1
  6
CONTINUOUS
 62
     2
100
AcDbLine
 10
771.847509
 20
123.459448
 30
0.0
 11
771.382407
 21
122.819933
 31
0.0
  0
LINE
  5
36B
330
362
100
AcDbEntity
  8
GR1-1
  6
CONTINUOUS
 62
     2
100
AcDbLine
 10
771.382407
 20
122.819933
 30
0.0
 11
771.614958
 21
123.575724
 31
0.0
  0
LINE
  5
36C
330
362
100
AcDbEntity
  8
GR1-1
  6
CONTINUOUS
 62
     2
100
AcDbLine
 10
778.072723
 20
136.491252
 30
0.0
 11
778.305274
 21
136.374977
 31
0.0
  0
LINE
  5
36D
330
362
100
AcDbEntity
  8
GR1-1
  6
CONTINUOUS
 62
     2
100
AcDbLine
 10
778.305274
 20
136.374977
 30
0.0
 11
778.537825
 21
137.130768
 31
0.0
  0
LINE
  5
36E
330
362
100
AcDbEntity
  8
GR1-1
  6
CONTINUOUS
 62
     2
100
AcDbLine
 10
778.537825
 20
137.130768
 30
0.0
 11
778.072723
 21
136.491252
 31
0.0
  0
TEXT
  5
36F
330
362
100
AcDbEntity
  8
GR1-1
  6
CONTINUOUS
 62
     4
100
AcDbText
 10
773.719141
 20
128.834961
 30
0.0
 40
1.5
  1
800
 50
63.434948
 41
0.7
  7
FX_VECTOR
 72
     5
 11
775.127863
 21
131.652407
 31
0.0
100
AcDbText
  0
ENDBLK
  5
364
330
362
100
AcDbEntity
  8
0
100
AcDbBlockEnd
  0
BLOCK
  5
378
330
377
100
AcDbEntity
  8
0
100
AcDbBlockBegin
  2
BLKF060
 70
     0
 71
     0
 10
0.0
 20
0.0
 30
0.0
  3
BLKF060
  1

  0
LINE
  5
37B
330
377
100
AcDbEntity
  8
GR1-1
  6
CONTINUOUS
 62
     2
100
AcDbLine
 10
787.863544
 20
131.189677
 30
0.0
 11
787.289325
 21
130.041239
 31
0.0
  0
LINE
  5
37C
330
377
100
AcDbEntity
  8
GR1-1
  6
CONTINUOUS
 62
     2
100
AcDbLine
 10
786.700789
 20
131.771054
 30
0.0
 11
786.12657
 21
130.622617
 31
0.0
  0
LINE
  5
37D
330
377
100
AcDbEntity
  8
GR1-1
  6
CONTINUOUS
 62
     2
100
AcDbLine
 10
788.255307
 20
130.229069
 30
0.0
 11
788.95296
 21
129.880242
 31
0.0
  0
LINE
  5
37E
330
377
100
AcDbEntity
  8
GR1-1
  6
CONTINUOUS
 62
     2
100
AcDbLine
 10
785.697245
 20
131.508099
 30
0.0
 11
784.999592
 21
131.856926
 31
0.0
  0
TEXT
  5
37F
330
377
100
AcDbEntity
  8
GR1-1
  6
CONTINUOUS
 62
     4
100
AcDbText
 10
783.673359
 20
132.90957
 30
0.0
 40
1.5
  1
65
 50
333.434937
 41
0.7
  7
FX_VECTOR
 72
     5
 11
785.551656
 21
131.970421
 31
0.0
100
AcDbText
  0
LINE
  5
380
330
377
100
AcDbEntity
  8
GR1-1
  6
CONTINUOUS
 62
     2
100
AcDbLine
 10
788.313445
 20
130.345344
 30
0.0
 11
788.197169
 21
130.112793
 31
0.0
  0
LINE
  5
381
330
377
100
AcDbEntity
  8
GR1-1
  6
CONTINUOUS
 62
     2
100
AcDbLine
 10
788.197169
 20
130.112793
 30
0.0
 11
787.557654
 21
130.577895
 31
0.0
  0
LINE
  5
382
330
377
100
AcDbEntity
  8
GR1-1
  6
CONTINUOUS
 62
     2
100
AcDbLine
 10
787.557654
 20
130.577895
 30
0.0
 11
788.313445
 21
130.345344
 31
0.0
  0
LINE
  5
383
330
377
100
AcDbEntity
  8
GR1-1
  6
CONTINUOUS
 62
     2
100
AcDbLine
 10
785.755383
 20
131.624375
 30
0.0
 11
785.639107
 21
131.391824
 31
0.0
  0
LINE
  5
384
330
377
100
AcDbEntity
  8
GR1-1
  6
CONTINUOUS
 62
     2
100
AcDbLine
 10
785.639107
 20
131.391824
 30
0.0
 11
786.394898
 21
131.159273
 31
0.0
  0
LINE
  5
385
330
377
100
AcDbEntity
  8
GR1-1
  6
CONTINUOUS
 62
     2
100
AcDbLine
 10
786.394898
 20
131.159273
 30
0.0
 11
785.755383
 21
131.624375
 31
0.0
  0
ENDBLK
  5
379
330
377
100
AcDbEntity
  8
0
100
AcDbBlockEnd
  0
BLOCK
  5
387
330
386
100
AcDbEntity
  8
0
100
AcDbBlockBegin
  2
BLKF061
 70
     0
 71
     0
 10
0.0
 20
0.0
 30
0.0
  3
BLKF061
  1

  0
LINE
  5
38A
330
386
100
AcDbEntity
  8
GR1-1
  6
CONTINUOUS
 62
     2
100
AcDbLine
 10
786.302889
 20
130.975254
 30
0.0
 11
784.551155
 21
127.471785
 31
0.0
  0
LINE
  5
38B
330
386
100
AcDbEntity
  8
GR1-1
  6
CONTINUOUS
 62
     2
100
AcDbLine
 10
785.67679
 20
131.288303
 30
0.0
 11
783.925056
 21
127.784835
 31
0.0
  0
LINE
  5
38C
330
386
100
AcDbEntity
  8
GR1-1
  6
CONTINUOUS
 62
     2
100
AcDbLine
 10
785.517136
 20
127.659615
 30
0.0
 11
786.214789
 21
127.310789
 31
0.0
  0
LINE
  5
38D
330
386
100
AcDbEntity
  8
GR1-1
  6
CONTINUOUS
 62
     2
100
AcDbLine
 10
783.49573
 20
128.670318
 30
0.0
 11
782.798077
 21
129.019144
 31
0.0
  0
TEXT
  5
38E
330
386
100
AcDbEntity
  8
GR1-1
  6
CONTINUOUS
 62
     4
100
AcDbText
 10
781.704297
 20
130.440898
 30
0.0
 40
1.5
  1
35
 50
333.434937
 41
0.7
  7
FX_VECTOR
 72
     5
 11
783.582594
 21
129.501749
 31
0.0
100
AcDbText
  0
LINE
  5
38F
330
386
100
AcDbEntity
  8
GR1-1
  6
CONTINUOUS
 62
     2
100
AcDbLine
 10
785.575274
 20
127.775891
 30
0.0
 11
785.458998
 21
127.54334
 31
0.0
  0
LINE
  5
390
330
386
100
AcDbEntity
  8
GR1-1
  6
CONTINUOUS
 62
     2
100
AcDbLine
 10
785.458998
 20
127.54334
 30
0.0
 11
784.819483
 21
128.008442
 31
0.0
  0
LINE
  5
391
330
386
100
AcDbEntity
  8
GR1-1
  6
CONTINUOUS
 62
     2
100
AcDbLine
 10
784.819483
 20
128.008442
 30
0.0
 11
785.575274
 21
127.775891
 31
0.0
  0
LINE
  5
392
330
386
100
AcDbEntity
  8
GR1-1
  6
CONTINUOUS
 62
     2
100
AcDbLine
 10
783.553868
 20
128.786593
 30
0.0
 11
783.437593
 21
128.554042
 31
0.0
  0
LINE
  5
393
330
386
100
AcDbEntity
  8
GR1-1
  6
CONTINUOUS
 62
     2
100
AcDbLine
 10
783.437593
 20
128.554042
 30
0.0
 11
784.193384
 21
128.321491
 31
0.0
  0
LINE
  5
394
330
386
100
AcDbEntity
  8
GR1-1
  6
CONTINUOUS
 62
     2
100
AcDbLine
 10
784.193384
 20
128.321491
 30
0.0
 11
783.553868
 21
128.786593
 31
0.0
  0
ENDBLK
  5
388
330
386
100
AcDbEntity
  8
0
100
AcDbBlockEnd
  0
BLOCK
  5
3B7
330
3B6
100
AcDbEntity
  8
0
100
AcDbBlockBegin
  2
BLKF062
 70
     0
 71
     0
 10
0.0
 20
0.0
 30
0.0
  3
BLKF062
  1

  0
LINE
  5
3BA
330
3B6
100
AcDbEntity
  8
GR1-1
  6
CONTINUOUS
 62
     2
100
AcDbLine
 10
815.077359
 20
113.168703
 30
0.0
 11
814.50314
 21
112.020265
 31
0.0
  0
LINE
  5
3BB
330
3B6
100
AcDbEntity
  8
GR1-1
  6
CONTINUOUS
 62
     2
100
AcDbLine
 10
816.240114
 20
112.587325
 30
0.0
 11
815.665895
 21
111.438887
 31
0.0
  0
LINE
  5
3BC
330
3B6
100
AcDbEntity
  8
GR1-1
  6
CONTINUOUS
 62
     2
100
AcDbLine
 10
814.073815
 20
112.905748
 30
0.0
 11
813.376161
 21
113.254575
 31
0.0
  0
LINE
  5
3BD
330
3B6
100
AcDbEntity
  8
GR1-1
  6
CONTINUOUS
 62
     2
100
AcDbLine
 10
816.631876
 20
111.626717
 30
0.0
 11
817.32953
 21
111.27789
 31
0.0
  0
TEXT
  5
3BE
330
3B6
100
AcDbEntity
  8
GR1-1
  6
CONTINUOUS
 62
     4
100
AcDbText
 10
816.535078
 20
112.162637
 30
0.0
 40
1.5
  1
65
 50
333.434937
 41
0.7
  7
FX_VECTOR
 72
     5
 11
818.413375
 21
111.223488
 31
0.0
100
AcDbText
  0
LINE
  5
3BF
330
3B6
100
AcDbEntity
  8
GR1-1
  6
CONTINUOUS
 62
     2
100
AcDbLine
 10
814.131952
 20
113.022023
 30
0.0
 11
814.015677
 21
112.789472
 31
0.0
  0
LINE
  5
3C0
330
3B6
100
AcDbEntity
  8
GR1-1
  6
CONTINUOUS
 62
     2
100
AcDbLine
 10
814.015677
 20
112.789472
 30
0.0
 11
814.771468
 21
112.556921
 31
0.0
  0
LINE
  5
3C1
330
3B6
100
AcDbEntity
  8
GR1-1
  6
CONTINUOUS
 62
     2
100
AcDbLine
 10
814.771468
 20
112.556921
 30
0.0
 11
814.131952
 21
113.022023
 31
0.0
  0
LINE
  5
3C2
330
3B6
100
AcDbEntity
  8
GR1-1
  6
CONTINUOUS
 62
     2
100
AcDbLine
 10
816.690014
 20
111.742993
 30
0.0
 11
816.573739
 21
111.510442
 31
0.0
  0
LINE
  5
3C3
330
3B6
100
AcDbEntity
  8
GR1-1
  6
CONTINUOUS
 62
     2
100
AcDbLine
 10
816.573739
 20
111.510442
 30
0.0
 11
815.934223
 21
111.975544
 31
0.0
  0
LINE
  5
3C4
330
3B6
100
AcDbEntity
  8
GR1-1
  6
CONTINUOUS
 62
     2
100
AcDbLine
 10
815.934223
 20
111.975544
 30
0.0
 11
816.690014
 21
111.742993
 31
0.0
  0
ENDBLK
  5
3B8
330
3B6
100
AcDbEntity
  8
0
100
AcDbBlockEnd
  0
BLOCK
  5
3C6
330
3C5
100
AcDbEntity
  8
0
100
AcDbBlockBegin
  2
BLKF063
 70
     0
 71
     0
 10
0.0
 20
0.0
 30
0.0
  3
BLKF063
  1

  0
LINE
  5
3C9
330
3C5
100
AcDbEntity
  8
GR1-1
  6
CONTINUOUS
 62
     2
100
AcDbLine
 10
825.165562
 20
128.638222
 30
0.0
 11
831.171628
 21
128.638222
 31
0.0
  0
LINE
  5
3CA
330
3C5
100
AcDbEntity
  8
GR1-1
  6
CONTINUOUS
 62
     2
100
AcDbLine
 10
825.465562
 20
129.238222
 30
0.0
 11
831.171628
 21
129.238222
 31
0.0
  0
LINE
  5
3CB
330
3C5
100
AcDbEntity
  8
GR1-1
  6
CONTINUOUS
 62
     2
100
AcDbLine
 10
830.571628
 20
127.858222
 30
0.0
 11
830.571628
 21
127.078222
 31
0.0
  0
LINE
  5
3CC
330
3C5
100
AcDbEntity
  8
GR1-1
  6
CONTINUOUS
 62
     2
100
AcDbLine
 10
830.571628
 20
130.018222
 30
0.0
 11
830.571628
 21
130.798222
 31
0.0
  0
TEXT
  5
3CD
330
3C5
100
AcDbEntity
  8
GR1-1
  6
CONTINUOUS
 62
     4
100
AcDbText
 10
833.132734
 20
127.888223
 30
0.0
 40
1.5
  1
30
 50
90.0
 41
0.7
  7
FX_VECTOR
 72
     5
 11
833.132734
 21
129.988223
 31
0.0
100
AcDbText
  0
LINE
  5
3CE
330
3C5
100
AcDbEntity
  8
GR1-1
  6
CONTINUOUS
 62
     2
100
AcDbLine
 10
830.441628
 20
127.858222
 30
0.0
 11
830.701628
 21
127.858222
 31
0.0
  0
LINE
  5
3CF
330
3C5
100
AcDbEntity
  8
GR1-1
  6
CONTINUOUS
 62
     2
100
AcDbLine
 10
830.701628
 20
127.858222
 30
0.0
 11
830.571628
 21
128.638222
 31
0.0
  0
LINE
  5
3D0
330
3C5
100
AcDbEntity
  8
GR1-1
  6
CONTINUOUS
 62
     2
100
AcDbLine
 10
830.571628
 20
128.638222
 30
0.0
 11
830.441628
 21
127.858222
 31
0.0
  0
LINE
  5
3D1
330
3C5
100
AcDbEntity
  8
GR1-1
  6
CONTINUOUS
 62
     2
100
AcDbLine
 10
830.441628
 20
130.018222
 30
0.0
 11
830.701628
 21
130.018222
 31
0.0
  0
LINE
  5
3D2
330
3C5
100
AcDbEntity
  8
GR1-1
  6
CONTINUOUS
 62
     2
100
AcDbLine
 10
830.701628
 20
130.018222
 30
0.0
 11
830.571628
 21
129.238222
 31
0.0
  0
LINE
  5
3D3
330
3C5
100
AcDbEntity
  8
GR1-1
  6
CONTINUOUS
 62
     2
100
AcDbLine
 10
830.571628
 20
129.238222
 30
0.0
 11
830.441628
 21
130.018222
 31
0.0
  0
ENDBLK
  5
3C7
330
3C5
100
AcDbEntity
  8
0
100
AcDbBlockEnd
  0
BLOCK
  5
3D5
330
3D4
100
AcDbEntity
  8
0
100
AcDbBlockBegin
  2
BLKF064
 70
     0
 71
     0
 10
0.0
 20
0.0
 30
0.0
  3
BLKF064
  1

  0
LINE
  5
3D8
330
3D4
100
AcDbEntity
  8
GR1-1
  6
CONTINUOUS
 62
     2
100
AcDbLine
 10
822.165562
 20
122.638222
 30
0.0
 11
831.171628
 21
122.638222
 31
0.0
  0
LINE
  5
3D9
330
3D4
100
AcDbEntity
  8
GR1-1
  6
CONTINUOUS
 62
     2
100
AcDbLine
 10
825.165562
 20
128.638222
 30
0.0
 11
831.171628
 21
128.638222
 31
0.0
  0
LINE
  5
3DA
330
3D4
100
AcDbEntity
  8
GR1-1
  6
CONTINUOUS
 62
     2
100
AcDbLine
 10
830.571628
 20
123.418222
 30
0.0
 11
830.571628
 21
127.858222
 31
0.0
  0
LINE
  5
3DB
330
3D4
100
AcDbEntity
  8
GR1-1
  6
CONTINUOUS
 62
     2
100
AcDbLine
 10
830.441628
 20
123.418222
 30
0.0
 11
830.701628
 21
123.418222
 31
0.0
  0
LINE
  5
3DC
330
3D4
100
AcDbEntity
  8
GR1-1
  6
CONTINUOUS
 62
     2
100
AcDbLine
 10
830.701628
 20
123.418222
 30
0.0
 11
830.571628
 21
122.638222
 31
0.0
  0
LINE
  5
3DD
330
3D4
100
AcDbEntity
  8
GR1-1
  6
CONTINUOUS
 62
     2
100
AcDbLine
 10
830.571628
 20
122.638222
 30
0.0
 11
830.441628
 21
123.418222
 31
0.0
  0
LINE
  5
3DE
330
3D4
100
AcDbEntity
  8
GR1-1
  6
CONTINUOUS
 62
     2
100
AcDbLine
 10
830.441628
 20
127.858222
 30
0.0
 11
830.701628
 21
127.858222
 31
0.0
  0
LINE
  5
3DF
330
3D4
100
AcDbEntity
  8
GR1-1
  6
CONTINUOUS
 62
     2
100
AcDbLine
 10
830.701628
 20
127.858222
 30
0.0
 11
830.571628
 21
128.638222
 31
0.0
  0
LINE
  5
3E0
330
3D4
100
AcDbEntity
  8
GR1-1
  6
CONTINUOUS
 62
     2
100
AcDbLine
 10
830.571628
 20
128.638222
 30
0.0
 11
830.441628
 21
127.858222
 31
0.0
  0
TEXT
  5
3E1
330
3D4
100
AcDbEntity
  8
GR1-1
  6
CONTINUOUS
 62
     4
100
AcDbText
 10
829.971641
 20
124.063223
 30
0.0
 40
1.5
  1
300
 50
90.0
 41
0.7
  7
FX_VECTOR
 72
     5
 11
829.971641
 21
127.213223
 31
0.0
100
AcDbText
  0
ENDBLK
  5
3D6
330
3D4
100
AcDbEntity
  8
0
100
AcDbBlockEnd
  0
BLOCK
  5
3E3
330
3E2
100
AcDbEntity
  8
0
100
AcDbBlockBegin
  2
BLKF065
 70
     0
 71
     0
 10
0.0
 20
0.0
 30
0.0
  3
BLKF065
  1

  0
LINE
  5
3E6
330
3E2
100
AcDbEntity
  8
GR1-1
  6
CONTINUOUS
 62
     2
100
AcDbLine
 10
820.087854
 20
118.482804
 30
0.0
 11
831.171628
 21
118.482804
 31
0.0
  0
LINE
  5
3E7
330
3E2
100
AcDbEntity
  8
GR1-1
  6
CONTINUOUS
 62
     2
100
AcDbLine
 10
821.865562
 20
122.038222
 30
0.0
 11
831.171628
 21
122.038222
 31
0.0
  0
LINE
  5
3E8
330
3E2
100
AcDbEntity
  8
GR1-1
  6
CONTINUOUS
 62
     2
100
AcDbLine
 10
830.571628
 20
119.262804
 30
0.0
 11
830.571628
 21
121.258222
 31
0.0
  0
TEXT
  5
3E9
330
3E2
100
AcDbEntity
  8
GR1-1
  6
CONTINUOUS
 62
     4
100
AcDbText
 10
830.027969
 20
117.635508
 30
0.0
 40
1.5
  1
177.8
 50
90.0
 41
0.7
  7
FX_VECTOR
 72
     5
 11
830.027969
 21
122.885508
 31
0.0
100
AcDbText
  0
LINE
  5
3EA
330
3E2
100
AcDbEntity
  8
GR1-1
  6
CONTINUOUS
 62
     2
100
AcDbLine
 10
830.441628
 20
119.262804
 30
0.0
 11
830.701628
 21
119.262804
 31
0.0
  0
LINE
  5
3EB
330
3E2
100
AcDbEntity
  8
GR1-1
  6
CONTINUOUS
 62
     2
100
AcDbLine
 10
830.701628
 20
119.262804
 30
0.0
 11
830.571628
 21
118.482804
 31
0.0
  0
LINE
  5
3EC
330
3E2
100
AcDbEntity
  8
GR1-1
  6
CONTINUOUS
 62
     2
100
AcDbLine
 10
830.571628
 20
118.482804
 30
0.0
 11
830.441628
 21
119.262804
 31
0.0
  0
LINE
  5
3ED
330
3E2
100
AcDbEntity
  8
GR1-1
  6
CONTINUOUS
 62
     2
100
AcDbLine
 10
830.441628
 20
121.258222
 30
0.0
 11
830.701628
 21
121.258222
 31
0.0
  0
LINE
  5
3EE
330
3E2
100
AcDbEntity
  8
GR1-1
  6
CONTINUOUS
 62
     2
100
AcDbLine
 10
830.701628
 20
121.258222
 30
0.0
 11
830.571628
 21
122.038222
 31
0.0
  0
LINE
  5
3EF
330
3E2
100
AcDbEntity
  8
GR1-1
  6
CONTINUOUS
 62
     2
100
AcDbLine
 10
830.571628
 20
122.038222
 30
0.0
 11
830.441628
 21
121.258222
 31
0.0
  0
ENDBLK
  5
3E4
330
3E2
100
AcDbEntity
  8
0
100
AcDbBlockEnd
  0
BLOCK
  5
3F1
330
3F0
100
AcDbEntity
  8
0
100
AcDbBlockBegin
  2
BLKF066
 70
     0
 71
     0
 10
0.0
 20
0.0
 30
0.0
  3
BLKF066
  1

  0
LINE
  5
3F4
330
3F0
100
AcDbEntity
  8
GR1-1
  6
CONTINUOUS
 62
     2
100
AcDbLine
 10
821.865562
 20
122.038222
 30
0.0
 11
831.171628
 21
122.038222
 31
0.0
  0
LINE
  5
3F5
330
3F0
100
AcDbEntity
  8
GR1-1
  6
CONTINUOUS
 62
     2
100
AcDbLine
 10
822.165562
 20
122.638222
 30
0.0
 11
831.171628
 21
122.638222
 31
0.0
  0
LINE
  5
3F6
330
3F0
100
AcDbEntity
  8
GR1-1
  6
CONTINUOUS
 62
     2
100
AcDbLine
 10
830.571628
 20
121.258222
 30
0.0
 11
830.571628
 21
120.478222
 31
0.0
  0
LINE
  5
3F7
330
3F0
100
AcDbEntity
  8
GR1-1
  6
CONTINUOUS
 62
     2
100
AcDbLine
 10
830.571628
 20
123.418222
 30
0.0
 11
830.571628
 21
124.198222
 31
0.0
  0
TEXT
  5
3F8
330
3F0
100
AcDbEntity
  8
GR1-1
  6
CONTINUOUS
 62
     4
100
AcDbText
 10
833.081016
 20
121.288223
 30
0.0
 40
1.5
  1
30
 50
90.0
 41
0.7
  7
FX_VECTOR
 72
     5
 11
833.081016
 21
123.388223
 31
0.0
100
AcDbText
  0
LINE
  5
3F9
330
3F0
100
AcDbEntity
  8
GR1-1
  6
CONTINUOUS
 62
     2
100
AcDbLine
 10
830.441628
 20
121.258222
 30
0.0
 11
830.701628
 21
121.258222
 31
0.0
  0
LINE
  5
3FA
330
3F0
100
AcDbEntity
  8
GR1-1
  6
CONTINUOUS
 62
     2
100
AcDbLine
 10
830.701628
 20
121.258222
 30
0.0
 11
830.571628
 21
122.038222
 31
0.0
  0
LINE
  5
3FB
330
3F0
100
AcDbEntity
  8
GR1-1
  6
CONTINUOUS
 62
     2
100
AcDbLine
 10
830.571628
 20
122.038222
 30
0.0
 11
830.441628
 21
121.258222
 31
0.0
  0
LINE
  5
3FC
330
3F0
100
AcDbEntity
  8
GR1-1
  6
CONTINUOUS
 62
     2
100
AcDbLine
 10
830.441628
 20
123.418222
 30
0.0
 11
830.701628
 21
123.418222
 31
0.0
  0
LINE
  5
3FD
330
3F0
100
AcDbEntity
  8
GR1-1
  6
CONTINUOUS
 62
     2
100
AcDbLine
 10
830.701628
 20
123.418222
 30
0.0
 11
830.571628
 21
122.638222
 31
0.0
  0
LINE
  5
3FE
330
3F0
100
AcDbEntity
  8
GR1-1
  6
CONTINUOUS
 62
     2
100
AcDbLine
 10
830.571628
 20
122.638222
 30
0.0
 11
830.441628
 21
123.418222
 31
0.0
  0
ENDBLK
  5
3F2
330
3F0
100
AcDbEntity
  8
0
100
AcDbBlockEnd
  0
BLOCK
  5
400
330
3FF
100
AcDbEntity
  8
0
100
AcDbBlockBegin
  2
BLKF067
 70
     0
 71
     0
 10
0.0
 20
0.0
 30
0.0
  3
BLKF067
  1

  0
LINE
  5
403
330
3FF
100
AcDbEntity
  8
GR1-1
  6
CONTINUOUS
 62
     2
100
AcDbLine
 10
827.243271
 20
132.793639
 30
0.0
 11
836.708435
 21
132.793639
 31
0.0
  0
LINE
  5
404
330
3FF
100
AcDbEntity
  8
GR1-1
  6
CONTINUOUS
 62
     2
100
AcDbLine
 10
820.087854
 20
118.482804
 30
0.0
 11
836.708435
 21
118.482804
 31
0.0
  0
LINE
  5
405
330
3FF
100
AcDbEntity
  8
GR1-1
  6
CONTINUOUS
 62
     2
100
AcDbLine
 10
836.108435
 20
132.013639
 30
0.0
 11
836.108435
 21
119.262804
 31
0.0
  0
LINE
  5
406
330
3FF
100
AcDbEntity
  8
GR1-1
  6
CONTINUOUS
 62
     2
100
AcDbLine
 10
835.978435
 20
132.013639
 30
0.0
 11
836.238435
 21
132.013639
 31
0.0
  0
LINE
  5
407
330
3FF
100
AcDbEntity
  8
GR1-1
  6
CONTINUOUS
 62
     2
100
AcDbLine
 10
836.238435
 20
132.013639
 30
0.0
 11
836.108435
 21
132.793639
 31
0.0
  0
LINE
  5
408
330
3FF
100
AcDbEntity
  8
GR1-1
  6
CONTINUOUS
 62
     2
100
AcDbLine
 10
836.108435
 20
132.793639
 30
0.0
 11
835.978435
 21
132.013639
 31
0.0
  0
LINE
  5
409
330
3FF
100
AcDbEntity
  8
GR1-1
  6
CONTINUOUS
 62
     2
100
AcDbLine
 10
835.978435
 20
119.262804
 30
0.0
 11
836.238435
 21
119.262804
 31
0.0
  0
LINE
  5
40A
330
3FF
100
AcDbEntity
  8
GR1-1
  6
CONTINUOUS
 62
     2
100
AcDbLine
 10
836.238435
 20
119.262804
 30
0.0
 11
836.108435
 21
118.482804
 31
0.0
  0
LINE
  5
40B
330
3FF
100
AcDbEntity
  8
GR1-1
  6
CONTINUOUS
 62
     2
100
AcDbLine
 10
836.108435
 20
118.482804
 30
0.0
 11
835.978435
 21
119.262804
 31
0.0
  0
TEXT
  5
40C
330
3FF
100
AcDbEntity
  8
GR1-1
  6
CONTINUOUS
 62
     4
100
AcDbText
 10
835.508438
 20
123.013223
 30
0.0
 40
1.5
  1
715.5
 50
90.0
 41
0.7
  7
FX_VECTOR
 72
     5
 11
835.508438
 21
128.263223
 31
0.0
100
AcDbText
  0
ENDBLK
  5
401
330
3FF
100
AcDbEntity
  8
0
100
AcDbBlockEnd
  0
BLOCK
  5
417
330
416
100
AcDbEntity
  8
0
100
AcDbBlockBegin
  2
BLKF068
 70
     0
 71
     0
 10
0.0
 20
0.0
 30
0.0
  3
BLKF068
  1

  0
LINE
  5
41A
330
416
100
AcDbEntity
  8
GR1-1
  6
CONTINUOUS
 62
     2
100
AcDbLine
 10
825.465562
 20
129.238222
 30
0.0
 11
831.171628
 21
129.238222
 31
0.0
  0
LINE
  5
41B
330
416
100
AcDbEntity
  8
GR1-1
  6
CONTINUOUS
 62
     2
100
AcDbLine
 10
827.243271
 20
132.793639
 30
0.0
 11
831.171628
 21
132.793639
 31
0.0
  0
LINE
  5
41C
330
416
100
AcDbEntity
  8
GR1-1
  6
CONTINUOUS
 62
     2
100
AcDbLine
 10
830.571628
 20
130.018222
 30
0.0
 11
830.571628
 21
132.013639
 31
0.0
  0
TEXT
  5
41D
330
416
100
AcDbEntity
  8
GR1-1
  6
CONTINUOUS
 62
     4
100
AcDbText
 10
829.924453
 20
128.390938
 30
0.0
 40
1.5
  1
177.8
 50
90.0
 41
0.7
  7
FX_VECTOR
 72
     5
 11
829.924453
 21
133.640938
 31
0.0
100
AcDbText
  0
LINE
  5
41E
330
416
100
AcDbEntity
  8
GR1-1
  6
CONTINUOUS
 62
     2
100
AcDbLine
 10
830.441628
 20
130.018222
 30
0.0
 11
830.701628
 21
130.018222
 31
0.0
  0
LINE
  5
41F
330
416
100
AcDbEntity
  8
GR1-1
  6
CONTINUOUS
 62
     2
100
AcDbLine
 10
830.701628
 20
130.018222
 30
0.0
 11
830.571628
 21
129.238222
 31
0.0
  0
LINE
  5
420
330
416
100
AcDbEntity
  8
GR1-1
  6
CONTINUOUS
 62
     2
100
AcDbLine
 10
830.571628
 20
129.238222
 30
0.0
 11
830.441628
 21
130.018222
 31
0.0
  0
LINE
  5
421
330
416
100
AcDbEntity
  8
GR1-1
  6
CONTINUOUS
 62
     2
100
AcDbLine
 10
830.441628
 20
132.013639
 30
0.0
 11
830.701628
 21
132.013639
 31
0.0
  0
LINE
  5
422
330
416
100
AcDbEntity
  8
GR1-1
  6
CONTINUOUS
 62
     2
100
AcDbLine
 10
830.701628
 20
132.013639
 30
0.0
 11
830.571628
 21
132.793639
 31
0.0
  0
LINE
  5
423
330
416
100
AcDbEntity
  8
GR1-1
  6
CONTINUOUS
 62
     2
100
AcDbLine
 10
830.571628
 20
132.793639
 30
0.0
 11
830.441628
 21
132.013639
 31
0.0
  0
ENDBLK
  5
418
330
416
100
AcDbEntity
  8
0
100
AcDbBlockEnd
  0
BLOCK
  5
425
330
424
100
AcDbEntity
  8
0
100
AcDbBlockBegin
  2
BLKF069
 70
     0
 71
     0
 10
0.0
 20
0.0
 30
0.0
  3
BLKF069
  1

  0
LINE
  5
428
330
424
100
AcDbEntity
  8
GR1-1
  6
CONTINUOUS
 62
     2
100
AcDbLine
 10
713.249434
 20
128.732216
 30
0.0
 11
714.242125
 21
126.746833
 31
0.0
  0
LINE
  5
429
330
424
100
AcDbEntity
  8
GR1-1
  6
CONTINUOUS
 62
     2
100
AcDbLine
 10
681.944482
 20
113.079741
 30
0.0
 11
682.937174
 21
111.094357
 31
0.0
  0
LINE
  5
42A
330
424
100
AcDbEntity
  8
GR1-1
  6
CONTINUOUS
 62
     2
100
AcDbLine
 10
713.276144
 20
126.934663
 30
0.0
 11
683.366499
 21
111.97984
 31
0.0
  0
LINE
  5
42B
330
424
100
AcDbEntity
  8
GR1-1
  6
CONTINUOUS
 62
     2
100
AcDbLine
 10
713.218006
 20
127.050938
 30
0.0
 11
713.334282
 21
126.818387
 31
0.0
  0
LINE
  5
42C
330
424
100
AcDbEntity
  8
GR1-1
  6
CONTINUOUS
 62
     2
100
AcDbLine
 10
713.334282
 20
126.818387
 30
0.0
 11
713.973797
 21
127.28349
 31
0.0
  0
LINE
  5
42D
330
424
100
AcDbEntity
  8
GR1-1
  6
CONTINUOUS
 62
     2
100
AcDbLine
 10
713.973797
 20
127.28349
 30
0.0
 11
713.218006
 21
127.050938
 31
0.0
  0
LINE
  5
42E
330
424
100
AcDbEntity
  8
GR1-1
  6
CONTINUOUS
 62
     2
100
AcDbLine
 10
683.308361
 20
112.096116
 30
0.0
 11
683.424636
 21
111.863565
 31
0.0
  0
LINE
  5
42F
330
424
100
AcDbEntity
  8
GR1-1
  6
CONTINUOUS
 62
     2
100
AcDbLine
 10
683.424636
 20
111.863565
 30
0.0
 11
682.668845
 21
111.631014
 31
0.0
  0
LINE
  5
430
330
424
100
AcDbEntity
  8
GR1-1
  6
CONTINUOUS
 62
     2
100
AcDbLine
 10
682.668845
 20
111.631014
 30
0.0
 11
683.308361
 21
112.096116
 31
0.0
  0
TEXT
  5
431
330
424
100
AcDbEntity
  8
GR1-1
  6
CONTINUOUS
 62
     4
100
AcDbText
 10
696.174688
 20
119.054766
 30
0.0
 40
1.5
  1
1750
 50
26.565052
 41
0.7
  7
FX_VECTOR
 72
     5
 11
699.931282
 21
120.933063
 31
0.0
100
AcDbText
  0
ENDBLK
  5
426
330
424
100
AcDbEntity
  8
0
100
AcDbBlockEnd
  0
BLOCK
  5
433
330
432
100
AcDbEntity
  8
0
100
AcDbBlockBegin
  2
BLKF070
 70
     0
 71
     0
 10
0.0
 20
0.0
 30
0.0
  3
BLKF070
  1

  0
LINE
  5
436
330
432
100
AcDbEntity
  8
GR1-1
  6
CONTINUOUS
 62
     2
100
AcDbLine
 10
819.992838
 20
118.080312
 30
0.0
 11
823.199485
 21
116.476989
 31
0.0
  0
LINE
  5
437
330
432
100
AcDbEntity
  8
GR1-1
  6
CONTINUOUS
 62
     2
100
AcDbLine
 10
822.228906
 20
122.552448
 30
0.0
 11
825.435553
 21
120.949124
 31
0.0
  0
LINE
  5
438
330
432
100
AcDbEntity
  8
GR1-1
  6
CONTINUOUS
 62
     2
100
AcDbLine
 10
823.011655
 20
117.44297
 30
0.0
 11
824.55007
 21
120.519799
 31
0.0
  0
LINE
  5
439
330
432
100
AcDbEntity
  8
GR1-1
  6
CONTINUOUS
 62
     2
100
AcDbLine
 10
822.89538
 20
117.501108
 30
0.0
 11
823.127931
 21
117.384832
 31
0.0
  0
LINE
  5
43A
330
432
100
AcDbEntity
  8
GR1-1
  6
CONTINUOUS
 62
     2
100
AcDbLine
 10
823.127931
 20
117.384832
 30
0.0
 11
822.662829
 21
116.745317
 31
0.0
  0
LINE
  5
43B
330
432
100
AcDbEntity
  8
GR1-1
  6
CONTINUOUS
 62
     2
100
AcDbLine
 10
822.662829
 20
116.745317
 30
0.0
 11
822.89538
 21
117.501108
 31
0.0
  0
LINE
  5
43C
330
432
100
AcDbEntity
  8
GR1-1
  6
CONTINUOUS
 62
     2
100
AcDbLine
 10
824.433795
 20
120.577937
 30
0.0
 11
824.666346
 21
120.461662
 31
0.0
  0
LINE
  5
43D
330
432
100
AcDbEntity
  8
GR1-1
  6
CONTINUOUS
 62
     2
100
AcDbLine
 10
824.666346
 20
120.461662
 30
0.0
 11
824.898897
 21
121.217453
 31
0.0
  0
LINE
  5
43E
330
432
100
AcDbEntity
  8
GR1-1
  6
CONTINUOUS
 62
     2
100
AcDbLine
 10
824.898897
 20
121.217453
 30
0.0
 11
824.433795
 21
120.577937
 31
0.0
  0
TEXT
  5
43F
330
432
100
AcDbEntity
  8
GR1-1
  6
CONTINUOUS
 62
     4
100
AcDbText
 10
822.539844
 20
117.840996
 30
0.0
 40
1.5
  1
250
 50
63.434948
 41
0.7
  7
FX_VECTOR
 72
     5
 11
823.948567
 21
120.658442
 31
0.0
100
AcDbText
  0
ENDBLK
  5
434
330
432
100
AcDbEntity
  8
0
100
AcDbBlockEnd
  0
BLOCK
  5
441
330
440
100
AcDbEntity
  8
0
100
AcDbBlockBegin
  2
BLKF071
 70
     0
 71
     0
 10
0.0
 20
0.0
 30
0.0
  3
BLKF071
  1

  0
LINE
  5
444
330
440
100
AcDbEntity
  8
GR1-1
  6
CONTINUOUS
 62
     2
100
AcDbLine
 10
822.318349
 20
125.414615
 30
0.0
 11
822.68467
 21
126.147259
 31
0.0
  0
LINE
  5
445
330
440
100
AcDbEntity
  8
GR1-1
  6
CONTINUOUS
 62
     2
100
AcDbLine
 10
822.586677
 20
125.280451
 30
0.0
 11
822.952999
 21
126.013095
 31
0.0
  0
LINE
  5
446
330
440
100
AcDbEntity
  8
GR1-1
  6
CONTINUOUS
 62
     2
100
AcDbLine
 10
821.718689
 20
125.959429
 30
0.0
 11
821.021036
 21
126.308256
 31
0.0
  0
LINE
  5
447
330
440
100
AcDbEntity
  8
GR1-1
  6
CONTINUOUS
 62
     2
100
AcDbLine
 10
823.382324
 20
125.127612
 30
0.0
 11
824.079977
 21
124.778785
 31
0.0
  0
TEXT
  5
448
330
440
100
AcDbEntity
  8
GR1-1
  6
CONTINUOUS
 62
     4
100
AcDbText
 10
823.107734
 20
125.754668
 30
0.0
 40
1.5
  1
15
 50
333.434937
 41
0.7
  7
FX_VECTOR
 72
     5
 11
824.986031
 21
124.815519
 31
0.0
100
AcDbText
  0
LINE
  5
449
330
440
100
AcDbEntity
  8
GR1-1
  6
CONTINUOUS
 62
     2
100
AcDbLine
 10
821.776827
 20
126.075705
 30
0.0
 11
821.660551
 21
125.843154
 31
0.0
  0
LINE
  5
44A
330
440
100
AcDbEntity
  8
GR1-1
  6
CONTINUOUS
 62
     2
100
AcDbLine
 10
821.660551
 20
125.843154
 30
0.0
 11
822.416342
 21
125.610602
 31
0.0
  0
LINE
  5
44B
330
440
100
AcDbEntity
  8
GR1-1
  6
CONTINUOUS
 62
     2
100
AcDbLine
 10
822.416342
 20
125.610602
 30
0.0
 11
821.776827
 21
126.075705
 31
0.0
  0
LINE
  5
44C
330
440
100
AcDbEntity
  8
GR1-1
  6
CONTINUOUS
 62
     2
100
AcDbLine
 10
823.440461
 20
125.243887
 30
0.0
 11
823.324186
 21
125.011336
 31
0.0
  0
LINE
  5
44D
330
440
100
AcDbEntity
  8
GR1-1
  6
CONTINUOUS
 62
     2
100
AcDbLine
 10
823.324186
 20
125.011336
 30
0.0
 11
822.68467
 21
125.476438
 31
0.0
  0
LINE
  5
44E
330
440
100
AcDbEntity
  8
GR1-1
  6
CONTINUOUS
 62
     2
100
AcDbLine
 10
822.68467
 20
125.476438
 30
0.0
 11
823.440461
 21
125.243887
 31
0.0
  0
ENDBLK
  5
442
330
440
100
AcDbEntity
  8
0
100
AcDbBlockEnd
  0
BLOCK
  5
450
330
44F
100
AcDbEntity
  8
0
100
AcDbBlockBegin
  2
BLKF072
 70
     0
 71
     0
 10
0.0
 20
0.0
 30
0.0
  3
BLKF072
  1

  0
LINE
  5
453
330
44F
100
AcDbEntity
  8
GR1-1
  6
CONTINUOUS
 62
     2
100
AcDbLine
 10
820.663658
 20
125.23573
 30
0.0
 11
817.971447
 21
126.581835
 31
0.0
  0
LINE
  5
454
330
44F
100
AcDbEntity
  8
GR1-1
  6
CONTINUOUS
 62
     2
100
AcDbLine
 10
819.143132
 20
122.194677
 30
0.0
 11
816.450921
 21
123.540783
 31
0.0
  0
LINE
  5
455
330
44F
100
AcDbEntity
  8
GR1-1
  6
CONTINUOUS
 62
     2
100
AcDbLine
 10
818.159277
 20
125.615854
 30
0.0
 11
817.336404
 21
123.970108
 31
0.0
  0
TEXT
  5
456
330
44F
100
AcDbEntity
  8
GR1-1
  6
CONTINUOUS
 62
     4
100
AcDbText
 10
815.701875
 20
124.055078
 30
0.0
 40
1.5
  1
170
 50
63.434952
 41
0.7
  7
FX_VECTOR
 72
     5
 11
817.110598
 21
126.872524
 31
0.0
100
AcDbText
  0
LINE
  5
457
330
44F
100
AcDbEntity
  8
GR1-1
  6
CONTINUOUS
 62
     2
100
AcDbLine
 10
818.043001
 20
125.673992
 30
0.0
 11
818.275552
 21
125.557716
 31
0.0
  0
LINE
  5
458
330
44F
100
AcDbEntity
  8
GR1-1
  6
CONTINUOUS
 62
     2
100
AcDbLine
 10
818.275552
 20
125.557716
 30
0.0
 11
818.508103
 21
126.313507
 31
0.0
  0
LINE
  5
459
330
44F
100
AcDbEntity
  8
GR1-1
  6
CONTINUOUS
 62
     2
100
AcDbLine
 10
818.508103
 20
126.313507
 30
0.0
 11
818.043001
 21
125.673992
 31
0.0
  0
LINE
  5
45A
330
44F
100
AcDbEntity
  8
GR1-1
  6
CONTINUOUS
 62
     2
100
AcDbLine
 10
817.220128
 20
124.028246
 30
0.0
 11
817.452679
 21
123.91197
 31
0.0
  0
LINE
  5
45B
330
44F
100
AcDbEntity
  8
GR1-1
  6
CONTINUOUS
 62
     2
100
AcDbLine
 10
817.452679
 20
123.91197
 30
0.0
 11
816.987577
 21
123.272455
 31
0.0
  0
LINE
  5
45C
330
44F
100
AcDbEntity
  8
GR1-1
  6
CONTINUOUS
 62
     2
100
AcDbLine
 10
816.987577
 20
123.272455
 30
0.0
 11
817.220128
 21
124.028246
 31
0.0
  0
ENDBLK
  5
451
330
44F
100
AcDbEntity
  8
0
100
AcDbBlockEnd
  0
BLOCK
  5
466
330
465
100
AcDbEntity
  8
0
100
AcDbBlockBegin
  2
BLKF073
 70
     0
 71
     0
 10
0.0
 20
0.0
 30
0.0
  3
BLKF073
  1

  0
LINE
  5
469
330
465
100
AcDbEntity
  8
GR1-1
  6
CONTINUOUS
 62
     2
100
AcDbLine
 10
788.453064
 20
133.693639
 30
0.0
 11
788.453064
 21
136.406039
 31
0.0
  0
LINE
  5
46A
330
465
100
AcDbEntity
  8
GR1-1
  6
CONTINUOUS
 62
     2
100
AcDbLine
 10
787.212081
 20
133.693639
 30
0.0
 11
787.212081
 21
136.406039
 31
0.0
  0
LINE
  5
46B
330
465
100
AcDbEntity
  8
GR1-1
  6
CONTINUOUS
 62
     2
100
AcDbLine
 10
789.233064
 20
135.806039
 30
0.0
 11
790.013064
 21
135.806039
 31
0.0
  0
LINE
  5
46C
330
465
100
AcDbEntity
  8
GR1-1
  6
CONTINUOUS
 62
     2
100
AcDbLine
 10
786.432081
 20
135.806039
 30
0.0
 11
785.652081
 21
135.806039
 31
0.0
  0
TEXT
  5
46D
330
465
100
AcDbEntity
  8
GR1-1
  6
CONTINUOUS
 62
     4
100
AcDbText
 10
784.260781
 20
136.398848
 30
0.0
 40
1.5
  1
62
 41
0.7
  7
FX_VECTOR
 72
     5
 11
786.360781
 21
136.398848
 31
0.0
100
AcDbText
  0
LINE
  5
46E
330
465
100
AcDbEntity
  8
GR1-1
  6
CONTINUOUS
 62
     2
100
AcDbLine
 10
789.233064
 20
135.936039
 30
0.0
 11
789.233064
 21
135.676039
 31
0.0
  0
LINE
  5
46F
330
465
100
AcDbEntity
  8
GR1-1
  6
CONTINUOUS
 62
     2
100
AcDbLine
 10
789.233064
 20
135.676039
 30
0.0
 11
788.453064
 21
135.806039
 31
0.0
  0
LINE
  5
470
330
465
100
AcDbEntity
  8
GR1-1
  6
CONTINUOUS
 62
     2
100
AcDbLine
 10
788.453064
 20
135.806039
 30
0.0
 11
789.233064
 21
135.936039
 31
0.0
  0
LINE
  5
471
330
465
100
AcDbEntity
  8
GR1-1
  6
CONTINUOUS
 62
     2
100
AcDbLine
 10
786.432081
 20
135.936039
 30
0.0
 11
786.432081
 21
135.676039
 31
0.0
  0
LINE
  5
472
330
465
100
AcDbEntity
  8
GR1-1
  6
CONTINUOUS
 62
     2
100
AcDbLine
 10
786.432081
 20
135.676039
 30
0.0
 11
787.212081
 21
135.806039
 31
0.0
  0
LINE
  5
473
330
465
100
AcDbEntity
  8
GR1-1
  6
CONTINUOUS
 62
     2
100
AcDbLine
 10
787.212081
 20
135.806039
 30
0.0
 11
786.432081
 21
135.936039
 31
0.0
  0
ENDBLK
  5
467
330
465
100
AcDbEntity
  8
0
100
AcDbBlockEnd
  0
BLOCK
  5
475
330
474
100
AcDbEntity
  8
0
100
AcDbBlockBegin
  2
BLKF074
 70
     0
 71
     0
 10
0.0
 20
0.0
 30
0.0
  3
BLKF074
  1

  0
LINE
  5
478
330
474
100
AcDbEntity
  8
GR1-1
  6
CONTINUOUS
 62
     2
100
AcDbLine
 10
788.453064
 20
133.693639
 30
0.0
 11
788.453064
 21
136.406039
 31
0.0
  0
LINE
  5
479
330
474
100
AcDbEntity
  8
GR1-1
  6
CONTINUOUS
 62
     2
100
AcDbLine
 10
789.053064
 20
133.693639
 30
0.0
 11
789.053064
 21
136.406039
 31
0.0
  0
LINE
  5
47A
330
474
100
AcDbEntity
  8
GR1-1
  6
CONTINUOUS
 62
     2
100
AcDbLine
 10
787.673064
 20
135.806039
 30
0.0
 11
786.893064
 21
135.806039
 31
0.0
  0
LINE
  5
47B
330
474
100
AcDbEntity
  8
GR1-1
  6
CONTINUOUS
 62
     2
100
AcDbLine
 10
789.833064
 20
135.806039
 30
0.0
 11
790.613064
 21
135.806039
 31
0.0
  0
TEXT
  5
47C
330
474
100
AcDbEntity
  8
GR1-1
  6
CONTINUOUS
 62
     4
100
AcDbText
 10
787.703047
 20
137.306035
 30
0.0
 40
1.5
  1
30
 41
0.7
  7
FX_VECTOR
 72
     5
 11
789.803047
 21
137.306035
 31
0.0
100
AcDbText
  0
LINE
  5
47D
330
474
100
AcDbEntity
  8
GR1-1
  6
CONTINUOUS
 62
     2
100
AcDbLine
 10
787.673064
 20
135.936039
 30
0.0
 11
787.673064
 21
135.676039
 31
0.0
  0
LINE
  5
47E
330
474
100
AcDbEntity
  8
GR1-1
  6
CONTINUOUS
 62
     2
100
AcDbLine
 10
787.673064
 20
135.676039
 30
0.0
 11
788.453064
 21
135.806039
 31
0.0
  0
LINE
  5
47F
330
474
100
AcDbEntity
  8
GR1-1
  6
CONTINUOUS
 62
     2
100
AcDbLine
 10
788.453064
 20
135.806039
 30
0.0
 11
787.673064
 21
135.936039
 31
0.0
  0
LINE
  5
480
330
474
100
AcDbEntity
  8
GR1-1
  6
CONTINUOUS
 62
     2
100
AcDbLine
 10
789.833064
 20
135.936039
 30
0.0
 11
789.833064
 21
135.676039
 31
0.0
  0
LINE
  5
481
330
474
100
AcDbEntity
  8
GR1-1
  6
CONTINUOUS
 62
     2
100
AcDbLine
 10
789.833064
 20
135.676039
 30
0.0
 11
789.053064
 21
135.806039
 31
0.0
  0
LINE
  5
482
330
474
100
AcDbEntity
  8
GR1-1
  6
CONTINUOUS
 62
     2
100
AcDbLine
 10
789.053064
 20
135.806039
 30
0.0
 11
789.833064
 21
135.936039
 31
0.0
  0
ENDBLK
  5
476
330
474
100
AcDbEntity
  8
0
100
AcDbBlockEnd
  0
BLOCK
  5
484
330
483
100
AcDbEntity
  8
0
100
AcDbBlockBegin
  2
BLKF075
 70
     0
 71
     0
 10
0.0
 20
0.0
 30
0.0
  3
BLKF075
  1

  0
LINE
  5
487
330
483
100
AcDbEntity
  8
GR1-1
  6
CONTINUOUS
 62
     2
100
AcDbLine
 10
789.053064
 20
133.693639
 30
0.0
 11
789.053064
 21
136.406039
 31
0.0
  0
LINE
  5
488
330
483
100
AcDbEntity
  8
GR1-1
  6
CONTINUOUS
 62
     2
100
AcDbLine
 10
808.985222
 20
133.693639
 30
0.0
 11
808.985222
 21
136.406039
 31
0.0
  0
LINE
  5
489
330
483
100
AcDbEntity
  8
GR1-1
  6
CONTINUOUS
 62
     2
100
AcDbLine
 10
789.833064
 20
135.806039
 30
0.0
 11
808.205222
 21
135.806039
 31
0.0
  0
LINE
  5
48A
330
483
100
AcDbEntity
  8
GR1-1
  6
CONTINUOUS
 62
     2
100
AcDbLine
 10
789.833064
 20
135.936039
 30
0.0
 11
789.833064
 21
135.676039
 31
0.0
  0
LINE
  5
48B
330
483
100
AcDbEntity
  8
GR1-1
  6
CONTINUOUS
 62
     2
100
AcDbLine
 10
789.833064
 20
135.676039
 30
0.0
 11
789.053064
 21
135.806039
 31
0.0
  0
LINE
  5
48C
330
483
100
AcDbEntity
  8
GR1-1
  6
CONTINUOUS
 62
     2
100
AcDbLine
 10
789.053064
 20
135.806039
 30
0.0
 11
789.833064
 21
135.936039
 31
0.0
  0
LINE
  5
48D
330
483
100
AcDbEntity
  8
GR1-1
  6
CONTINUOUS
 62
     2
100
AcDbLine
 10
808.205222
 20
135.936039
 30
0.0
 11
808.205222
 21
135.676039
 31
0.0
  0
LINE
  5
48E
330
483
100
AcDbEntity
  8
GR1-1
  6
CONTINUOUS
 62
     2
100
AcDbLine
 10
808.205222
 20
135.676039
 30
0.0
 11
808.985222
 21
135.806039
 31
0.0
  0
LINE
  5
48F
330
483
100
AcDbEntity
  8
GR1-1
  6
CONTINUOUS
 62
     2
100
AcDbLine
 10
808.985222
 20
135.806039
 30
0.0
 11
808.205222
 21
135.936039
 31
0.0
  0
TEXT
  5
490
330
483
100
AcDbEntity
  8
GR1-1
  6
CONTINUOUS
 62
     4
100
AcDbText
 10
796.394141
 20
136.406035
 30
0.0
 40
1.5
  1
996.5
 41
0.7
  7
FX_VECTOR
 72
     5
 11
801.644141
 21
136.406035
 31
0.0
100
AcDbText
  0
ENDBLK
  5
485
330
483
100
AcDbEntity
  8
0
100
AcDbBlockEnd
  0
BLOCK
  5
492
330
491
100
AcDbEntity
  8
0
100
AcDbBlockBegin
  2
BLKF076
 70
     0
 71
     0
 10
0.0
 20
0.0
 30
0.0
  3
BLKF076
  1

  0
LINE
  5
495
330
491
100
AcDbEntity
  8
GR1-1
  6
CONTINUOUS
 62
     2
100
AcDbLine
 10
808.985222
 20
133.693639
 30
0.0
 11
808.985222
 21
136.406039
 31
0.0
  0
LINE
  5
496
330
491
100
AcDbEntity
  8
GR1-1
  6
CONTINUOUS
 62
     2
100
AcDbLine
 10
809.585222
 20
133.693639
 30
0.0
 11
809.585222
 21
136.406039
 31
0.0
  0
LINE
  5
497
330
491
100
AcDbEntity
  8
GR1-1
  6
CONTINUOUS
 62
     2
100
AcDbLine
 10
808.205222
 20
135.806039
 30
0.0
 11
807.425222
 21
135.806039
 31
0.0
  0
LINE
  5
498
330
491
100
AcDbEntity
  8
GR1-1
  6
CONTINUOUS
 62
     2
100
AcDbLine
 10
810.365222
 20
135.806039
 30
0.0
 11
811.145222
 21
135.806039
 31
0.0
  0
TEXT
  5
499
330
491
100
AcDbEntity
  8
GR1-1
  6
CONTINUOUS
 62
     4
100
AcDbText
 10
807.745625
 20
137.649707
 30
0.0
 40
1.5
  1
30
 41
0.7
  7
FX_VECTOR
 72
     5
 11
809.845625
 21
137.649707
 31
0.0
100
AcDbText
  0
LINE
  5
49A
330
491
100
AcDbEntity
  8
GR1-1
  6
CONTINUOUS
 62
     2
100
AcDbLine
 10
808.205222
 20
135.936039
 30
0.0
 11
808.205222
 21
135.676039
 31
0.0
  0
LINE
  5
49B
330
491
100
AcDbEntity
  8
GR1-1
  6
CONTINUOUS
 62
     2
100
AcDbLine
 10
808.205222
 20
135.676039
 30
0.0
 11
808.985222
 21
135.806039
 31
0.0
  0
LINE
  5
49C
330
491
100
AcDbEntity
  8
GR1-1
  6
CONTINUOUS
 62
     2
100
AcDbLine
 10
808.985222
 20
135.806039
 30
0.0
 11
808.205222
 21
135.936039
 31
0.0
  0
LINE
  5
49D
330
491
100
AcDbEntity
  8
GR1-1
  6
CONTINUOUS
 62
     2
100
AcDbLine
 10
810.365222
 20
135.936039
 30
0.0
 11
810.365222
 21
135.676039
 31
0.0
  0
LINE
  5
49E
330
491
100
AcDbEntity
  8
GR1-1
  6
CONTINUOUS
 62
     2
100
AcDbLine
 10
810.365222
 20
135.676039
 30
0.0
 11
809.585222
 21
135.806039
 31
0.0
  0
LINE
  5
49F
330
491
100
AcDbEntity
  8
GR1-1
  6
CONTINUOUS
 62
     2
100
AcDbLine
 10
809.585222
 20
135.806039
 30
0.0
 11
810.365222
 21
135.936039
 31
0.0
  0
ENDBLK
  5
493
330
491
100
AcDbEntity
  8
0
100
AcDbBlockEnd
  0
BLOCK
  5
4A1
330
4A0
100
AcDbEntity
  8
0
100
AcDbBlockBegin
  2
BLKF077
 70
     0
 71
     0
 10
0.0
 20
0.0
 30
0.0
  3
BLKF077
  1

  0
LINE
  5
4A4
330
4A0
100
AcDbEntity
  8
GR1-1
  6
CONTINUOUS
 62
     2
100
AcDbLine
 10
809.585222
 20
133.693639
 30
0.0
 11
809.585222
 21
136.406039
 31
0.0
  0
LINE
  5
4A5
330
4A0
100
AcDbEntity
  8
GR1-1
  6
CONTINUOUS
 62
     2
100
AcDbLine
 10
813.585222
 20
133.693639
 30
0.0
 11
813.585222
 21
136.406039
 31
0.0
  0
LINE
  5
4A6
330
4A0
100
AcDbEntity
  8
GR1-1
  6
CONTINUOUS
 62
     2
100
AcDbLine
 10
810.365222
 20
135.806039
 30
0.0
 11
812.805222
 21
135.806039
 31
0.0
  0
LINE
  5
4A7
330
4A0
100
AcDbEntity
  8
GR1-1
  6
CONTINUOUS
 62
     2
100
AcDbLine
 10
810.365222
 20
135.936039
 30
0.0
 11
810.365222
 21
135.676039
 31
0.0
  0
LINE
  5
4A8
330
4A0
100
AcDbEntity
  8
GR1-1
  6
CONTINUOUS
 62
     2
100
AcDbLine
 10
810.365222
 20
135.676039
 30
0.0
 11
809.585222
 21
135.806039
 31
0.0
  0
LINE
  5
4A9
330
4A0
100
AcDbEntity
  8
GR1-1
  6
CONTINUOUS
 62
     2
100
AcDbLine
 10
809.585222
 20
135.806039
 30
0.0
 11
810.365222
 21
135.936039
 31
0.0
  0
LINE
  5
4AA
330
4A0
100
AcDbEntity
  8
GR1-1
  6
CONTINUOUS
 62
     2
100
AcDbLine
 10
812.805222
 20
135.936039
 30
0.0
 11
812.805222
 21
135.676039
 31
0.0
  0
LINE
  5
4AB
330
4A0
100
AcDbEntity
  8
GR1-1
  6
CONTINUOUS
 62
     2
100
AcDbLine
 10
812.805222
 20
135.676039
 30
0.0
 11
813.585222
 21
135.806039
 31
0.0
  0
LINE
  5
4AC
330
4A0
100
AcDbEntity
  8
GR1-1
  6
CONTINUOUS
 62
     2
100
AcDbLine
 10
813.585222
 20
135.806039
 30
0.0
 11
812.805222
 21
135.936039
 31
0.0
  0
TEXT
  5
4AD
330
4A0
100
AcDbEntity
  8
GR1-1
  6
CONTINUOUS
 62
     4
100
AcDbText
 10
810.010234
 20
136.406035
 30
0.0
 40
1.5
  1
200
 41
0.7
  7
FX_VECTOR
 72
     5
 11
813.160234
 21
136.406035
 31
0.0
100
AcDbText
  0
ENDBLK
  5
4A2
330
4A0
100
AcDbEntity
  8
0
100
AcDbBlockEnd
  0
BLOCK
  5
4AF
330
4AE
100
AcDbEntity
  8
0
100
AcDbBlockBegin
  2
BLKF078
 70
     0
 71
     0
 10
0.0
 20
0.0
 30
0.0
  3
BLKF078
  1

  0
LINE
  5
4B2
330
4AE
100
AcDbEntity
  8
GR1-1
  6
CONTINUOUS
 62
     2
100
AcDbLine
 10
813.585222
 20
133.693639
 30
0.0
 11
813.585222
 21
136.406039
 31
0.0
  0
LINE
  5
4B3
330
4AE
100
AcDbEntity
  8
GR1-1
  6
CONTINUOUS
 62
     2
100
AcDbLine
 10
814.185222
 20
133.693639
 30
0.0
 11
814.185222
 21
136.406039
 31
0.0
  0
LINE
  5
4B4
330
4AE
100
AcDbEntity
  8
GR1-1
  6
CONTINUOUS
 62
     2
100
AcDbLine
 10
812.805222
 20
135.806039
 30
0.0
 11
812.025222
 21
135.806039
 31
0.0
  0
LINE
  5
4B5
330
4AE
100
AcDbEntity
  8
GR1-1
  6
CONTINUOUS
 62
     2
100
AcDbLine
 10
814.965222
 20
135.806039
 30
0.0
 11
815.745222
 21
135.806039
 31
0.0
  0
TEXT
  5
4B6
330
4AE
100
AcDbEntity
  8
GR1-1
  6
CONTINUOUS
 62
     4
100
AcDbText
 10
812.684922
 20
137.825957
 30
0.0
 40
1.5
  1
30
 41
0.7
  7
FX_VECTOR
 72
     5
 11
814.784922
 21
137.825957
 31
0.0
100
AcDbText
  0
LINE
  5
4B7
330
4AE
100
AcDbEntity
  8
GR1-1
  6
CONTINUOUS
 62
     2
100
AcDbLine
 10
812.805222
 20
135.936039
 30
0.0
 11
812.805222
 21
135.676039
 31
0.0
  0
LINE
  5
4B8
330
4AE
100
AcDbEntity
  8
GR1-1
  6
CONTINUOUS
 62
     2
100
AcDbLine
 10
812.805222
 20
135.676039
 30
0.0
 11
813.585222
 21
135.806039
 31
0.0
  0
LINE
  5
4B9
330
4AE
100
AcDbEntity
  8
GR1-1
  6
CONTINUOUS
 62
     2
100
AcDbLine
 10
813.585222
 20
135.806039
 30
0.0
 11
812.805222
 21
135.936039
 31
0.0
  0
LINE
  5
4BA
330
4AE
100
AcDbEntity
  8
GR1-1
  6
CONTINUOUS
 62
     2
100
AcDbLine
 10
814.965222
 20
135.936039
 30
0.0
 11
814.965222
 21
135.676039
 31
0.0
  0
LINE
  5
4BB
330
4AE
100
AcDbEntity
  8
GR1-1
  6
CONTINUOUS
 62
     2
100
AcDbLine
 10
814.965222
 20
135.676039
 30
0.0
 11
814.185222
 21
135.806039
 31
0.0
  0
LINE
  5
4BC
330
4AE
100
AcDbEntity
  8
GR1-1
  6
CONTINUOUS
 62
     2
100
AcDbLine
 10
814.185222
 20
135.806039
 30
0.0
 11
814.965222
 21
135.936039
 31
0.0
  0
ENDBLK
  5
4B0
330
4AE
100
AcDbEntity
  8
0
100
AcDbBlockEnd
  0
BLOCK
  5
4BE
330
4BD
100
AcDbEntity
  8
0
100
AcDbBlockBegin
  2
BLKF079
 70
     0
 71
     0
 10
0.0
 20
0.0
 30
0.0
  3
BLKF079
  1

  0
LINE
  5
4C1
330
4BD
100
AcDbEntity
  8
GR1-1
  6
CONTINUOUS
 62
     2
100
AcDbLine
 10
817.346871
 20
133.693639
 30
0.0
 11
817.346871
 21
136.406039
 31
0.0
  0
LINE
  5
4C2
330
4BD
100
AcDbEntity
  8
GR1-1
  6
CONTINUOUS
 62
     2
100
AcDbLine
 10
817.946871
 20
133.693639
 30
0.0
 11
817.946871
 21
136.406039
 31
0.0
  0
LINE
  5
4C3
330
4BD
100
AcDbEntity
  8
GR1-1
  6
CONTINUOUS
 62
     2
100
AcDbLine
 10
816.566871
 20
135.806039
 30
0.0
 11
815.786871
 21
135.806039
 31
0.0
  0
LINE
  5
4C4
330
4BD
100
AcDbEntity
  8
GR1-1
  6
CONTINUOUS
 62
     2
100
AcDbLine
 10
818.726871
 20
135.806039
 30
0.0
 11
819.506871
 21
135.806039
 31
0.0
  0
TEXT
  5
4C5
330
4BD
100
AcDbEntity
  8
GR1-1
  6
CONTINUOUS
 62
     4
100
AcDbText
 10
817.241953
 20
137.884707
 30
0.0
 40
1.5
  1
30
 41
0.7
  7
FX_VECTOR
 72
     5
 11
819.341953
 21
137.884707
 31
0.0
100
AcDbText
  0
LINE
  5
4C6
330
4BD
100
AcDbEntity
  8
GR1-1
  6
CONTINUOUS
 62
     2
100
AcDbLine
 10
816.566871
 20
135.936039
 30
0.0
 11
816.566871
 21
135.676039
 31
0.0
  0
LINE
  5
4C7
330
4BD
100
AcDbEntity
  8
GR1-1
  6
CONTINUOUS
 62
     2
100
AcDbLine
 10
816.566871
 20
135.676039
 30
0.0
 11
817.346871
 21
135.806039
 31
0.0
  0
LINE
  5
4C8
330
4BD
100
AcDbEntity
  8
GR1-1
  6
CONTINUOUS
 62
     2
100
AcDbLine
 10
817.346871
 20
135.806039
 30
0.0
 11
816.566871
 21
135.936039
 31
0.0
  0
LINE
  5
4C9
330
4BD
100
AcDbEntity
  8
GR1-1
  6
CONTINUOUS
 62
     2
100
AcDbLine
 10
818.726871
 20
135.936039
 30
0.0
 11
818.726871
 21
135.676039
 31
0.0
  0
LINE
  5
4CA
330
4BD
100
AcDbEntity
  8
GR1-1
  6
CONTINUOUS
 62
     2
100
AcDbLine
 10
818.726871
 20
135.676039
 30
0.0
 11
817.946871
 21
135.806039
 31
0.0
  0
LINE
  5
4CB
330
4BD
100
AcDbEntity
  8
GR1-1
  6
CONTINUOUS
 62
     2
100
AcDbLine
 10
817.946871
 20
135.806039
 30
0.0
 11
818.726871
 21
135.936039
 31
0.0
  0
ENDBLK
  5
4BF
330
4BD
100
AcDbEntity
  8
0
100
AcDbBlockEnd
  0
BLOCK
  5
4CD
330
4CC
100
AcDbEntity
  8
0
100
AcDbBlockBegin
  2
BLKF080
 70
     0
 71
     0
 10
0.0
 20
0.0
 30
0.0
  3
BLKF080
  1

  0
LINE
  5
4D0
330
4CC
100
AcDbEntity
  8
GR1-1
  6
CONTINUOUS
 62
     2
100
AcDbLine
 10
817.946871
 20
133.693639
 30
0.0
 11
817.946871
 21
136.406039
 31
0.0
  0
LINE
  5
4D1
330
4CC
100
AcDbEntity
  8
GR1-1
  6
CONTINUOUS
 62
     2
100
AcDbLine
 10
826.343271
 20
133.693639
 30
0.0
 11
826.343271
 21
136.406039
 31
0.0
  0
LINE
  5
4D2
330
4CC
100
AcDbEntity
  8
GR1-1
  6
CONTINUOUS
 62
     2
100
AcDbLine
 10
818.726871
 20
135.806039
 30
0.0
 11
825.563271
 21
135.806039
 31
0.0
  0
LINE
  5
4D3
330
4CC
100
AcDbEntity
  8
GR1-1
  6
CONTINUOUS
 62
     2
100
AcDbLine
 10
818.726871
 20
135.936039
 30
0.0
 11
818.726871
 21
135.676039
 31
0.0
  0
LINE
  5
4D4
330
4CC
100
AcDbEntity
  8
GR1-1
  6
CONTINUOUS
 62
     2
100
AcDbLine
 10
818.726871
 20
135.676039
 30
0.0
 11
817.946871
 21
135.806039
 31
0.0
  0
LINE
  5
4D5
330
4CC
100
AcDbEntity
  8
GR1-1
  6
CONTINUOUS
 62
     2
100
AcDbLine
 10
817.946871
 20
135.806039
 30
0.0
 11
818.726871
 21
135.936039
 31
0.0
  0
LINE
  5
4D6
330
4CC
100
AcDbEntity
  8
GR1-1
  6
CONTINUOUS
 62
     2
100
AcDbLine
 10
825.563271
 20
135.936039
 30
0.0
 11
825.563271
 21
135.676039
 31
0.0
  0
LINE
  5
4D7
330
4CC
100
AcDbEntity
  8
GR1-1
  6
CONTINUOUS
 62
     2
100
AcDbLine
 10
825.563271
 20
135.676039
 30
0.0
 11
826.343271
 21
135.806039
 31
0.0
  0
LINE
  5
4D8
330
4CC
100
AcDbEntity
  8
GR1-1
  6
CONTINUOUS
 62
     2
100
AcDbLine
 10
826.343271
 20
135.806039
 30
0.0
 11
825.563271
 21
135.936039
 31
0.0
  0
TEXT
  5
4D9
330
4CC
100
AcDbEntity
  8
GR1-1
  6
CONTINUOUS
 62
     4
100
AcDbText
 10
820.570078
 20
136.406035
 30
0.0
 40
1.5
  1
420
 41
0.7
  7
FX_VECTOR
 72
     5
 11
823.720078
 21
136.406035
 31
0.0
100
AcDbText
  0
ENDBLK
  5
4CE
330
4CC
100
AcDbEntity
  8
0
100
AcDbBlockEnd
  0
BLOCK
  5
4DB
330
4DA
100
AcDbEntity
  8
0
100
AcDbBlockBegin
  2
BLKF081
 70
     0
 71
     0
 10
0.0
 20
0.0
 30
0.0
  3
BLKF081
  1

  0
LINE
  5
4DE
330
4DA
100
AcDbEntity
  8
GR1-1
  6
CONTINUOUS
 62
     2
100
AcDbLine
 10
786.809589
 20
131.988655
 30
0.0
 11
783.220596
 21
124.810669
 31
0.0
  0
LINE
  5
4DF
330
4DA
100
AcDbEntity
  8
GR1-1
  6
CONTINUOUS
 62
     2
100
AcDbLine
 10
818.114541
 20
116.336179
 30
0.0
 11
814.525548
 21
109.158193
 31
0.0
  0
LINE
  5
4E0
330
4DA
100
AcDbEntity
  8
GR1-1
  6
CONTINUOUS
 62
     2
100
AcDbLine
 10
784.186578
 20
124.998499
 30
0.0
 11
814.096223
 21
110.043676
 31
0.0
  0
LINE
  5
4E1
330
4DA
100
AcDbEntity
  8
GR1-1
  6
CONTINUOUS
 62
     2
100
AcDbLine
 10
784.244715
 20
125.114774
 30
0.0
 11
784.12844
 21
124.882223
 31
0.0
  0
LINE
  5
4E2
330
4DA
100
AcDbEntity
  8
GR1-1
  6
CONTINUOUS
 62
     2
100
AcDbLine
 10
784.12844
 20
124.882223
 30
0.0
 11
783.488924
 21
125.347325
 31
0.0
  0
LINE
  5
4E3
330
4DA
100
AcDbEntity
  8
GR1-1
  6
CONTINUOUS
 62
     2
100
AcDbLine
 10
783.488924
 20
125.347325
 30
0.0
 11
784.244715
 21
125.114774
 31
0.0
  0
LINE
  5
4E4
330
4DA
100
AcDbEntity
  8
GR1-1
  6
CONTINUOUS
 62
     2
100
AcDbLine
 10
814.154361
 20
110.159952
 30
0.0
 11
814.038085
 21
109.927401
 31
0.0
  0
LINE
  5
4E5
330
4DA
100
AcDbEntity
  8
GR1-1
  6
CONTINUOUS
 62
     2
100
AcDbLine
 10
814.038085
 20
109.927401
 30
0.0
 11
814.793876
 21
109.694849
 31
0.0
  0
LINE
  5
4E6
330
4DA
100
AcDbEntity
  8
GR1-1
  6
CONTINUOUS
 62
     2
100
AcDbLine
 10
814.793876
 20
109.694849
 30
0.0
 11
814.154361
 21
110.159952
 31
0.0
  0
TEXT
  5
4E7
330
4DA
100
AcDbEntity
  8
GR1-1
  6
CONTINUOUS
 62
     4
100
AcDbText
 10
797.531406
 20
118.996895
 30
0.0
 40
1.5
  1
1750
 50
333.434937
 41
0.7
  7
FX_VECTOR
 72
     5
 11
801.288
 21
117.118597
 31
0.0
100
AcDbText
  0
ENDBLK
  5
4DC
330
4DA
100
AcDbEntity
  8
0
100
AcDbBlockEnd
  0
BLOCK
  5
4E9
330
4E8
100
AcDbEntity
  8
0
100
AcDbBlockBegin
  2
BLKF082
 70
     0
 71
     0
 10
0.0
 20
0.0
 30
0.0
  3
BLKF082
  1

  0
LINE
  5
4EC
330
4E8
100
AcDbEntity
  8
GR1-1
  6
CONTINUOUS
 62
     2
100
AcDbLine
 10
814.185222
 20
133.693639
 30
0.0
 11
814.185222
 21
136.406039
 31
0.0
  0
LINE
  5
4ED
330
4E8
100
AcDbEntity
  8
GR1-1
  6
CONTINUOUS
 62
     2
100
AcDbLine
 10
817.346871
 20
133.87213
 30
0.0
 11
817.346871
 21
136.406039
 31
0.0
  0
LINE
  5
4EE
330
4E8
100
AcDbEntity
  8
GR1-1
  6
CONTINUOUS
 62
     2
100
AcDbLine
 10
814.965222
 20
135.806039
 30
0.0
 11
816.566871
 21
135.806039
 31
0.0
  0
TEXT
  5
4EF
330
4E8
100
AcDbEntity
  8
GR1-1
  6
CONTINUOUS
 62
     4
100
AcDbText
 10
814.191016
 20
136.562891
 30
0.0
 40
1.5
  1
158
 41
0.7
  7
FX_VECTOR
 72
     5
 11
817.341016
 21
136.562891
 31
0.0
100
AcDbText
  0
LINE
  5
4F0
330
4E8
100
AcDbEntity
  8
GR1-1
  6
CONTINUOUS
 62
     2
100
AcDbLine
 10
814.965222
 20
135.936039
 30
0.0
 11
814.965222
 21
135.676039
 31
0.0
  0
LINE
  5
4F1
330
4E8
100
AcDbEntity
  8
GR1-1
  6
CONTINUOUS
 62
     2
100
AcDbLine
 10
814.965222
 20
135.676039
 30
0.0
 11
814.185222
 21
135.806039
 31
0.0
  0
LINE
  5
4F2
330
4E8
100
AcDbEntity
  8
GR1-1
  6
CONTINUOUS
 62
     2
100
AcDbLine
 10
814.185222
 20
135.806039
 30
0.0
 11
814.965222
 21
135.936039
 31
0.0
  0
LINE
  5
4F3
330
4E8
100
AcDbEntity
  8
GR1-1
  6
CONTINUOUS
 62
     2
100
AcDbLine
 10
816.566871
 20
135.936039
 30
0.0
 11
816.566871
 21
135.676039
 31
0.0
  0
LINE
  5
4F4
330
4E8
100
AcDbEntity
  8
GR1-1
  6
CONTINUOUS
 62
     2
100
AcDbLine
 10
816.566871
 20
135.676039
 30
0.0
 11
817.346871
 21
135.806039
 31
0.0
  0
LINE
  5
4F5
330
4E8
100
AcDbEntity
  8
GR1-1
  6
CONTINUOUS
 62
     2
100
AcDbLine
 10
817.346871
 20
135.806039
 30
0.0
 11
816.566871
 21
135.936039
 31
0.0
  0
ENDBLK
  5
4EA
330
4E8
100
AcDbEntity
  8
0
100
AcDbBlockEnd
  0
BLOCK
  5
4F9
330
4F8
100
AcDbEntity
  8
0
100
AcDbBlockBegin
  2
BLKF083
 70
     0
 71
     0
 10
0.0
 20
0.0
 30
0.0
  3
BLKF083
  1

  0
LINE
  5
4FC
330
4F8
100
AcDbEntity
  8
GR1-1
  6
CONTINUOUS
 62
     2
100
AcDbLine
 10
736.697382
 20
155.180898
 30
0.0
 11
736.697382
 21
148.130563
 31
0.0
  0
LINE
  5
4FD
330
4F8
100
AcDbEntity
  8
GR1-1
  6
CONTINUOUS
 62
     2
100
AcDbLine
 10
749.197382
 20
155.180898
 30
0.0
 11
749.197382
 21
148.130563
 31
0.0
  0
LINE
  5
4FE
330
4F8
100
AcDbEntity
  8
GR1-1
  6
CONTINUOUS
 62
     2
100
AcDbLine
 10
737.477382
 20
148.730563
 30
0.0
 11
748.417382
 21
148.730563
 31
0.0
  0
LINE
  5
4FF
330
4F8
100
AcDbEntity
  8
GR1-1
  6
CONTINUOUS
 62
     2
100
AcDbLine
 10
737.477382
 20
148.860563
 30
0.0
 11
737.477382
 21
148.600563
 31
0.0
  0
LINE
  5
500
330
4F8
100
AcDbEntity
  8
GR1-1
  6
CONTINUOUS
 62
     2
100
AcDbLine
 10
737.477382
 20
148.600563
 30
0.0
 11
736.697382
 21
148.730563
 31
0.0
  0
LINE
  5
501
330
4F8
100
AcDbEntity
  8
GR1-1
  6
CONTINUOUS
 62
     2
100
AcDbLine
 10
736.697382
 20
148.730563
 30
0.0
 11
737.477382
 21
148.860563
 31
0.0
  0
LINE
  5
502
330
4F8
100
AcDbEntity
  8
GR1-1
  6
CONTINUOUS
 62
     2
100
AcDbLine
 10
748.417382
 20
148.860563
 30
0.0
 11
748.417382
 21
148.600563
 31
0.0
  0
LINE
  5
503
330
4F8
100
AcDbEntity
  8
GR1-1
  6
CONTINUOUS
 62
     2
100
AcDbLine
 10
748.417382
 20
148.600563
 30
0.0
 11
749.197382
 21
148.730563
 31
0.0
  0
LINE
  5
504
330
4F8
100
AcDbEntity
  8
GR1-1
  6
CONTINUOUS
 62
     2
100
AcDbLine
 10
749.197382
 20
148.730563
 30
0.0
 11
748.417382
 21
148.860563
 31
0.0
  0
TEXT
  5
505
330
4F8
100
AcDbEntity
  8
GR1-1
  6
CONTINUOUS
 62
     4
100
AcDbText
 10
741.372422
 20
149.330566
 30
0.0
 40
1.5
  1
625
 41
0.7
  7
FX_VECTOR
 72
     5
 11
744.522422
 21
149.330566
 31
0.0
100
AcDbText
  0
ENDBLK
  5
4FA
330
4F8
100
AcDbEntity
  8
0
100
AcDbBlockEnd
  0
BLOCK
  5
50D
330
50C
100
AcDbEntity
  8
0
100
AcDbBlockBegin
  2
BLKF084
 70
     0
 71
     0
 10
0.0
 20
0.0
 30
0.0
  3
BLKF084
  1

  0
LINE
  5
510
330
50C
100
AcDbEntity
  8
GR1-1
  6
CONTINUOUS
 62
     2
100
AcDbLine
 10
736.747382
 20
203.257336
 30
0.0
 11
736.747382
 21
210.719873
 31
0.0
  0
LINE
  5
511
330
50C
100
AcDbEntity
  8
GR1-1
  6
CONTINUOUS
 62
     2
100
AcDbLine
 10
736.697382
 20
179.965495
 30
0.0
 11
736.697382
 21
210.719873
 31
0.0
  0
LINE
  5
512
330
50C
100
AcDbEntity
  8
GR1-1
  6
CONTINUOUS
 62
     2
100
AcDbLine
 10
737.527382
 20
210.119873
 30
0.0
 11
738.307382
 21
210.119873
 31
0.0
  0
LINE
  5
513
330
50C
100
AcDbEntity
  8
GR1-1
  6
CONTINUOUS
 62
     2
100
AcDbLine
 10
735.917382
 20
210.119873
 30
0.0
 11
735.137382
 21
210.119873
 31
0.0
  0
TEXT
  5
514
330
50C
100
AcDbEntity
  8
GR1-1
  6
CONTINUOUS
 62
     4
100
AcDbText
 10
733.464063
 20
210.630352
 30
0.0
 40
1.5
  1
2.5
 41
0.7
  7
FX_VECTOR
 72
     5
 11
736.614063
 21
210.630352
 31
0.0
100
AcDbText
  0
LINE
  5
515
330
50C
100
AcDbEntity
  8
GR1-1
  6
CONTINUOUS
 62
     2
100
AcDbLine
 10
737.527382
 20
210.249873
 30
0.0
 11
737.527382
 21
209.989873
 31
0.0
  0
LINE
  5
516
330
50C
100
AcDbEntity
  8
GR1-1
  6
CONTINUOUS
 62
     2
100
AcDbLine
 10
737.527382
 20
209.989873
 30
0.0
 11
736.747382
 21
210.119873
 31
0.0
  0
LINE
  5
517
330
50C
100
AcDbEntity
  8
GR1-1
  6
CONTINUOUS
 62
     2
100
AcDbLine
 10
736.747382
 20
210.119873
 30
0.0
 11
737.527382
 21
210.249873
 31
0.0
  0
LINE
  5
518
330
50C
100
AcDbEntity
  8
GR1-1
  6
CONTINUOUS
 62
     2
100
AcDbLine
 10
735.917382
 20
210.249873
 30
0.0
 11
735.917382
 21
209.989873
 31
0.0
  0
LINE
  5
519
330
50C
100
AcDbEntity
  8
GR1-1
  6
CONTINUOUS
 62
     2
100
AcDbLine
 10
735.917382
 20
209.989873
 30
0.0
 11
736.697382
 21
210.119873
 31
0.0
  0
LINE
  5
51A
330
50C
100
AcDbEntity
  8
GR1-1
  6
CONTINUOUS
 62
     2
100
AcDbLine
 10
736.697382
 20
210.119873
 30
0.0
 11
735.917382
 21
210.249873
 31
0.0
  0
ENDBLK
  5
50E
330
50C
100
AcDbEntity
  8
0
100
AcDbBlockEnd
  0
BLOCK
  5
51C
330
51B
100
AcDbEntity
  8
0
100
AcDbBlockBegin
  2
BLKF085
 70
     0
 71
     0
 10
0.0
 20
0.0
 30
0.0
  3
BLKF085
  1

  0
LINE
  5
51F
330
51B
100
AcDbEntity
  8
GR1-1
  6
CONTINUOUS
 62
     2
100
AcDbLine
 10
749.147382
 20
203.257336
 30
0.0
 11
749.147382
 21
210.719873
 31
0.0
  0
LINE
  5
520
330
51B
100
AcDbEntity
  8
GR1-1
  6
CONTINUOUS
 62
     2
100
AcDbLine
 10
749.197382
 20
179.965495
 30
0.0
 11
749.197382
 21
210.719873
 31
0.0
  0
LINE
  5
521
330
51B
100
AcDbEntity
  8
GR1-1
  6
CONTINUOUS
 62
     2
100
AcDbLine
 10
748.367382
 20
210.119873
 30
0.0
 11
747.587382
 21
210.119873
 31
0.0
  0
LINE
  5
522
330
51B
100
AcDbEntity
  8
GR1-1
  6
CONTINUOUS
 62
     2
100
AcDbLine
 10
749.977382
 20
210.119873
 30
0.0
 11
750.757382
 21
210.119873
 31
0.0
  0
TEXT
  5
523
330
51B
100
AcDbEntity
  8
GR1-1
  6
CONTINUOUS
 62
     4
100
AcDbText
 10
749.307813
 20
210.739453
 30
0.0
 40
1.5
  1
2.5
 41
0.7
  7
FX_VECTOR
 72
     5
 11
752.457813
 21
210.739453
 31
0.0
100
AcDbText
  0
LINE
  5
524
330
51B
100
AcDbEntity
  8
GR1-1
  6
CONTINUOUS
 62
     2
100
AcDbLine
 10
748.367382
 20
210.249873
 30
0.0
 11
748.367382
 21
209.989873
 31
0.0
  0
LINE
  5
525
330
51B
100
AcDbEntity
  8
GR1-1
  6
CONTINUOUS
 62
     2
100
AcDbLine
 10
748.367382
 20
209.989873
 30
0.0
 11
749.147382
 21
210.119873
 31
0.0
  0
LINE
  5
526
330
51B
100
AcDbEntity
  8
GR1-1
  6
CONTINUOUS
 62
     2
100
AcDbLine
 10
749.147382
 20
210.119873
 30
0.0
 11
748.367382
 21
210.249873
 31
0.0
  0
LINE
  5
527
330
51B
100
AcDbEntity
  8
GR1-1
  6
CONTINUOUS
 62
     2
100
AcDbLine
 10
749.977382
 20
210.249873
 30
0.0
 11
749.977382
 21
209.989873
 31
0.0
  0
LINE
  5
528
330
51B
100
AcDbEntity
  8
GR1-1
  6
CONTINUOUS
 62
     2
100
AcDbLine
 10
749.977382
 20
209.989873
 30
0.0
 11
749.197382
 21
210.119873
 31
0.0
  0
LINE
  5
529
330
51B
100
AcDbEntity
  8
GR1-1
  6
CONTINUOUS
 62
     2
100
AcDbLine
 10
749.197382
 20
210.119873
 30
0.0
 11
749.977382
 21
210.249873
 31
0.0
  0
ENDBLK
  5
51D
330
51B
100
AcDbEntity
  8
0
100
AcDbBlockEnd
  0
BLOCK
  5
52D
330
52C
100
AcDbEntity
  8
0
100
AcDbBlockBegin
  2
BLKF086
 70
     0
 71
     0
 10
0.0
 20
0.0
 30
0.0
  3
BLKF086
  1

  0
LINE
  5
530
330
52C
100
AcDbEntity
  8
GR1-1
  6
CONTINUOUS
 62
     2
100
AcDbLine
 10
740.047382
 20
165.236316
 30
0.0
 11
733.197934
 21
165.236316
 31
0.0
  0
LINE
  5
531
330
52C
100
AcDbEntity
  8
GR1-1
  6
CONTINUOUS
 62
     2
100
AcDbLine
 10
740.047382
 20
167.236316
 30
0.0
 11
733.197934
 21
167.236316
 31
0.0
  0
LINE
  5
532
330
52C
100
AcDbEntity
  8
GR1-1
  6
CONTINUOUS
 62
     2
100
AcDbLine
 10
733.797934
 20
164.456316
 30
0.0
 11
733.797934
 21
163.676316
 31
0.0
  0
LINE
  5
533
330
52C
100
AcDbEntity
  8
GR1-1
  6
CONTINUOUS
 62
     2
100
AcDbLine
 10
733.797934
 20
168.016316
 30
0.0
 11
733.797934
 21
168.796316
 31
0.0
  0
TEXT
  5
534
330
52C
100
AcDbEntity
  8
GR1-1
  6
CONTINUOUS
 62
     4
100
AcDbText
 10
732.297969
 20
166.055078
 30
0.0
 40
1.5
  1
100
 50
90.0
 41
0.7
  7
FX_VECTOR
 72
     5
 11
732.297969
 21
169.205078
 31
0.0
100
AcDbText
  0
LINE
  5
535
330
52C
100
AcDbEntity
  8
GR1-1
  6
CONTINUOUS
 62
     2
100
AcDbLine
 10
733.667934
 20
164.456316
 30
0.0
 11
733.927934
 21
164.456316
 31
0.0
  0
LINE
  5
536
330
52C
100
AcDbEntity
  8
GR1-1
  6
CONTINUOUS
 62
     2
100
AcDbLine
 10
733.927934
 20
164.456316
 30
0.0
 11
733.797934
 21
165.236316
 31
0.0
  0
LINE
  5
537
330
52C
100
AcDbEntity
  8
GR1-1
  6
CONTINUOUS
 62
     2
100
AcDbLine
 10
733.797934
 20
165.236316
 30
0.0
 11
733.667934
 21
164.456316
 31
0.0
  0
LINE
  5
538
330
52C
100
AcDbEntity
  8
GR1-1
  6
CONTINUOUS
 62
     2
100
AcDbLine
 10
733.667934
 20
168.016316
 30
0.0
 11
733.927934
 21
168.016316
 31
0.0
  0
LINE
  5
539
330
52C
100
AcDbEntity
  8
GR1-1
  6
CONTINUOUS
 62
     2
100
AcDbLine
 10
733.927934
 20
168.016316
 30
0.0
 11
733.797934
 21
167.236316
 31
0.0
  0
LINE
  5
53A
330
52C
100
AcDbEntity
  8
GR1-1
  6
CONTINUOUS
 62
     2
100
AcDbLine
 10
733.797934
 20
167.236316
 30
0.0
 11
733.667934
 21
168.016316
 31
0.0
  0
ENDBLK
  5
52E
330
52C
100
AcDbEntity
  8
0
100
AcDbBlockEnd
  0
BLOCK
  5
53C
330
53B
100
AcDbEntity
  8
0
100
AcDbBlockBegin
  2
BLKF087
 70
     0
 71
     0
 10
0.0
 20
0.0
 30
0.0
  3
BLKF087
  1

  0
LINE
  5
53F
330
53B
100
AcDbEntity
  8
GR1-1
  6
CONTINUOUS
 62
     2
100
AcDbLine
 10
735.797382
 20
163.236316
 30
0.0
 11
733.197934
 21
163.236316
 31
0.0
  0
LINE
  5
540
330
53B
100
AcDbEntity
  8
GR1-1
  6
CONTINUOUS
 62
     2
100
AcDbLine
 10
740.047382
 20
165.236316
 30
0.0
 11
733.197934
 21
165.236316
 31
0.0
  0
LINE
  5
541
330
53B
100
AcDbEntity
  8
GR1-1
  6
CONTINUOUS
 62
     2
100
AcDbLine
 10
733.797934
 20
162.456316
 30
0.0
 11
733.797934
 21
161.676316
 31
0.0
  0
LINE
  5
542
330
53B
100
AcDbEntity
  8
GR1-1
  6
CONTINUOUS
 62
     2
100
AcDbLine
 10
733.797934
 20
166.016316
 30
0.0
 11
733.797934
 21
166.796316
 31
0.0
  0
TEXT
  5
543
330
53B
100
AcDbEntity
  8
GR1-1
  6
CONTINUOUS
 62
     4
100
AcDbText
 10
732.297969
 20
161.77043
 30
0.0
 40
1.5
  1
100
 50
90.0
 41
0.7
  7
FX_VECTOR
 72
     5
 11
732.297969
 21
164.92043
 31
0.0
100
AcDbText
  0
LINE
  5
544
330
53B
100
AcDbEntity
  8
GR1-1
  6
CONTINUOUS
 62
     2
100
AcDbLine
 10
733.667934
 20
162.456316
 30
0.0
 11
733.927934
 21
162.456316
 31
0.0
  0
LINE
  5
545
330
53B
100
AcDbEntity
  8
GR1-1
  6
CONTINUOUS
 62
     2
100
AcDbLine
 10
733.927934
 20
162.456316
 30
0.0
 11
733.797934
 21
163.236316
 31
0.0
  0
LINE
  5
546
330
53B
100
AcDbEntity
  8
GR1-1
  6
CONTINUOUS
 62
     2
100
AcDbLine
 10
733.797934
 20
163.236316
 30
0.0
 11
733.667934
 21
162.456316
 31
0.0
  0
LINE
  5
547
330
53B
100
AcDbEntity
  8
GR1-1
  6
CONTINUOUS
 62
     2
100
AcDbLine
 10
733.667934
 20
166.016316
 30
0.0
 11
733.927934
 21
166.016316
 31
0.0
  0
LINE
  5
548
330
53B
100
AcDbEntity
  8
GR1-1
  6
CONTINUOUS
 62
     2
100
AcDbLine
 10
733.927934
 20
166.016316
 30
0.0
 11
733.797934
 21
165.236316
 31
0.0
  0
LINE
  5
549
330
53B
100
AcDbEntity
  8
GR1-1
  6
CONTINUOUS
 62
     2
100
AcDbLine
 10
733.797934
 20
165.236316
 30
0.0
 11
733.667934
 21
166.016316
 31
0.0
  0
ENDBLK
  5
53D
330
53B
100
AcDbEntity
  8
0
100
AcDbBlockEnd
  0
BLOCK
  5
54E
330
54D
100
AcDbEntity
  8
0
100
AcDbBlockBegin
  2
BLKF088
 70
     0
 71
     0
 10
0.0
 20
0.0
 30
0.0
  3
BLKF088
  1

  0
LINE
  5
551
330
54D
100
AcDbEntity
  8
GR1-1
  6
CONTINUOUS
 62
     2
100
AcDbLine
 10
736.697382
 20
162.336316
 30
0.0
 11
736.697382
 21
159.30366
 31
0.0
  0
LINE
  5
552
330
54D
100
AcDbEntity
  8
GR1-1
  6
CONTINUOUS
 62
     2
100
AcDbLine
 10
742.947382
 20
162.336316
 30
0.0
 11
742.947382
 21
159.30366
 31
0.0
  0
LINE
  5
553
330
54D
100
AcDbEntity
  8
GR1-1
  6
CONTINUOUS
 62
     2
100
AcDbLine
 10
737.477382
 20
159.90366
 30
0.0
 11
742.167382
 21
159.90366
 31
0.0
  0
TEXT
  5
554
330
54D
100
AcDbEntity
  8
GR1-1
  6
CONTINUOUS
 62
     4
100
AcDbText
 10
737.222422
 20
160.503672
 30
0.0
 40
1.5
  1
312.5
 41
0.7
  7
FX_VECTOR
 72
     5
 11
742.472422
 21
160.503672
 31
0.0
100
AcDbText
  0
LINE
  5
555
330
54D
100
AcDbEntity
  8
GR1-1
  6
CONTINUOUS
 62
     2
100
AcDbLine
 10
737.477382
 20
160.03366
 30
0.0
 11
737.477382
 21
159.77366
 31
0.0
  0
LINE
  5
556
330
54D
100
AcDbEntity
  8
GR1-1
  6
CONTINUOUS
 62
     2
100
AcDbLine
 10
737.477382
 20
159.77366
 30
0.0
 11
736.697382
 21
159.90366
 31
0.0
  0
LINE
  5
557
330
54D
100
AcDbEntity
  8
GR1-1
  6
CONTINUOUS
 62
     2
100
AcDbLine
 10
736.697382
 20
159.90366
 30
0.0
 11
737.477382
 21
160.03366
 31
0.0
  0
LINE
  5
558
330
54D
100
AcDbEntity
  8
GR1-1
  6
CONTINUOUS
 62
     2
100
AcDbLine
 10
742.167382
 20
160.03366
 30
0.0
 11
742.167382
 21
159.77366
 31
0.0
  0
LINE
  5
559
330
54D
100
AcDbEntity
  8
GR1-1
  6
CONTINUOUS
 62
     2
100
AcDbLine
 10
742.167382
 20
159.77366
 30
0.0
 11
742.947382
 21
159.90366
 31
0.0
  0
LINE
  5
55A
330
54D
100
AcDbEntity
  8
GR1-1
  6
CONTINUOUS
 62
     2
100
AcDbLine
 10
742.947382
 20
159.90366
 30
0.0
 11
742.167382
 21
160.03366
 31
0.0
  0
ENDBLK
  5
54F
330
54D
100
AcDbEntity
  8
0
100
AcDbBlockEnd
  0
BLOCK
  5
560
330
55F
100
AcDbEntity
  8
0
100
AcDbBlockBegin
  2
BLKF089
 70
     0
 71
     0
 10
0.0
 20
0.0
 30
0.0
  3
BLKF089
  1

  0
LINE
  5
563
330
55F
100
AcDbEntity
  8
GR1-1
  6
CONTINUOUS
 62
     2
100
AcDbLine
 10
749.197382
 20
162.336316
 30
0.0
 11
749.197382
 21
159.30366
 31
0.0
  0
LINE
  5
564
330
55F
100
AcDbEntity
  8
GR1-1
  6
CONTINUOUS
 62
     2
100
AcDbLine
 10
742.947382
 20
162.336316
 30
0.0
 11
742.947382
 21
159.30366
 31
0.0
  0
LINE
  5
565
330
55F
100
AcDbEntity
  8
GR1-1
  6
CONTINUOUS
 62
     2
100
AcDbLine
 10
748.417382
 20
159.90366
 30
0.0
 11
743.727382
 21
159.90366
 31
0.0
  0
TEXT
  5
566
330
55F
100
AcDbEntity
  8
GR1-1
  6
CONTINUOUS
 62
     4
100
AcDbText
 10
743.422422
 20
160.503672
 30
0.0
 40
1.5
  1
312.5
 41
0.7
  7
FX_VECTOR
 72
     5
 11
748.672422
 21
160.503672
 31
0.0
100
AcDbText
  0
LINE
  5
567
330
55F
100
AcDbEntity
  8
GR1-1
  6
CONTINUOUS
 62
     2
100
AcDbLine
 10
748.417382
 20
160.03366
 30
0.0
 11
748.417382
 21
159.77366
 31
0.0
  0
LINE
  5
568
330
55F
100
AcDbEntity
  8
GR1-1
  6
CONTINUOUS
 62
     2
100
AcDbLine
 10
748.417382
 20
159.77366
 30
0.0
 11
749.197382
 21
159.90366
 31
0.0
  0
LINE
  5
569
330
55F
100
AcDbEntity
  8
GR1-1
  6
CONTINUOUS
 62
     2
100
AcDbLine
 10
749.197382
 20
159.90366
 30
0.0
 11
748.417382
 21
160.03366
 31
0.0
  0
LINE
  5
56A
330
55F
100
AcDbEntity
  8
GR1-1
  6
CONTINUOUS
 62
     2
100
AcDbLine
 10
743.727382
 20
160.03366
 30
0.0
 11
743.727382
 21
159.77366
 31
0.0
  0
LINE
  5
56B
330
55F
100
AcDbEntity
  8
GR1-1
  6
CONTINUOUS
 62
     2
100
AcDbLine
 10
743.727382
 20
159.77366
 30
0.0
 11
742.947382
 21
159.90366
 31
0.0
  0
LINE
  5
56C
330
55F
100
AcDbEntity
  8
GR1-1
  6
CONTINUOUS
 62
     2
100
AcDbLine
 10
742.947382
 20
159.90366
 30
0.0
 11
743.727382
 21
160.03366
 31
0.0
  0
ENDBLK
  5
561
330
55F
100
AcDbEntity
  8
0
100
AcDbBlockEnd
  0
BLOCK
  5
56F
330
56E
100
AcDbEntity
  8
0
100
AcDbBlockBegin
  2
BLKF090
 70
     0
 71
     0
 10
0.0
 20
0.0
 30
0.0
  3
BLKF090
  1

  0
LINE
  5
572
330
56E
100
AcDbEntity
  8
GR1-1
  6
CONTINUOUS
 62
     2
100
AcDbLine
 10
743.332547
 20
165.550648
 30
0.0
 11
746.986657
 21
167.213423
 31
0.0
  0
INSERT
  5
573
330
56E
100
AcDbEntity
  8
GR1-1
  6
CONTINUOUS
 62
     2
100
AcDbBlockReference
  2
FXTIP_BLACKTRIANGLE_S
 10
743.332547
 20
165.550648
 30
0.0
 41
2.0
 42
2.0
 50
204.467548
  0
LINE
  5
574
330
56E
100
AcDbEntity
  8
GR1-1
  6
CONTINUOUS
 62
     2
100
AcDbLine
 10
746.986657
 20
167.213423
 30
0.0
 11
747.766657
 21
167.213423
 31
0.0
  0
TEXT
  5
575
330
56E
100
AcDbEntity
  8
GR1-1
  6
CONTINUOUS
 62
     4
100
AcDbText
 10
747.049297
 20
167.564883
 30
0.0
 40
1.5
  1
ガイドピン４号
 41
0.7
  7
FX_VECTOR
 72
     5
 11
754.399297
 21
167.564883
 31
0.0
100
AcDbText
  0
ENDBLK
  5
570
330
56E
100
AcDbEntity
  8
0
100
AcDbBlockEnd
  0
BLOCK
  5
584
330
583
100
AcDbEntity
  8
0
100
AcDbBlockBegin
  2
BLKF091
 70
     0
 71
     0
 10
0.0
 20
0.0
 30
0.0
  3
BLKF091
  1

  0
LINE
  5
587
330
583
100
AcDbEntity
  8
GR1-1
  6
CONTINUOUS
 62
     2
100
AcDbLine
 10
736.747382
 20
203.257336
 30
0.0
 11
736.747382
 21
210.719873
 31
0.0
  0
LINE
  5
588
330
583
100
AcDbEntity
  8
GR1-1
  6
CONTINUOUS
 62
     2
100
AcDbLine
 10
749.147382
 20
203.257336
 30
0.0
 11
749.147382
 21
210.719873
 31
0.0
  0
LINE
  5
589
330
583
100
AcDbEntity
  8
GR1-1
  6
CONTINUOUS
 62
     2
100
AcDbLine
 10
737.527382
 20
210.119873
 30
0.0
 11
748.367382
 21
210.119873
 31
0.0
  0
LINE
  5
58A
330
583
100
AcDbEntity
  8
GR1-1
  6
CONTINUOUS
 62
     2
100
AcDbLine
 10
737.527382
 20
210.249873
 30
0.0
 11
737.527382
 21
209.989873
 31
0.0
  0
LINE
  5
58B
330
583
100
AcDbEntity
  8
GR1-1
  6
CONTINUOUS
 62
     2
100
AcDbLine
 10
737.527382
 20
209.989873
 30
0.0
 11
736.747382
 21
210.119873
 31
0.0
  0
LINE
  5
58C
330
583
100
AcDbEntity
  8
GR1-1
  6
CONTINUOUS
 62
     2
100
AcDbLine
 10
736.747382
 20
210.119873
 30
0.0
 11
737.527382
 21
210.249873
 31
0.0
  0
LINE
  5
58D
330
583
100
AcDbEntity
  8
GR1-1
  6
CONTINUOUS
 62
     2
100
AcDbLine
 10
748.367382
 20
210.249873
 30
0.0
 11
748.367382
 21
209.989873
 31
0.0
  0
LINE
  5
58E
330
583
100
AcDbEntity
  8
GR1-1
  6
CONTINUOUS
 62
     2
100
AcDbLine
 10
748.367382
 20
209.989873
 30
0.0
 11
749.147382
 21
210.119873
 31
0.0
  0
LINE
  5
58F
330
583
100
AcDbEntity
  8
GR1-1
  6
CONTINUOUS
 62
     2
100
AcDbLine
 10
749.147382
 20
210.119873
 30
0.0
 11
748.367382
 21
210.249873
 31
0.0
  0
TEXT
  5
590
330
583
100
AcDbEntity
  8
GR1-1
  6
CONTINUOUS
 62
     4
100
AcDbText
 10
741.372422
 20
210.719883
 30
0.0
 40
1.5
  1
620
 41
0.7
  7
FX_VECTOR
 72
     5
 11
744.522422
 21
210.719883
 31
0.0
100
AcDbText
  0
ENDBLK
  5
585
330
583
100
AcDbEntity
  8
0
100
AcDbBlockEnd
  0
BLOCK
  5
593
330
592
100
AcDbEntity
  8
0
100
AcDbBlockBegin
  2
BLKF092
 70
     0
 71
     0
 10
0.0
 20
0.0
 30
0.0
  3
BLKF092
  1

  0
LINE
  5
596
330
592
100
AcDbEntity
  8
GR1-1
  6
CONTINUOUS
 62
     2
100
AcDbLine
 10
740.547382
 20
203.257336
 30
0.0
 11
740.547382
 21
208.210197
 31
0.0
  0
LINE
  5
597
330
592
100
AcDbEntity
  8
GR1-1
  6
CONTINUOUS
 62
     2
100
AcDbLine
 10
740.947382
 20
203.257336
 30
0.0
 11
740.947382
 21
208.210197
 31
0.0
  0
LINE
  5
598
330
592
100
AcDbEntity
  8
GR1-1
  6
CONTINUOUS
 62
     2
100
AcDbLine
 10
739.767382
 20
207.610197
 30
0.0
 11
738.987382
 21
207.610197
 31
0.0
  0
LINE
  5
599
330
592
100
AcDbEntity
  8
GR1-1
  6
CONTINUOUS
 62
     2
100
AcDbLine
 10
741.727382
 20
207.610197
 30
0.0
 11
742.507382
 21
207.610197
 31
0.0
  0
TEXT
  5
59A
330
592
100
AcDbEntity
  8
GR1-1
  6
CONTINUOUS
 62
     4
100
AcDbText
 10
739.688203
 20
208.137852
 30
0.0
 40
1.5
  1
20
 41
0.7
  7
FX_VECTOR
 72
     5
 11
741.788203
 21
208.137852
 31
0.0
100
AcDbText
  0
LINE
  5
59B
330
592
100
AcDbEntity
  8
GR1-1
  6
CONTINUOUS
 62
     2
100
AcDbLine
 10
739.767382
 20
207.740197
 30
0.0
 11
739.767382
 21
207.480197
 31
0.0
  0
LINE
  5
59C
330
592
100
AcDbEntity
  8
GR1-1
  6
CONTINUOUS
 62
     2
100
AcDbLine
 10
739.767382
 20
207.480197
 30
0.0
 11
740.547382
 21
207.610197
 31
0.0
  0
LINE
  5
59D
330
592
100
AcDbEntity
  8
GR1-1
  6
CONTINUOUS
 62
     2
100
AcDbLine
 10
740.547382
 20
207.610197
 30
0.0
 11
739.767382
 21
207.740197
 31
0.0
  0
LINE
  5
59E
330
592
100
AcDbEntity
  8
GR1-1
  6
CONTINUOUS
 62
     2
100
AcDbLine
 10
741.727382
 20
207.740197
 30
0.0
 11
741.727382
 21
207.480197
 31
0.0
  0
LINE
  5
59F
330
592
100
AcDbEntity
  8
GR1-1
  6
CONTINUOUS
 62
     2
100
AcDbLine
 10
741.727382
 20
207.480197
 30
0.0
 11
740.947382
 21
207.610197
 31
0.0
  0
LINE
  5
5A0
330
592
100
AcDbEntity
  8
GR1-1
  6
CONTINUOUS
 62
     2
100
AcDbLine
 10
740.947382
 20
207.610197
 30
0.0
 11
741.727382
 21
207.740197
 31
0.0
  0
ENDBLK
  5
594
330
592
100
AcDbEntity
  8
0
100
AcDbBlockEnd
  0
BLOCK
  5
5A2
330
5A1
100
AcDbEntity
  8
0
100
AcDbBlockBegin
  2
BLKF093
 70
     0
 71
     0
 10
0.0
 20
0.0
 30
0.0
  3
BLKF093
  1

  0
LINE
  5
5A5
330
5A1
100
AcDbEntity
  8
GR1-1
  6
CONTINUOUS
 62
     2
100
AcDbLine
 10
740.947382
 20
203.257336
 30
0.0
 11
740.947382
 21
205.244217
 31
0.0
  0
LINE
  5
5A6
330
5A1
100
AcDbEntity
  8
GR1-1
  6
CONTINUOUS
 62
     2
100
AcDbLine
 10
744.947382
 20
203.257336
 30
0.0
 11
744.947382
 21
205.244217
 31
0.0
  0
LINE
  5
5A7
330
5A1
100
AcDbEntity
  8
GR1-1
  6
CONTINUOUS
 62
     2
100
AcDbLine
 10
741.727382
 20
204.644217
 30
0.0
 11
744.167382
 21
204.644217
 31
0.0
  0
TEXT
  5
5A8
330
5A1
100
AcDbEntity
  8
GR1-1
  6
CONTINUOUS
 62
     4
100
AcDbText
 10
741.43625
 20
205.325742
 30
0.0
 40
1.5
  1
200
 41
0.7
  7
FX_VECTOR
 72
     5
 11
744.58625
 21
205.325742
 31
0.0
100
AcDbText
  0
LINE
  5
5A9
330
5A1
100
AcDbEntity
  8
GR1-1
  6
CONTINUOUS
 62
     2
100
AcDbLine
 10
741.727382
 20
204.774217
 30
0.0
 11
741.727382
 21
204.514217
 31
0.0
  0
LINE
  5
5AA
330
5A1
100
AcDbEntity
  8
GR1-1
  6
CONTINUOUS
 62
     2
100
AcDbLine
 10
741.727382
 20
204.514217
 30
0.0
 11
740.947382
 21
204.644217
 31
0.0
  0
LINE
  5
5AB
330
5A1
100
AcDbEntity
  8
GR1-1
  6
CONTINUOUS
 62
     2
100
AcDbLine
 10
740.947382
 20
204.644217
 30
0.0
 11
741.727382
 21
204.774217
 31
0.0
  0
LINE
  5
5AC
330
5A1
100
AcDbEntity
  8
GR1-1
  6
CONTINUOUS
 62
     2
100
AcDbLine
 10
744.167382
 20
204.774217
 30
0.0
 11
744.167382
 21
204.514217
 31
0.0
  0
LINE
  5
5AD
330
5A1
100
AcDbEntity
  8
GR1-1
  6
CONTINUOUS
 62
     2
100
AcDbLine
 10
744.167382
 20
204.514217
 30
0.0
 11
744.947382
 21
204.644217
 31
0.0
  0
LINE
  5
5AE
330
5A1
100
AcDbEntity
  8
GR1-1
  6
CONTINUOUS
 62
     2
100
AcDbLine
 10
744.947382
 20
204.644217
 30
0.0
 11
744.167382
 21
204.774217
 31
0.0
  0
ENDBLK
  5
5A3
330
5A1
100
AcDbEntity
  8
0
100
AcDbBlockEnd
  0
BLOCK
  5
5B2
330
5B1
100
AcDbEntity
  8
0
100
AcDbBlockBegin
  2
BLKF094
 70
     0
 71
     0
 10
0.0
 20
0.0
 30
0.0
  3
BLKF094
  1

  0
LINE
  5
5B5
330
5B1
100
AcDbEntity
  8
GR1-1
  6
CONTINUOUS
 62
     2
100
AcDbLine
 10
740.547382
 20
203.257336
 30
0.0
 11
740.547382
 21
205.244217
 31
0.0
  0
LINE
  5
5B6
330
5B1
100
AcDbEntity
  8
GR1-1
  6
CONTINUOUS
 62
     2
100
AcDbLine
 10
736.747382
 20
203.257336
 30
0.0
 11
736.747382
 21
205.244217
 31
0.0
  0
LINE
  5
5B7
330
5B1
100
AcDbEntity
  8
GR1-1
  6
CONTINUOUS
 62
     2
100
AcDbLine
 10
739.767382
 20
204.644217
 30
0.0
 11
737.527382
 21
204.644217
 31
0.0
  0
TEXT
  5
5B8
330
5B1
100
AcDbEntity
  8
GR1-1
  6
CONTINUOUS
 62
     4
100
AcDbText
 10
736.891562
 20
205.320703
 30
0.0
 40
1.5
  1
190
 41
0.7
  7
FX_VECTOR
 72
     5
 11
740.041562
 21
205.320703
 31
0.0
100
AcDbText
  0
LINE
  5
5B9
330
5B1
100
AcDbEntity
  8
GR1-1
  6
CONTINUOUS
 62
     2
100
AcDbLine
 10
739.767382
 20
204.774217
 30
0.0
 11
739.767382
 21
204.514217
 31
0.0
  0
LINE
  5
5BA
330
5B1
100
AcDbEntity
  8
GR1-1
  6
CONTINUOUS
 62
     2
100
AcDbLine
 10
739.767382
 20
204.514217
 30
0.0
 11
740.547382
 21
204.644217
 31
0.0
  0
LINE
  5
5BB
330
5B1
100
AcDbEntity
  8
GR1-1
  6
CONTINUOUS
 62
     2
100
AcDbLine
 10
740.547382
 20
204.644217
 30
0.0
 11
739.767382
 21
204.774217
 31
0.0
  0
LINE
  5
5BC
330
5B1
100
AcDbEntity
  8
GR1-1
  6
CONTINUOUS
 62
     2
100
AcDbLine
 10
737.527382
 20
204.774217
 30
0.0
 11
737.527382
 21
204.514217
 31
0.0
  0
LINE
  5
5BD
330
5B1
100
AcDbEntity
  8
GR1-1
  6
CONTINUOUS
 62
     2
100
AcDbLine
 10
737.527382
 20
204.514217
 30
0.0
 11
736.747382
 21
204.644217
 31
0.0
  0
LINE
  5
5BE
330
5B1
100
AcDbEntity
  8
GR1-1
  6
CONTINUOUS
 62
     2
100
AcDbLine
 10
736.747382
 20
204.644217
 30
0.0
 11
737.527382
 21
204.774217
 31
0.0
  0
ENDBLK
  5
5B3
330
5B1
100
AcDbEntity
  8
0
100
AcDbBlockEnd
  0
BLOCK
  5
5C0
330
5BF
100
AcDbEntity
  8
0
100
AcDbBlockBegin
  2
BLKF095
 70
     0
 71
     0
 10
0.0
 20
0.0
 30
0.0
  3
BLKF095
  1

  0
LINE
  5
5C3
330
5BF
100
AcDbEntity
  8
GR1-1
  6
CONTINUOUS
 62
     2
100
AcDbLine
 10
743.481987
 20
202.357336
 30
0.0
 11
745.125396
 21
202.357336
 31
0.0
  0
LINE
  5
5C4
330
5BF
100
AcDbEntity
  8
GR1-1
  6
CONTINUOUS
 62
     2
100
AcDbLine
 10
743.78918
 20
200.357336
 30
0.0
 11
745.125396
 21
200.357336
 31
0.0
  0
LINE
  5
5C5
330
5BF
100
AcDbEntity
  8
GR1-1
  6
CONTINUOUS
 62
     2
100
AcDbLine
 10
744.525396
 20
203.137336
 30
0.0
 11
744.525396
 21
203.917336
 31
0.0
  0
LINE
  5
5C6
330
5BF
100
AcDbEntity
  8
GR1-1
  6
CONTINUOUS
 62
     2
100
AcDbLine
 10
744.525396
 20
199.577336
 30
0.0
 11
744.525396
 21
198.797336
 31
0.0
  0
TEXT
  5
5C7
330
5BF
100
AcDbEntity
  8
GR1-1
  6
CONTINUOUS
 62
     4
100
AcDbText
 10
744.320625
 20
195.929922
 30
0.0
 40
1.5
  1
100
 50
90.0
 41
0.7
  7
FX_VECTOR
 72
     5
 11
744.320625
 21
199.079922
 31
0.0
100
AcDbText
  0
LINE
  5
5C8
330
5BF
100
AcDbEntity
  8
GR1-1
  6
CONTINUOUS
 62
     2
100
AcDbLine
 10
744.395396
 20
203.137336
 30
0.0
 11
744.655396
 21
203.137336
 31
0.0
  0
LINE
  5
5C9
330
5BF
100
AcDbEntity
  8
GR1-1
  6
CONTINUOUS
 62
     2
100
AcDbLine
 10
744.655396
 20
203.137336
 30
0.0
 11
744.525396
 21
202.357336
 31
0.0
  0
LINE
  5
5CA
330
5BF
100
AcDbEntity
  8
GR1-1
  6
CONTINUOUS
 62
     2
100
AcDbLine
 10
744.525396
 20
202.357336
 30
0.0
 11
744.395396
 21
203.137336
 31
0.0
  0
LINE
  5
5CB
330
5BF
100
AcDbEntity
  8
GR1-1
  6
CONTINUOUS
 62
     2
100
AcDbLine
 10
744.395396
 20
199.577336
 30
0.0
 11
744.655396
 21
199.577336
 31
0.0
  0
LINE
  5
5CC
330
5BF
100
AcDbEntity
  8
GR1-1
  6
CONTINUOUS
 62
     2
100
AcDbLine
 10
744.655396
 20
199.577336
 30
0.0
 11
744.525396
 21
200.357336
 31
0.0
  0
LINE
  5
5CD
330
5BF
100
AcDbEntity
  8
GR1-1
  6
CONTINUOUS
 62
     2
100
AcDbLine
 10
744.525396
 20
200.357336
 30
0.0
 11
744.395396
 21
199.577336
 31
0.0
  0
ENDBLK
  5
5C1
330
5BF
100
AcDbEntity
  8
0
100
AcDbBlockEnd
  0
BLOCK
  5
5D7
330
5D6
100
AcDbEntity
  8
0
100
AcDbBlockBegin
  2
BLKF096
 70
     0
 71
     0
 10
0.0
 20
0.0
 30
0.0
  3
BLKF096
  1

  0
LINE
  5
5DA
330
5D6
100
AcDbEntity
  8
GR1-1
  6
CONTINUOUS
 62
     2
100
AcDbLine
 10
744.947382
 20
203.257336
 30
0.0
 11
744.947382
 21
208.210197
 31
0.0
  0
LINE
  5
5DB
330
5D6
100
AcDbEntity
  8
GR1-1
  6
CONTINUOUS
 62
     2
100
AcDbLine
 10
745.347382
 20
203.257336
 30
0.0
 11
745.347382
 21
208.210197
 31
0.0
  0
LINE
  5
5DC
330
5D6
100
AcDbEntity
  8
GR1-1
  6
CONTINUOUS
 62
     2
100
AcDbLine
 10
744.167382
 20
207.610197
 30
0.0
 11
743.387382
 21
207.610197
 31
0.0
  0
LINE
  5
5DD
330
5D6
100
AcDbEntity
  8
GR1-1
  6
CONTINUOUS
 62
     2
100
AcDbLine
 10
746.127382
 20
207.610197
 30
0.0
 11
746.907382
 21
207.610197
 31
0.0
  0
TEXT
  5
5DE
330
5D6
100
AcDbEntity
  8
GR1-1
  6
CONTINUOUS
 62
     4
100
AcDbText
 10
744.069922
 20
208.137852
 30
0.0
 40
1.5
  1
20
 41
0.7
  7
FX_VECTOR
 72
     5
 11
746.169922
 21
208.137852
 31
0.0
100
AcDbText
  0
LINE
  5
5DF
330
5D6
100
AcDbEntity
  8
GR1-1
  6
CONTINUOUS
 62
     2
100
AcDbLine
 10
744.167382
 20
207.740197
 30
0.0
 11
744.167382
 21
207.480197
 31
0.0
  0
LINE
  5
5E0
330
5D6
100
AcDbEntity
  8
GR1-1
  6
CONTINUOUS
 62
     2
100
AcDbLine
 10
744.167382
 20
207.480197
 30
0.0
 11
744.947382
 21
207.610197
 31
0.0
  0
LINE
  5
5E1
330
5D6
100
AcDbEntity
  8
GR1-1
  6
CONTINUOUS
 62
     2
100
AcDbLine
 10
744.947382
 20
207.610197
 30
0.0
 11
744.167382
 21
207.740197
 31
0.0
  0
LINE
  5
5E2
330
5D6
100
AcDbEntity
  8
GR1-1
  6
CONTINUOUS
 62
     2
100
AcDbLine
 10
746.127382
 20
207.740197
 30
0.0
 11
746.127382
 21
207.480197
 31
0.0
  0
LINE
  5
5E3
330
5D6
100
AcDbEntity
  8
GR1-1
  6
CONTINUOUS
 62
     2
100
AcDbLine
 10
746.127382
 20
207.480197
 30
0.0
 11
745.347382
 21
207.610197
 31
0.0
  0
LINE
  5
5E4
330
5D6
100
AcDbEntity
  8
GR1-1
  6
CONTINUOUS
 62
     2
100
AcDbLine
 10
745.347382
 20
207.610197
 30
0.0
 11
746.127382
 21
207.740197
 31
0.0
  0
ENDBLK
  5
5D8
330
5D6
100
AcDbEntity
  8
0
100
AcDbBlockEnd
  0
BLOCK
  5
5E8
330
5E7
100
AcDbEntity
  8
0
100
AcDbBlockBegin
  2
BLKF097
 70
     0
 71
     0
 10
0.0
 20
0.0
 30
0.0
  3
BLKF097
  1

  0
LINE
  5
5EB
330
5E7
100
AcDbEntity
  8
GR1-1
  6
CONTINUOUS
 62
     2
100
AcDbLine
 10
745.347382
 20
203.257336
 30
0.0
 11
745.347382
 21
205.244217
 31
0.0
  0
LINE
  5
5EC
330
5E7
100
AcDbEntity
  8
GR1-1
  6
CONTINUOUS
 62
     2
100
AcDbLine
 10
749.147382
 20
203.257336
 30
0.0
 11
749.147382
 21
205.244217
 31
0.0
  0
LINE
  5
5ED
330
5E7
100
AcDbEntity
  8
GR1-1
  6
CONTINUOUS
 62
     2
100
AcDbLine
 10
746.127382
 20
204.644217
 30
0.0
 11
748.367382
 21
204.644217
 31
0.0
  0
TEXT
  5
5EE
330
5E7
100
AcDbEntity
  8
GR1-1
  6
CONTINUOUS
 62
     4
100
AcDbText
 10
745.485
 20
205.24543
 30
0.0
 40
1.5
  1
190
 41
0.7
  7
FX_VECTOR
 72
     5
 11
748.635
 21
205.24543
 31
0.0
100
AcDbText
  0
LINE
  5
5EF
330
5E7
100
AcDbEntity
  8
GR1-1
  6
CONTINUOUS
 62
     2
100
AcDbLine
 10
746.127382
 20
204.774217
 30
0.0
 11
746.127382
 21
204.514217
 31
0.0
  0
LINE
  5
5F0
330
5E7
100
AcDbEntity
  8
GR1-1
  6
CONTINUOUS
 62
     2
100
AcDbLine
 10
746.127382
 20
204.514217
 30
0.0
 11
745.347382
 21
204.644217
 31
0.0
  0
LINE
  5
5F1
330
5E7
100
AcDbEntity
  8
GR1-1
  6
CONTINUOUS
 62
     2
100
AcDbLine
 10
745.347382
 20
204.644217
 30
0.0
 11
746.127382
 21
204.774217
 31
0.0
  0
LINE
  5
5F2
330
5E7
100
AcDbEntity
  8
GR1-1
  6
CONTINUOUS
 62
     2
100
AcDbLine
 10
748.367382
 20
204.774217
 30
0.0
 11
748.367382
 21
204.514217
 31
0.0
  0
LINE
  5
5F3
330
5E7
100
AcDbEntity
  8
GR1-1
  6
CONTINUOUS
 62
     2
100
AcDbLine
 10
748.367382
 20
204.514217
 30
0.0
 11
749.147382
 21
204.644217
 31
0.0
  0
LINE
  5
5F4
330
5E7
100
AcDbEntity
  8
GR1-1
  6
CONTINUOUS
 62
     2
100
AcDbLine
 10
749.147382
 20
204.644217
 30
0.0
 11
748.367382
 21
204.774217
 31
0.0
  0
ENDBLK
  5
5E9
330
5E7
100
AcDbEntity
  8
0
100
AcDbBlockEnd
  0
BLOCK
  5
5F8
330
5F7
100
AcDbEntity
  8
0
100
AcDbBlockBegin
  2
BLKF098
 70
     0
 71
     0
 10
0.0
 20
0.0
 30
0.0
  3
BLKF098
  1

  0
LINE
  5
5FB
330
5F7
100
AcDbEntity
  8
GR1-1
  6
CONTINUOUS
 62
     2
100
AcDbLine
 10
736.877382
 20
132.621231
 30
0.0
 11
749.017382
 21
132.621231
 31
0.0
  0
LINE
  5
5FC
330
5F7
100
AcDbEntity
  8
GR1-1
  6
CONTINUOUS
 62
     2
100
AcDbLine
 10
749.017382
 20
132.621231
 30
0.0
 11
749.017382
 21
118.68491
 31
0.0
  0
LINE
  5
5FD
330
5F7
100
AcDbEntity
  8
GR1-1
  6
CONTINUOUS
 62
     2
100
AcDbLine
 10
749.017382
 20
118.68491
 30
0.0
 11
736.877382
 21
118.68491
 31
0.0
  0
LINE
  5
5FE
330
5F7
100
AcDbEntity
  8
GR1-1
  6
CONTINUOUS
 62
     2
100
AcDbLine
 10
736.877382
 20
118.68491
 30
0.0
 11
736.877382
 21
132.621231
 31
0.0
  0
ENDBLK
  5
5F9
330
5F7
100
AcDbEntity
  8
0
100
AcDbBlockEnd
  0
BLOCK
  5
602
330
601
100
AcDbEntity
  8
0
100
AcDbBlockBegin
  2
BLKF099
 70
     0
 71
     0
 10
0.0
 20
0.0
 30
0.0
  3
BLKF099
  1

  0
LINE
  5
605
330
601
100
AcDbEntity
  8
GR1-1
  6
CONTINUOUS
 62
     2
100
AcDbLine
 10
750.097382
 20
118.482804
 30
0.0
 11
755.927109
 21
118.482804
 31
0.0
  0
LINE
  5
606
330
601
100
AcDbEntity
  8
GR1-1
  6
CONTINUOUS
 62
     2
100
AcDbLine
 10
750.097382
 20
132.793639
 30
0.0
 11
755.927109
 21
132.793639
 31
0.0
  0
LINE
  5
607
330
601
100
AcDbEntity
  8
GR1-1
  6
CONTINUOUS
 62
     2
100
AcDbLine
 10
755.327109
 20
119.262804
 30
0.0
 11
755.327109
 21
132.013639
 31
0.0
  0
LINE
  5
608
330
601
100
AcDbEntity
  8
GR1-1
  6
CONTINUOUS
 62
     2
100
AcDbLine
 10
755.197109
 20
119.262804
 30
0.0
 11
755.457109
 21
119.262804
 31
0.0
  0
LINE
  5
609
330
601
100
AcDbEntity
  8
GR1-1
  6
CONTINUOUS
 62
     2
100
AcDbLine
 10
755.457109
 20
119.262804
 30
0.0
 11
755.327109
 21
118.482804
 31
0.0
  0
LINE
  5
60A
330
601
100
AcDbEntity
  8
GR1-1
  6
CONTINUOUS
 62
     2
100
AcDbLine
 10
755.327109
 20
118.482804
 30
0.0
 11
755.197109
 21
119.262804
 31
0.0
  0
LINE
  5
60B
330
601
100
AcDbEntity
  8
GR1-1
  6
CONTINUOUS
 62
     2
100
AcDbLine
 10
755.197109
 20
132.013639
 30
0.0
 11
755.457109
 21
132.013639
 31
0.0
  0
LINE
  5
60C
330
601
100
AcDbEntity
  8
GR1-1
  6
CONTINUOUS
 62
     2
100
AcDbLine
 10
755.457109
 20
132.013639
 30
0.0
 11
755.327109
 21
132.793639
 31
0.0
  0
LINE
  5
60D
330
601
100
AcDbEntity
  8
GR1-1
  6
CONTINUOUS
 62
     2
100
AcDbLine
 10
755.327109
 20
132.793639
 30
0.0
 11
755.197109
 21
132.013639
 31
0.0
  0
TEXT
  5
60E
330
601
100
AcDbEntity
  8
GR1-1
  6
CONTINUOUS
 62
     4
100
AcDbText
 10
754.727109
 20
123.013223
 30
0.0
 40
1.5
  1
715.5
 50
90.0
 41
0.7
  7
FX_VECTOR
 72
     5
 11
754.727109
 21
128.263223
 31
0.0
100
AcDbText
  0
ENDBLK
  5
603
330
601
100
AcDbEntity
  8
0
100
AcDbBlockEnd
  0
BLOCK
  5
63D
330
63C
100
AcDbEntity
  8
0
100
AcDbBlockBegin
  2
BLKF100
 70
     0
 71
     0
 10
0.0
 20
0.0
 30
0.0
  3
BLKF100
  1

  0
LINE
  5
640
330
63C
100
AcDbEntity
  8
GR1-1
  6
CONTINUOUS
 62
     2
100
AcDbLine
 10
750.097382
 20
118.482804
 30
0.0
 11
755.927109
 21
118.482804
 31
0.0
  0
LINE
  5
641
330
63C
100
AcDbEntity
  8
GR1-1
  6
CONTINUOUS
 62
     2
100
AcDbLine
 10
750.097382
 20
132.793639
 30
0.0
 11
755.927109
 21
132.793639
 31
0.0
  0
LINE
  5
642
330
63C
100
AcDbEntity
  8
GR1-1
  6
CONTINUOUS
 62
     2
100
AcDbLine
 10
755.327109
 20
119.262804
 30
0.0
 11
755.327109
 21
132.013639
 31
0.0
  0
LINE
  5
643
330
63C
100
AcDbEntity
  8
GR1-1
  6
CONTINUOUS
 62
     2
100
AcDbLine
 10
755.197109
 20
119.262804
 30
0.0
 11
755.457109
 21
119.262804
 31
0.0
  0
LINE
  5
644
330
63C
100
AcDbEntity
  8
GR1-1
  6
CONTINUOUS
 62
     2
100
AcDbLine
 10
755.457109
 20
119.262804
 30
0.0
 11
755.327109
 21
118.482804
 31
0.0
  0
LINE
  5
645
330
63C
100
AcDbEntity
  8
GR1-1
  6
CONTINUOUS
 62
     2
100
AcDbLine
 10
755.327109
 20
118.482804
 30
0.0
 11
755.197109
 21
119.262804
 31
0.0
  0
LINE
  5
646
330
63C
100
AcDbEntity
  8
GR1-1
  6
CONTINUOUS
 62
     2
100
AcDbLine
 10
755.197109
 20
132.013639
 30
0.0
 11
755.457109
 21
132.013639
 31
0.0
  0
LINE
  5
647
330
63C
100
AcDbEntity
  8
GR1-1
  6
CONTINUOUS
 62
     2
100
AcDbLine
 10
755.457109
 20
132.013639
 30
0.0
 11
755.327109
 21
132.793639
 31
0.0
  0
LINE
  5
648
330
63C
100
AcDbEntity
  8
GR1-1
  6
CONTINUOUS
 62
     2
100
AcDbLine
 10
755.327109
 20
132.793639
 30
0.0
 11
755.197109
 21
132.013639
 31
0.0
  0
TEXT
  5
649
330
63C
100
AcDbEntity
  8
GR1-1
  6
CONTINUOUS
 62
     4
100
AcDbText
 10
754.727109
 20
123.013223
 30
0.0
 40
1.5
  1
715.5
 50
90.0
 41
0.7
  7
FX_VECTOR
 72
     5
 11
754.727109
 21
128.263223
 31
0.0
100
AcDbText
  0
ENDBLK
  5
63E
330
63C
100
AcDbEntity
  8
0
100
AcDbBlockEnd
  0
BLOCK
  5
64B
330
64A
100
AcDbEntity
  8
0
100
AcDbBlockBegin
  2
BLKF101
 70
     0
 71
     0
 10
0.0
 20
0.0
 30
0.0
  3
BLKF101
  1

  0
LINE
  5
64E
330
64A
100
AcDbEntity
  8
GR1-1
  6
CONTINUOUS
 62
     2
100
AcDbLine
 10
798.704443
 20
89.657968
 30
0.0
 11
798.704443
 21
92.924958
 31
0.0
  0
LINE
  5
64F
330
64A
100
AcDbEntity
  8
GR1-1
  6
CONTINUOUS
 62
     2
100
AcDbLine
 10
797.704443
 20
89.657968
 30
0.0
 11
797.704443
 21
92.924958
 31
0.0
  0
LINE
  5
650
330
64A
100
AcDbEntity
  8
GR1-1
  6
CONTINUOUS
 62
     2
100
AcDbLine
 10
799.484443
 20
92.324958
 30
0.0
 11
800.264443
 21
92.324958
 31
0.0
  0
LINE
  5
651
330
64A
100
AcDbEntity
  8
GR1-1
  6
CONTINUOUS
 62
     2
100
AcDbLine
 10
796.924443
 20
92.324958
 30
0.0
 11
796.144443
 21
92.324958
 31
0.0
  0
TEXT
  5
652
330
64A
100
AcDbEntity
  8
GR1-1
  6
CONTINUOUS
 62
     4
100
AcDbText
 10
795.363516
 20
92.79002
 30
0.0
 40
1.5
  1
50
 41
0.7
  7
FX_VECTOR
 72
     5
 11
797.463516
 21
92.79002
 31
0.0
100
AcDbText
  0
LINE
  5
653
330
64A
100
AcDbEntity
  8
GR1-1
  6
CONTINUOUS
 62
     2
100
AcDbLine
 10
799.484443
 20
92.454958
 30
0.0
 11
799.484443
 21
92.194958
 31
0.0
  0
LINE
  5
654
330
64A
100
AcDbEntity
  8
GR1-1
  6
CONTINUOUS
 62
     2
100
AcDbLine
 10
799.484443
 20
92.194958
 30
0.0
 11
798.704443
 21
92.324958
 31
0.0
  0
LINE
  5
655
330
64A
100
AcDbEntity
  8
GR1-1
  6
CONTINUOUS
 62
     2
100
AcDbLine
 10
798.704443
 20
92.324958
 30
0.0
 11
799.484443
 21
92.454958
 31
0.0
  0
LINE
  5
656
330
64A
100
AcDbEntity
  8
GR1-1
  6
CONTINUOUS
 62
     2
100
AcDbLine
 10
796.924443
 20
92.454958
 30
0.0
 11
796.924443
 21
92.194958
 31
0.0
  0
LINE
  5
657
330
64A
100
AcDbEntity
  8
GR1-1
  6
CONTINUOUS
 62
     2
100
AcDbLine
 10
796.924443
 20
92.194958
 30
0.0
 11
797.704443
 21
92.324958
 31
0.0
  0
LINE
  5
658
330
64A
100
AcDbEntity
  8
GR1-1
  6
CONTINUOUS
 62
     2
100
AcDbLine
 10
797.704443
 20
92.324958
 30
0.0
 11
796.924443
 21
92.454958
 31
0.0
  0
ENDBLK
  5
64C
330
64A
100
AcDbEntity
  8
0
100
AcDbBlockEnd
  0
BLOCK
  5
66D
330
66C
100
AcDbEntity
  8
0
100
AcDbBlockBegin
  2
BLKF102
 70
     0
 71
     0
 10
0.0
 20
0.0
 30
0.0
  3
BLKF102
  1

  0
LINE
  5
670
330
66C
100
AcDbEntity
  8
GR1-1
  6
CONTINUOUS
 62
     2
100
AcDbLine
 10
736.697382
 20
83.377968
 30
0.0
 11
736.697382
 21
73.55113
 31
0.0
  0
LINE
  5
671
330
66C
100
AcDbEntity
  8
GR1-1
  6
CONTINUOUS
 62
     2
100
AcDbLine
 10
749.197382
 20
83.377968
 30
0.0
 11
749.197382
 21
73.55113
 31
0.0
  0
LINE
  5
672
330
66C
100
AcDbEntity
  8
GR1-1
  6
CONTINUOUS
 62
     2
100
AcDbLine
 10
737.477382
 20
74.15113
 30
0.0
 11
748.417382
 21
74.15113
 31
0.0
  0
LINE
  5
673
330
66C
100
AcDbEntity
  8
GR1-1
  6
CONTINUOUS
 62
     2
100
AcDbLine
 10
737.477382
 20
74.28113
 30
0.0
 11
737.477382
 21
74.02113
 31
0.0
  0
LINE
  5
674
330
66C
100
AcDbEntity
  8
GR1-1
  6
CONTINUOUS
 62
     2
100
AcDbLine
 10
737.477382
 20
74.02113
 30
0.0
 11
736.697382
 21
74.15113
 31
0.0
  0
LINE
  5
675
330
66C
100
AcDbEntity
  8
GR1-1
  6
CONTINUOUS
 62
     2
100
AcDbLine
 10
736.697382
 20
74.15113
 30
0.0
 11
737.477382
 21
74.28113
 31
0.0
  0
LINE
  5
676
330
66C
100
AcDbEntity
  8
GR1-1
  6
CONTINUOUS
 62
     2
100
AcDbLine
 10
748.417382
 20
74.28113
 30
0.0
 11
748.417382
 21
74.02113
 31
0.0
  0
LINE
  5
677
330
66C
100
AcDbEntity
  8
GR1-1
  6
CONTINUOUS
 62
     2
100
AcDbLine
 10
748.417382
 20
74.02113
 30
0.0
 11
749.197382
 21
74.15113
 31
0.0
  0
LINE
  5
678
330
66C
100
AcDbEntity
  8
GR1-1
  6
CONTINUOUS
 62
     2
100
AcDbLine
 10
749.197382
 20
74.15113
 30
0.0
 11
748.417382
 21
74.28113
 31
0.0
  0
TEXT
  5
679
330
66C
100
AcDbEntity
  8
GR1-1
  6
CONTINUOUS
 62
     4
100
AcDbText
 10
741.372422
 20
74.751133
 30
0.0
 40
1.5
  1
625
 41
0.7
  7
FX_VECTOR
 72
     5
 11
744.522422
 21
74.751133
 31
0.0
100
AcDbText
  0
ENDBLK
  5
66E
330
66C
100
AcDbEntity
  8
0
100
AcDbBlockEnd
  0
BLOCK
  5
67B
330
67A
100
AcDbEntity
  8
0
100
AcDbBlockBegin
  2
BLKF103
 70
     0
 71
     0
 10
0.0
 20
0.0
 30
0.0
  3
BLKF103
  1

  0
LINE
  5
67E
330
67A
100
AcDbEntity
  8
GR1-1
  6
CONTINUOUS
 62
     2
100
AcDbLine
 10
740.947382
 20
83.377968
 30
0.0
 11
740.947382
 21
76.766053
 31
0.0
  0
LINE
  5
67F
330
67A
100
AcDbEntity
  8
GR1-1
  6
CONTINUOUS
 62
     2
100
AcDbLine
 10
736.697382
 20
83.377968
 30
0.0
 11
736.697382
 21
76.766053
 31
0.0
  0
LINE
  5
680
330
67A
100
AcDbEntity
  8
GR1-1
  6
CONTINUOUS
 62
     2
100
AcDbLine
 10
740.167382
 20
77.366053
 30
0.0
 11
737.477382
 21
77.366053
 31
0.0
  0
TEXT
  5
681
330
67A
100
AcDbEntity
  8
GR1-1
  6
CONTINUOUS
 62
     4
100
AcDbText
 10
736.165859
 20
77.978066
 30
0.0
 40
1.5
  1
212.5
 41
0.7
  7
FX_VECTOR
 72
     5
 11
741.415859
 21
77.978066
 31
0.0
100
AcDbText
  0
LINE
  5
682
330
67A
100
AcDbEntity
  8
GR1-1
  6
CONTINUOUS
 62
     2
100
AcDbLine
 10
740.167382
 20
77.496053
 30
0.0
 11
740.167382
 21
77.236053
 31
0.0
  0
LINE
  5
683
330
67A
100
AcDbEntity
  8
GR1-1
  6
CONTINUOUS
 62
     2
100
AcDbLine
 10
740.167382
 20
77.236053
 30
0.0
 11
740.947382
 21
77.366053
 31
0.0
  0
LINE
  5
684
330
67A
100
AcDbEntity
  8
GR1-1
  6
CONTINUOUS
 62
     2
100
AcDbLine
 10
740.947382
 20
77.366053
 30
0.0
 11
740.167382
 21
77.496053
 31
0.0
  0
LINE
  5
685
330
67A
100
AcDbEntity
  8
GR1-1
  6
CONTINUOUS
 62
     2
100
AcDbLine
 10
737.477382
 20
77.496053
 30
0.0
 11
737.477382
 21
77.236053
 31
0.0
  0
LINE
  5
686
330
67A
100
AcDbEntity
  8
GR1-1
  6
CONTINUOUS
 62
     2
100
AcDbLine
 10
737.477382
 20
77.236053
 30
0.0
 11
736.697382
 21
77.366053
 31
0.0
  0
LINE
  5
687
330
67A
100
AcDbEntity
  8
GR1-1
  6
CONTINUOUS
 62
     2
100
AcDbLine
 10
736.697382
 20
77.366053
 30
0.0
 11
737.477382
 21
77.496053
 31
0.0
  0
ENDBLK
  5
67C
330
67A
100
AcDbEntity
  8
0
100
AcDbBlockEnd
  0
BLOCK
  5
68A
330
689
100
AcDbEntity
  8
0
100
AcDbBlockBegin
  2
BLKF104
 70
     0
 71
     0
 10
0.0
 20
0.0
 30
0.0
  3
BLKF104
  1

  0
LINE
  5
68D
330
689
100
AcDbEntity
  8
GR1-1
  6
CONTINUOUS
 62
     2
100
AcDbLine
 10
744.947382
 20
83.377968
 30
0.0
 11
744.947382
 21
76.766053
 31
0.0
  0
LINE
  5
68E
330
689
100
AcDbEntity
  8
GR1-1
  6
CONTINUOUS
 62
     2
100
AcDbLine
 10
749.197382
 20
83.377968
 30
0.0
 11
749.197382
 21
76.766053
 31
0.0
  0
LINE
  5
68F
330
689
100
AcDbEntity
  8
GR1-1
  6
CONTINUOUS
 62
     2
100
AcDbLine
 10
745.727382
 20
77.366053
 30
0.0
 11
748.417382
 21
77.366053
 31
0.0
  0
TEXT
  5
690
330
689
100
AcDbEntity
  8
GR1-1
  6
CONTINUOUS
 62
     4
100
AcDbText
 10
744.406719
 20
77.978066
 30
0.0
 40
1.5
  1
212.5
 41
0.7
  7
FX_VECTOR
 72
     5
 11
749.656719
 21
77.978066
 31
0.0
100
AcDbText
  0
LINE
  5
691
330
689
100
AcDbEntity
  8
GR1-1
  6
CONTINUOUS
 62
     2
100
AcDbLine
 10
745.727382
 20
77.496053
 30
0.0
 11
745.727382
 21
77.236053
 31
0.0
  0
LINE
  5
692
330
689
100
AcDbEntity
  8
GR1-1
  6
CONTINUOUS
 62
     2
100
AcDbLine
 10
745.727382
 20
77.236053
 30
0.0
 11
744.947382
 21
77.366053
 31
0.0
  0
LINE
  5
693
330
689
100
AcDbEntity
  8
GR1-1
  6
CONTINUOUS
 62
     2
100
AcDbLine
 10
744.947382
 20
77.366053
 30
0.0
 11
745.727382
 21
77.496053
 31
0.0
  0
LINE
  5
694
330
689
100
AcDbEntity
  8
GR1-1
  6
CONTINUOUS
 62
     2
100
AcDbLine
 10
748.417382
 20
77.496053
 30
0.0
 11
748.417382
 21
77.236053
 31
0.0
  0
LINE
  5
695
330
689
100
AcDbEntity
  8
GR1-1
  6
CONTINUOUS
 62
     2
100
AcDbLine
 10
748.417382
 20
77.236053
 30
0.0
 11
749.197382
 21
77.366053
 31
0.0
  0
LINE
  5
696
330
689
100
AcDbEntity
  8
GR1-1
  6
CONTINUOUS
 62
     2
100
AcDbLine
 10
749.197382
 20
77.366053
 30
0.0
 11
748.417382
 21
77.496053
 31
0.0
  0
ENDBLK
  5
68B
330
689
100
AcDbEntity
  8
0
100
AcDbBlockEnd
  0
BLOCK
  5
698
330
697
100
AcDbEntity
  8
0
100
AcDbBlockBegin
  2
BLKF105
 70
     0
 71
     0
 10
0.0
 20
0.0
 30
0.0
  3
BLKF105
  1

  0
LINE
  5
69B
330
697
100
AcDbEntity
  8
GR1-1
  6
CONTINUOUS
 62
     2
100
AcDbLine
 10
744.947382
 20
83.377968
 30
0.0
 11
744.947382
 21
76.766053
 31
0.0
  0
LINE
  5
69C
330
697
100
AcDbEntity
  8
GR1-1
  6
CONTINUOUS
 62
     2
100
AcDbLine
 10
740.947382
 20
83.377968
 30
0.0
 11
740.947382
 21
76.766053
 31
0.0
  0
LINE
  5
69D
330
697
100
AcDbEntity
  8
GR1-1
  6
CONTINUOUS
 62
     2
100
AcDbLine
 10
744.167382
 20
77.366053
 30
0.0
 11
741.727382
 21
77.366053
 31
0.0
  0
TEXT
  5
69E
330
697
100
AcDbEntity
  8
GR1-1
  6
CONTINUOUS
 62
     4
100
AcDbText
 10
741.386797
 20
78.006152
 30
0.0
 40
1.5
  1
200
 41
0.7
  7
FX_VECTOR
 72
     5
 11
744.536797
 21
78.006152
 31
0.0
100
AcDbText
  0
LINE
  5
69F
330
697
100
AcDbEntity
  8
GR1-1
  6
CONTINUOUS
 62
     2
100
AcDbLine
 10
744.167382
 20
77.496053
 30
0.0
 11
744.167382
 21
77.236053
 31
0.0
  0
LINE
  5
6A0
330
697
100
AcDbEntity
  8
GR1-1
  6
CONTINUOUS
 62
     2
100
AcDbLine
 10
744.167382
 20
77.236053
 30
0.0
 11
744.947382
 21
77.366053
 31
0.0
  0
LINE
  5
6A1
330
697
100
AcDbEntity
  8
GR1-1
  6
CONTINUOUS
 62
     2
100
AcDbLine
 10
744.947382
 20
77.366053
 30
0.0
 11
744.167382
 21
77.496053
 31
0.0
  0
LINE
  5
6A2
330
697
100
AcDbEntity
  8
GR1-1
  6
CONTINUOUS
 62
     2
100
AcDbLine
 10
741.727382
 20
77.496053
 30
0.0
 11
741.727382
 21
77.236053
 31
0.0
  0
LINE
  5
6A3
330
697
100
AcDbEntity
  8
GR1-1
  6
CONTINUOUS
 62
     2
100
AcDbLine
 10
741.727382
 20
77.236053
 30
0.0
 11
740.947382
 21
77.366053
 31
0.0
  0
LINE
  5
6A4
330
697
100
AcDbEntity
  8
GR1-1
  6
CONTINUOUS
 62
     2
100
AcDbLine
 10
740.947382
 20
77.366053
 30
0.0
 11
741.727382
 21
77.496053
 31
0.0
  0
ENDBLK
  5
699
330
697
100
AcDbEntity
  8
0
100
AcDbBlockEnd
  0
BLOCK
  5
6AA
330
6A9
100
AcDbEntity
  8
0
100
AcDbBlockBegin
  2
BLKF106
 70
     0
 71
     0
 10
0.0
 20
0.0
 30
0.0
  3
BLKF106
  1

  0
LINE
  5
6AD
330
6A9
100
AcDbEntity
  8
GR1-1
  6
CONTINUOUS
 62
     2
100
AcDbLine
 10
792.454443
 20
83.377968
 30
0.0
 11
792.454443
 21
80.431549
 31
0.0
  0
LINE
  5
6AE
330
6A9
100
AcDbEntity
  8
GR1-1
  6
CONTINUOUS
 62
     2
100
AcDbLine
 10
790.454443
 20
83.377968
 30
0.0
 11
790.454443
 21
80.431549
 31
0.0
  0
LINE
  5
6AF
330
6A9
100
AcDbEntity
  8
GR1-1
  6
CONTINUOUS
 62
     2
100
AcDbLine
 10
793.234443
 20
81.031549
 30
0.0
 11
794.014443
 21
81.031549
 31
0.0
  0
LINE
  5
6B0
330
6A9
100
AcDbEntity
  8
GR1-1
  6
CONTINUOUS
 62
     2
100
AcDbLine
 10
789.674443
 20
81.031549
 30
0.0
 11
788.894443
 21
81.031549
 31
0.0
  0
TEXT
  5
6B1
330
6A9
100
AcDbEntity
  8
GR1-1
  6
CONTINUOUS
 62
     4
100
AcDbText
 10
786.998281
 20
81.409297
 30
0.0
 40
1.5
  1
100
 41
0.7
  7
FX_VECTOR
 72
     5
 11
790.148281
 21
81.409297
 31
0.0
100
AcDbText
  0
LINE
  5
6B2
330
6A9
100
AcDbEntity
  8
GR1-1
  6
CONTINUOUS
 62
     2
100
AcDbLine
 10
793.234443
 20
81.161549
 30
0.0
 11
793.234443
 21
80.901549
 31
0.0
  0
LINE
  5
6B3
330
6A9
100
AcDbEntity
  8
GR1-1
  6
CONTINUOUS
 62
     2
100
AcDbLine
 10
793.234443
 20
80.901549
 30
0.0
 11
792.454443
 21
81.031549
 31
0.0
  0
LINE
  5
6B4
330
6A9
100
AcDbEntity
  8
GR1-1
  6
CONTINUOUS
 62
     2
100
AcDbLine
 10
792.454443
 20
81.031549
 30
0.0
 11
793.234443
 21
81.161549
 31
0.0
  0
LINE
  5
6B5
330
6A9
100
AcDbEntity
  8
GR1-1
  6
CONTINUOUS
 62
     2
100
AcDbLine
 10
789.674443
 20
81.161549
 30
0.0
 11
789.674443
 21
80.901549
 31
0.0
  0
LINE
  5
6B6
330
6A9
100
AcDbEntity
  8
GR1-1
  6
CONTINUOUS
 62
     2
100
AcDbLine
 10
789.674443
 20
80.901549
 30
0.0
 11
790.454443
 21
81.031549
 31
0.0
  0
LINE
  5
6B7
330
6A9
100
AcDbEntity
  8
GR1-1
  6
CONTINUOUS
 62
     2
100
AcDbLine
 10
790.454443
 20
81.031549
 30
0.0
 11
789.674443
 21
81.161549
 31
0.0
  0
ENDBLK
  5
6AB
330
6A9
100
AcDbEntity
  8
0
100
AcDbBlockEnd
  0
BLOCK
  5
6B9
330
6B8
100
AcDbEntity
  8
0
100
AcDbBlockBegin
  2
BLKF107
 70
     0
 71
     0
 10
0.0
 20
0.0
 30
0.0
  3
BLKF107
  1

  0
LINE
  5
6BC
330
6B8
100
AcDbEntity
  8
GR1-1
  6
CONTINUOUS
 62
     2
100
AcDbLine
 10
790.454443
 20
83.377968
 30
0.0
 11
790.454443
 21
76.766053
 31
0.0
  0
LINE
  5
6BD
330
6B8
100
AcDbEntity
  8
GR1-1
  6
CONTINUOUS
 62
     2
100
AcDbLine
 10
786.204443
 20
83.377968
 30
0.0
 11
786.204443
 21
76.766053
 31
0.0
  0
LINE
  5
6BE
330
6B8
100
AcDbEntity
  8
GR1-1
  6
CONTINUOUS
 62
     2
100
AcDbLine
 10
789.674443
 20
77.366053
 30
0.0
 11
786.984443
 21
77.366053
 31
0.0
  0
TEXT
  5
6BF
330
6B8
100
AcDbEntity
  8
GR1-1
  6
CONTINUOUS
 62
     4
100
AcDbText
 10
785.672891
 20
77.978066
 30
0.0
 40
1.5
  1
212.5
 41
0.7
  7
FX_VECTOR
 72
     5
 11
790.922891
 21
77.978066
 31
0.0
100
AcDbText
  0
LINE
  5
6C0
330
6B8
100
AcDbEntity
  8
GR1-1
  6
CONTINUOUS
 62
     2
100
AcDbLine
 10
789.674443
 20
77.496053
 30
0.0
 11
789.674443
 21
77.236053
 31
0.0
  0
LINE
  5
6C1
330
6B8
100
AcDbEntity
  8
GR1-1
  6
CONTINUOUS
 62
     2
100
AcDbLine
 10
789.674443
 20
77.236053
 30
0.0
 11
790.454443
 21
77.366053
 31
0.0
  0
LINE
  5
6C2
330
6B8
100
AcDbEntity
  8
GR1-1
  6
CONTINUOUS
 62
     2
100
AcDbLine
 10
790.454443
 20
77.366053
 30
0.0
 11
789.674443
 21
77.496053
 31
0.0
  0
LINE
  5
6C3
330
6B8
100
AcDbEntity
  8
GR1-1
  6
CONTINUOUS
 62
     2
100
AcDbLine
 10
786.984443
 20
77.496053
 30
0.0
 11
786.984443
 21
77.236053
 31
0.0
  0
LINE
  5
6C4
330
6B8
100
AcDbEntity
  8
GR1-1
  6
CONTINUOUS
 62
     2
100
AcDbLine
 10
786.984443
 20
77.236053
 30
0.0
 11
786.204443
 21
77.366053
 31
0.0
  0
LINE
  5
6C5
330
6B8
100
AcDbEntity
  8
GR1-1
  6
CONTINUOUS
 62
     2
100
AcDbLine
 10
786.204443
 20
77.366053
 30
0.0
 11
786.984443
 21
77.496053
 31
0.0
  0
ENDBLK
  5
6BA
330
6B8
100
AcDbEntity
  8
0
100
AcDbBlockEnd
  0
BLOCK
  5
6C7
330
6C6
100
AcDbEntity
  8
0
100
AcDbBlockBegin
  2
BLKF108
 70
     0
 71
     0
 10
0.0
 20
0.0
 30
0.0
  3
BLKF108
  1

  0
LINE
  5
6CA
330
6C6
100
AcDbEntity
  8
GR1-1
  6
CONTINUOUS
 62
     2
100
AcDbLine
 10
786.204443
 20
83.377968
 30
0.0
 11
786.204443
 21
73.55113
 31
0.0
  0
LINE
  5
6CB
330
6C6
100
AcDbEntity
  8
GR1-1
  6
CONTINUOUS
 62
     2
100
AcDbLine
 10
798.704443
 20
83.377968
 30
0.0
 11
798.704443
 21
73.55113
 31
0.0
  0
LINE
  5
6CC
330
6C6
100
AcDbEntity
  8
GR1-1
  6
CONTINUOUS
 62
     2
100
AcDbLine
 10
786.984443
 20
74.15113
 30
0.0
 11
797.924443
 21
74.15113
 31
0.0
  0
LINE
  5
6CD
330
6C6
100
AcDbEntity
  8
GR1-1
  6
CONTINUOUS
 62
     2
100
AcDbLine
 10
786.984443
 20
74.28113
 30
0.0
 11
786.984443
 21
74.02113
 31
0.0
  0
LINE
  5
6CE
330
6C6
100
AcDbEntity
  8
GR1-1
  6
CONTINUOUS
 62
     2
100
AcDbLine
 10
786.984443
 20
74.02113
 30
0.0
 11
786.204443
 21
74.15113
 31
0.0
  0
LINE
  5
6CF
330
6C6
100
AcDbEntity
  8
GR1-1
  6
CONTINUOUS
 62
     2
100
AcDbLine
 10
786.204443
 20
74.15113
 30
0.0
 11
786.984443
 21
74.28113
 31
0.0
  0
LINE
  5
6D0
330
6C6
100
AcDbEntity
  8
GR1-1
  6
CONTINUOUS
 62
     2
100
AcDbLine
 10
797.924443
 20
74.28113
 30
0.0
 11
797.924443
 21
74.02113
 31
0.0
  0
LINE
  5
6D1
330
6C6
100
AcDbEntity
  8
GR1-1
  6
CONTINUOUS
 62
     2
100
AcDbLine
 10
797.924443
 20
74.02113
 30
0.0
 11
798.704443
 21
74.15113
 31
0.0
  0
LINE
  5
6D2
330
6C6
100
AcDbEntity
  8
GR1-1
  6
CONTINUOUS
 62
     2
100
AcDbLine
 10
798.704443
 20
74.15113
 30
0.0
 11
797.924443
 21
74.28113
 31
0.0
  0
TEXT
  5
6D3
330
6C6
100
AcDbEntity
  8
GR1-1
  6
CONTINUOUS
 62
     4
100
AcDbText
 10
790.879453
 20
74.751133
 30
0.0
 40
1.5
  1
625
 41
0.7
  7
FX_VECTOR
 72
     5
 11
794.029453
 21
74.751133
 31
0.0
100
AcDbText
  0
ENDBLK
  5
6C8
330
6C6
100
AcDbEntity
  8
0
100
AcDbBlockEnd
  0
BLOCK
  5
6D6
330
6D5
100
AcDbEntity
  8
0
100
AcDbBlockBegin
  2
BLKF109
 70
     0
 71
     0
 10
0.0
 20
0.0
 30
0.0
  3
BLKF109
  1

  0
LINE
  5
6D9
330
6D5
100
AcDbEntity
  8
GR1-1
  6
CONTINUOUS
 62
     2
100
AcDbLine
 10
794.454443
 20
83.377968
 30
0.0
 11
794.454443
 21
76.766053
 31
0.0
  0
LINE
  5
6DA
330
6D5
100
AcDbEntity
  8
GR1-1
  6
CONTINUOUS
 62
     2
100
AcDbLine
 10
790.454443
 20
83.377968
 30
0.0
 11
790.454443
 21
76.766053
 31
0.0
  0
LINE
  5
6DB
330
6D5
100
AcDbEntity
  8
GR1-1
  6
CONTINUOUS
 62
     2
100
AcDbLine
 10
793.674443
 20
77.366053
 30
0.0
 11
791.234443
 21
77.366053
 31
0.0
  0
TEXT
  5
6DC
330
6D5
100
AcDbEntity
  8
GR1-1
  6
CONTINUOUS
 62
     4
100
AcDbText
 10
790.893828
 20
78.006152
 30
0.0
 40
1.5
  1
200
 41
0.7
  7
FX_VECTOR
 72
     5
 11
794.043828
 21
78.006152
 31
0.0
100
AcDbText
  0
LINE
  5
6DD
330
6D5
100
AcDbEntity
  8
GR1-1
  6
CONTINUOUS
 62
     2
100
AcDbLine
 10
793.674443
 20
77.496053
 30
0.0
 11
793.674443
 21
77.236053
 31
0.0
  0
LINE
  5
6DE
330
6D5
100
AcDbEntity
  8
GR1-1
  6
CONTINUOUS
 62
     2
100
AcDbLine
 10
793.674443
 20
77.236053
 30
0.0
 11
794.454443
 21
77.366053
 31
0.0
  0
LINE
  5
6DF
330
6D5
100
AcDbEntity
  8
GR1-1
  6
CONTINUOUS
 62
     2
100
AcDbLine
 10
794.454443
 20
77.366053
 30
0.0
 11
793.674443
 21
77.496053
 31
0.0
  0
LINE
  5
6E0
330
6D5
100
AcDbEntity
  8
GR1-1
  6
CONTINUOUS
 62
     2
100
AcDbLine
 10
791.234443
 20
77.496053
 30
0.0
 11
791.234443
 21
77.236053
 31
0.0
  0
LINE
  5
6E1
330
6D5
100
AcDbEntity
  8
GR1-1
  6
CONTINUOUS
 62
     2
100
AcDbLine
 10
791.234443
 20
77.236053
 30
0.0
 11
790.454443
 21
77.366053
 31
0.0
  0
LINE
  5
6E2
330
6D5
100
AcDbEntity
  8
GR1-1
  6
CONTINUOUS
 62
     2
100
AcDbLine
 10
790.454443
 20
77.366053
 30
0.0
 11
791.234443
 21
77.496053
 31
0.0
  0
ENDBLK
  5
6D7
330
6D5
100
AcDbEntity
  8
0
100
AcDbBlockEnd
  0
BLOCK
  5
6E4
330
6E3
100
AcDbEntity
  8
0
100
AcDbBlockBegin
  2
BLKF110
 70
     0
 71
     0
 10
0.0
 20
0.0
 30
0.0
  3
BLKF110
  1

  0
LINE
  5
6E7
330
6E3
100
AcDbEntity
  8
GR1-1
  6
CONTINUOUS
 62
     2
100
AcDbLine
 10
794.454443
 20
83.377968
 30
0.0
 11
794.454443
 21
76.766053
 31
0.0
  0
LINE
  5
6E8
330
6E3
100
AcDbEntity
  8
GR1-1
  6
CONTINUOUS
 62
     2
100
AcDbLine
 10
798.704443
 20
83.377968
 30
0.0
 11
798.704443
 21
76.766053
 31
0.0
  0
LINE
  5
6E9
330
6E3
100
AcDbEntity
  8
GR1-1
  6
CONTINUOUS
 62
     2
100
AcDbLine
 10
795.234443
 20
77.366053
 30
0.0
 11
797.924443
 21
77.366053
 31
0.0
  0
TEXT
  5
6EA
330
6E3
100
AcDbEntity
  8
GR1-1
  6
CONTINUOUS
 62
     4
100
AcDbText
 10
793.91375
 20
77.978066
 30
0.0
 40
1.5
  1
212.5
 41
0.7
  7
FX_VECTOR
 72
     5
 11
799.16375
 21
77.978066
 31
0.0
100
AcDbText
  0
LINE
  5
6EB
330
6E3
100
AcDbEntity
  8
GR1-1
  6
CONTINUOUS
 62
     2
100
AcDbLine
 10
795.234443
 20
77.496053
 30
0.0
 11
795.234443
 21
77.236053
 31
0.0
  0
LINE
  5
6EC
330
6E3
100
AcDbEntity
  8
GR1-1
  6
CONTINUOUS
 62
     2
100
AcDbLine
 10
795.234443
 20
77.236053
 30
0.0
 11
794.454443
 21
77.366053
 31
0.0
  0
LINE
  5
6ED
330
6E3
100
AcDbEntity
  8
GR1-1
  6
CONTINUOUS
 62
     2
100
AcDbLine
 10
794.454443
 20
77.366053
 30
0.0
 11
795.234443
 21
77.496053
 31
0.0
  0
LINE
  5
6EE
330
6E3
100
AcDbEntity
  8
GR1-1
  6
CONTINUOUS
 62
     2
100
AcDbLine
 10
797.924443
 20
77.496053
 30
0.0
 11
797.924443
 21
77.236053
 31
0.0
  0
LINE
  5
6EF
330
6E3
100
AcDbEntity
  8
GR1-1
  6
CONTINUOUS
 62
     2
100
AcDbLine
 10
797.924443
 20
77.236053
 30
0.0
 11
798.704443
 21
77.366053
 31
0.0
  0
LINE
  5
6F0
330
6E3
100
AcDbEntity
  8
GR1-1
  6
CONTINUOUS
 62
     2
100
AcDbLine
 10
798.704443
 20
77.366053
 30
0.0
 11
797.924443
 21
77.496053
 31
0.0
  0
ENDBLK
  5
6E5
330
6E3
100
AcDbEntity
  8
0
100
AcDbBlockEnd
  0
BLOCK
  5
6F7
330
6F6
100
AcDbEntity
  8
0
100
AcDbBlockBegin
  2
BLKF111
 70
     0
 71
     0
 10
0.0
 20
0.0
 30
0.0
  3
BLKF111
  1

  0
LINE
  5
6FA
330
6F6
100
AcDbEntity
  8
GR1-1
  6
CONTINUOUS
 62
     2
100
AcDbLine
 10
749.197382
 20
89.157968
 30
0.0
 11
749.197382
 21
92.424958
 31
0.0
  0
LINE
  5
6FB
330
6F6
100
AcDbEntity
  8
GR1-1
  6
CONTINUOUS
 62
     2
100
AcDbLine
 10
748.197382
 20
89.157968
 30
0.0
 11
748.197382
 21
92.424958
 31
0.0
  0
LINE
  5
6FC
330
6F6
100
AcDbEntity
  8
GR1-1
  6
CONTINUOUS
 62
     2
100
AcDbLine
 10
749.977382
 20
91.824958
 30
0.0
 11
750.757382
 21
91.824958
 31
0.0
  0
LINE
  5
6FD
330
6F6
100
AcDbEntity
  8
GR1-1
  6
CONTINUOUS
 62
     2
100
AcDbLine
 10
747.417382
 20
91.824958
 30
0.0
 11
746.637382
 21
91.824958
 31
0.0
  0
TEXT
  5
6FE
330
6F6
100
AcDbEntity
  8
GR1-1
  6
CONTINUOUS
 62
     4
100
AcDbText
 10
745.856406
 20
92.29002
 30
0.0
 40
1.5
  1
50
 41
0.7
  7
FX_VECTOR
 72
     5
 11
747.956406
 21
92.29002
 31
0.0
100
AcDbText
  0
LINE
  5
6FF
330
6F6
100
AcDbEntity
  8
GR1-1
  6
CONTINUOUS
 62
     2
100
AcDbLine
 10
749.977382
 20
91.954958
 30
0.0
 11
749.977382
 21
91.694958
 31
0.0
  0
LINE
  5
700
330
6F6
100
AcDbEntity
  8
GR1-1
  6
CONTINUOUS
 62
     2
100
AcDbLine
 10
749.977382
 20
91.694958
 30
0.0
 11
749.197382
 21
91.824958
 31
0.0
  0
LINE
  5
701
330
6F6
100
AcDbEntity
  8
GR1-1
  6
CONTINUOUS
 62
     2
100
AcDbLine
 10
749.197382
 20
91.824958
 30
0.0
 11
749.977382
 21
91.954958
 31
0.0
  0
LINE
  5
702
330
6F6
100
AcDbEntity
  8
GR1-1
  6
CONTINUOUS
 62
     2
100
AcDbLine
 10
747.417382
 20
91.954958
 30
0.0
 11
747.417382
 21
91.694958
 31
0.0
  0
LINE
  5
703
330
6F6
100
AcDbEntity
  8
GR1-1
  6
CONTINUOUS
 62
     2
100
AcDbLine
 10
747.417382
 20
91.694958
 30
0.0
 11
748.197382
 21
91.824958
 31
0.0
  0
LINE
  5
704
330
6F6
100
AcDbEntity
  8
GR1-1
  6
CONTINUOUS
 62
     2
100
AcDbLine
 10
748.197382
 20
91.824958
 30
0.0
 11
747.417382
 21
91.954958
 31
0.0
  0
ENDBLK
  5
6F8
330
6F6
100
AcDbEntity
  8
0
100
AcDbBlockEnd
  0
BLOCK
  5
726
330
725
100
AcDbEntity
  8
0
100
AcDbBlockBegin
  2
BLKF112
 70
     0
 71
     0
 10
0.0
 20
0.0
 30
0.0
  3
BLKF112
  1

  0
LINE
  5
729
330
725
100
AcDbEntity
  8
GR1-1
  6
CONTINUOUS
 62
     2
100
AcDbLine
 10
819.187854
 20
118.482804
 30
0.0
 11
820.310085
 21
113.297955
 31
0.0
  0
INSERT
  5
72A
330
725
100
AcDbEntity
  8
GR1-1
  6
CONTINUOUS
 62
     2
100
AcDbBlockReference
  2
FXTIP_ARROW_S
 10
819.187854
 20
118.482804
 30
0.0
 41
2.0
 42
2.0
 50
102.212955
  0
LINE
  5
72B
330
725
100
AcDbEntity
  8
GR1-1
  6
CONTINUOUS
 62
     2
100
AcDbLine
 10
820.310085
 20
113.297955
 30
0.0
 11
822.860085
 21
113.297955
 31
0.0
  0
TEXT
  5
72C
330
725
100
AcDbEntity
  8
GR1-1
  6
CONTINUOUS
 62
     4
100
AcDbText
 10
821.690078
 20
113.897949
 30
0.0
 40
1.5
  1
9C
 41
0.7
  7
FX_VECTOR
 72
     5
 11
823.790078
 21
113.897949
 31
0.0
100
AcDbText
  0
ENDBLK
  5
727
330
725
100
AcDbEntity
  8
0
100
AcDbBlockEnd
  0
BLOCK
  5
734
330
733
100
AcDbEntity
  8
0
100
AcDbBlockBegin
  2
BLKF113
 70
     0
 71
     0
 10
0.0
 20
0.0
 30
0.0
  3
BLKF113
  1

  0
LINE
  5
737
330
733
100
AcDbEntity
  8
GR1-1
  6
CONTINUOUS
 62
     2
100
AcDbLine
 10
808.78246
 20
128.452282
 30
0.0
 11
807.288389
 21
125.391382
 31
0.0
  0
INSERT
  5
738
330
733
100
AcDbEntity
  8
GR1-1
  6
CONTINUOUS
 62
     2
100
AcDbBlockReference
  2
FXTIP_ARROW_S
 10
808.78246
 20
128.452282
 30
0.0
 41
2.0
 42
2.0
 50
63.982318
  0
LINE
  5
739
330
733
100
AcDbEntity
  8
GR1-1
  6
CONTINUOUS
 62
     2
100
AcDbLine
 10
807.288389
 20
125.391382
 30
0.0
 11
803.738389
 21
125.391382
 31
0.0
  0
TEXT
  5
73A
330
733
100
AcDbEntity
  8
GR1-1
  6
CONTINUOUS
 62
     4
100
AcDbText
 10
802.758359
 20
125.991387
 30
0.0
 40
1.5
  1
R30
 41
0.7
  7
FX_VECTOR
 72
     5
 11
805.908359
 21
125.991387
 31
0.0
100
AcDbText
  0
ENDBLK
  5
735
330
733
100
AcDbEntity
  8
0
100
AcDbBlockEnd
  0
BLOCK
  5
758
330
757
100
AcDbEntity
  8
0
100
AcDbBlockBegin
  2
BLKF114
 70
     0
 71
     0
 10
0.0
 20
0.0
 30
0.0
  3
BLKF114
  1

  0
LINE
  5
75B
330
757
100
AcDbEntity
  8
GR1-1
  6
CONTINUOUS
 62
     2
100
AcDbLine
 10
826.343271
 20
132.793639
 30
0.0
 11
828.228961
 21
135.52917
 31
0.0
  0
INSERT
  5
75C
330
757
100
AcDbEntity
  8
GR1-1
  6
CONTINUOUS
 62
     2
100
AcDbBlockReference
  2
FXTIP_ARROW_S
 10
826.343271
 20
132.793639
 30
0.0
 41
2.0
 42
2.0
 50
235.420243
  0
LINE
  5
75D
330
757
100
AcDbEntity
  8
GR1-1
  6
CONTINUOUS
 62
     2
100
AcDbLine
 10
828.228961
 20
135.52917
 30
0.0
 11
830.778961
 21
135.52917
 31
0.0
  0
TEXT
  5
75E
330
757
100
AcDbEntity
  8
GR1-1
  6
CONTINUOUS
 62
     4
100
AcDbText
 10
829.608984
 20
136.12918
 30
0.0
 40
1.5
  1
9C
 41
0.7
  7
FX_VECTOR
 72
     5
 11
831.708984
 21
136.12918
 31
0.0
100
AcDbText
  0
ENDBLK
  5
759
330
757
100
AcDbEntity
  8
0
100
AcDbBlockEnd
  0
BLOCK
  5
761
330
760
100
AcDbEntity
  8
0
100
AcDbBlockBegin
  2
BLKF115
 70
     0
 71
     0
 10
0.0
 20
0.0
 30
0.0
  3
BLKF115
  1

  0
LINE
  5
764
330
760
100
AcDbEntity
  8
GR1-1
  6
CONTINUOUS
 62
     2
100
AcDbLine
 10
743.189126
 20
167.404478
 30
0.0
 11
752.146758
 21
175.025816
 31
0.0
  0
INSERT
  5
765
330
760
100
AcDbEntity
  8
GR1-1
  6
CONTINUOUS
 62
     2
100
AcDbBlockReference
  2
FXTIP_BLACKTRIANGLE_S
 10
743.189126
 20
167.404478
 30
0.0
 41
2.0
 42
2.0
 50
220.391823
  0
LINE
  5
766
330
760
100
AcDbEntity
  8
GR1-1
  6
CONTINUOUS
 62
     2
100
AcDbLine
 10
752.146758
 20
175.025816
 30
0.0
 11
752.926758
 21
175.025816
 31
0.0
  0
TEXT
  5
767
330
760
100
AcDbEntity
  8
GR1-1
  6
CONTINUOUS
 62
     4
100
AcDbText
 10
752.200781
 20
175.705781
 30
0.0
 40
1.5
  1
吊上げ用特殊インサート
 41
0.7
  7
FX_VECTOR
 72
     5
 11
763.750781
 21
175.705781
 31
0.0
100
AcDbText
  0
ENDBLK
  5
762
330
760
100
AcDbEntity
  8
0
100
AcDbBlockEnd
  0
ENDSEC
  0
SECTION
  2
ENTITIES
  0
LINE
  5
A7
330
1F
100
AcDbEntity
  8
GR1-1
  6
極太の実線
 62
     3
100
AcDbLine
 10
915.845963
 20
234.360363
 30
0.0
 11
638.845974
 21
234.360363
 31
0.0
  0
LINE
  5
A8
330
1F
100
AcDbEntity
  8
GR1-1
  6
極太の実線
 62
     3
100
AcDbLine
 10
638.845974
 20
234.360363
 30
0.0
 11
638.845958
 21
44.360363
 31
0.0
  0
LINE
  5
A9
330
1F
100
AcDbEntity
  8
GR1-1
  6
極太の実線
 62
     3
100
AcDbLine
 10
638.845958
 20
44.360363
 30
0.0
 11
915.845958
 21
44.360363
 31
0.0
  0
LINE
  5
AA
330
1F
100
AcDbEntity
  8
GR1-1
  6
極太の実線
 62
     3
100
AcDbLine
 10
915.845958
 20
44.360363
 30
0.0
 11
915.845963
 21
234.360363
 31
0.0
  0
LINE
  5
AB
330
1F
100
AcDbEntity
  8
GR1-1
  6
極太の実線
 62
     3
100
AcDbLine
 10
914.845963
 20
233.360363
 30
0.0
 11
639.845974
 21
233.360363
 31
0.0
  0
LINE
  5
AC
330
1F
100
AcDbEntity
  8
GR1-1
  6
極太の実線
 62
     3
100
AcDbLine
 10
639.845974
 20
233.360363
 30
0.0
 11
639.845958
 21
45.360363
 31
0.0
  0
LINE
  5
AD
330
1F
100
AcDbEntity
  8
GR1-1
  6
極太の実線
 62
     3
100
AcDbLine
 10
639.845958
 20
45.360363
 30
0.0
 11
914.845958
 21
45.360363
 31
0.0
  0
LINE
  5
AE
330
1F
100
AcDbEntity
  8
GR1-1
  6
極太の実線
 62
     3
100
AcDbLine
 10
914.845958
 20
45.360363
 30
0.0
 11
914.845963
 21
233.360363
 31
0.0
  0
LINE
  5
B0
330
1F
100
AcDbEntity
  8
GR1-1
  6
太い実線
 62
     4
100
AcDbLine
 10
836.793212
 20
66.861168
 30
0.0
 11
911.793237
 21
66.861168
 31
0.0
  0
LINE
  5
B1
330
1F
100
AcDbEntity
  8
GR1-1
  6
太い実線
 62
     4
100
AcDbLine
 10
911.793237
 20
60.861168
 30
0.0
 11
836.793212
 21
60.861168
 31
0.0
  0
LINE
  5
B2
330
1F
100
AcDbEntity
  8
GR1-1
  6
太い実線
 62
     4
100
AcDbLine
 10
836.793212
 20
54.861172
 30
0.0
 11
911.793237
 21
54.861172
 31
0.0
  0
LINE
  5
B3
330
1F
100
AcDbEntity
  8
GR1-1
  6
太い実線
 62
     4
100
AcDbLine
 10
836.793212
 20
48.86117
 30
0.0
 11
836.793212
 21
66.861168
 31
0.0
  0
LINE
  5
B4
330
1F
100
AcDbEntity
  8
GR1-1
  6
太い実線
 62
     4
100
AcDbLine
 10
851.793212
 20
66.861168
 30
0.0
 11
851.793212
 21
54.861172
 31
0.0
  0
LINE
  5
B5
330
1F
100
AcDbEntity
  8
GR1-1
  6
太い実線
 62
     4
100
AcDbLine
 10
874.293224
 20
54.861172
 30
0.0
 11
874.293224
 21
60.861168
 31
0.0
  0
TEXT
  5
B7
330
1F
100
AcDbEntity
  8
GR1-1
  6
細い実線
 62
     7
100
AcDbText
 10
841.743281
 20
61.932607
 30
0.0
 40
3.5
  1
図名
 41
0.728571
  7
STYLE1
 72
     5
 11
846.843281
 21
61.932607
 31
0.0
100
AcDbText
  0
TEXT
  5
B8
330
1F
100
AcDbEntity
  8
GR1-1
  6
細い実線
 62
     7
100
AcDbText
 10
841.743281
 20
55.90106
 30
0.0
 40
3.5
  1
尺度
 41
0.728571
  7
STYLE1
 72
     5
 11
846.843281
 21
55.90106
 31
0.0
100
AcDbText
  0
TEXT
  5
B9
330
1F
100
AcDbEntity
  8
GR1-1
  6
細い実線
 62
     7
100
AcDbText
 10
876.443281
 20
55.90106
 30
0.0
 40
3.5
  1
参考重量
 41
0.764286
  7
STYLE1
 72
     5
 11
887.143281
 21
55.90106
 31
0.0
100
AcDbText
  0
TEXT
  5
BA
330
1F
100
AcDbEntity
  8
GR1-1
  6
細い実線
 62
     7
100
AcDbText
 10
854.943281
 20
49.869507
 30
0.0
 40
3.5
  1
小倉セメント製品工業株式会社
 41
0.789796
  7
STYLE1
 72
     5
 11
893.643281
 21
49.869507
 31
0.0
100
AcDbText
  0
LINE
  5
BB
330
1F
100
AcDbEntity
  8
GR1-1
  6
太い実線
 62
     4
100
AcDbLine
 10
889.293273
 20
60.861168
 30
0.0
 11
889.293273
 21
54.861172
 31
0.0
  0
TEXT
  5
BC
330
1F
100
AcDbEntity
  8
GR1-1
  6
細い実線
 62
     7
100
AcDbText
 10
858.443281
 20
56.064072
 30
0.0
 40
3.5
  1
1/50
 41
0.657143
  7
STYLE1
 72
     5
 11
867.643281
 21
56.064072
 31
0.0
100
AcDbText
  0
TEXT
  5
BD
330
1F
100
AcDbEntity
  8
GR1-1
  6
細い実線
 62
     7
100
AcDbText
 10
892.451875
 20
55.90106
 30
0.0
 40
3.5
  1
575　ｋｇ
 41
0.657143
  7
STYLE1
 72
     5
 11
906.251875
 21
55.90106
 31
0.0
100
AcDbText
  0
TEXT
  5
BE
330
1F
100
AcDbEntity
  8
GR1-1
  6
細い実線
 62
     7
100
AcDbText
 10
860.225312
 20
61.858872
 30
0.0
 40
3.5
  1
KP大型ブロック　1750B　（高擁壁用）
 41
0.657143
  7
STYLE1
 72
     5
 11
908.525312
 21
61.858872
 31
0.0
100
AcDbText
  0
LINE
  5
BF
330
1F
100
AcDbEntity
  8
GR1-1
  6
太い実線
 62
     4
100
AcDbLine
 10
911.793237
 20
66.861168
 30
0.0
 11
911.793237
 21
48.86117
 31
0.0
  0
LINE
  5
C0
330
1F
100
AcDbEntity
  8
GR1-1
  6
太い実線
 62
     4
100
AcDbLine
 10
836.793212
 20
48.86117
 30
0.0
 11
911.793237
 21
48.86117
 31
0.0
  0
LINE
  5
C1
330
1F
100
AcDbEntity
  8
GR1-1
  6
細い実線
 62
     4
100
AcDbLine
 10
687.809131
 20
212.320298
 30
0.0
 11
686.05119
 21
212.320298
 31
0.0
  0
LINE
  5
C2
330
1F
100
AcDbEntity
  8
GR1-1
  6
細い実線
 62
     4
100
AcDbLine
 10
683.05119
 20
212.320298
 30
0.0
 11
680.899414
 21
212.320298
 31
0.0
  0
LINE
  5
C3
330
1F
100
AcDbEntity
  8
GR1-1
  6
細い実線
 62
     4
100
AcDbLine
 10
685.75119
 20
213.040298
 30
0.0
 11
686.05119
 21
212.320298
 31
0.0
  0
LINE
  5
C4
330
1F
100
AcDbEntity
  8
GR1-1
  6
細い実線
 62
     4
100
AcDbLine
 10
683.05119
 20
212.320298
 30
0.0
 11
683.35119
 21
213.040298
 31
0.0
  0
LINE
  5
C5
330
1F
100
AcDbEntity
  8
GR1-1
  6
細い実線
 62
     4
100
AcDbLine
 10
683.35119
 20
213.040298
 30
0.0
 11
685.75119
 21
213.040298
 31
0.0
  0
TEXT
  5
C6
330
1F
100
AcDbEntity
  8
GR1-1
  6
細い実線
 62
     4
100
AcDbText
 10
681.133281
 20
218.365313
 30
0.0
 40
2.0
  1
 バール挿入孔詳細 
 41
0.812
  7
FX_VECTOR
 72
     5
 11
697.373281
 21
218.365313
 31
0.0
100
AcDbText
  0
LINE
  5
C7
330
1F
100
AcDbEntity
  8
GR1-1
  6
細い実線
 62
     4
100
AcDbLine
 10
681.133298
 20
218.16532
 30
0.0
 11
697.373298
 21
218.16532
 31
0.0
  0
LINE
  5
C8
330
1F
100
AcDbEntity
  8
GR1-1
  6
細い実線
 62
     4
100
AcDbLine
 10
693.501493
 20
213.040298
 30
0.0
 11
695.901493
 21
213.040298
 31
0.0
  0
LINE
  5
C9
330
1F
100
AcDbEntity
  8
GR1-1
  6
細い実線
 62
     4
100
AcDbLine
 10
693.201493
 20
212.320298
 30
0.0
 11
693.501493
 21
213.040298
 31
0.0
  0
LINE
  5
CA
330
1F
100
AcDbEntity
  8
GR1-1
  6
細い実線
 62
     4
100
AcDbLine
 10
695.901493
 20
213.040298
 30
0.0
 11
695.901493
 21
215.563275
 31
0.0
  0
LINE
  5
CB
330
1F
100
AcDbEntity
  8
GR1-1
  6
細い実線
 62
     4
100
AcDbLine
 10
693.201493
 20
212.320298
 30
0.0
 11
691.443552
 21
212.320298
 31
0.0
  0
LINE
  5
CD
330
1F
100
AcDbEntity
  8
GR1-1
  6
020-1-CENTER2
 62
     2
100
AcDbLine
 10
697.967263
 20
186.775751
 30
0.0
 11
697.967263
 21
175.813266
 31
0.0
  0
LINE
  5
CE
330
1F
100
AcDbEntity
  8
GR1-1
  6
細い実線
 62
     4
100
AcDbLine
 10
698.342263
 20
185.818822
 30
0.0
 11
698.867263
 21
182.818822
 31
0.0
  0
LINE
  5
CF
330
1F
100
AcDbEntity
  8
GR1-1
  6
細い実線
 62
     4
100
AcDbLine
 10
697.067263
 20
182.818822
 30
0.0
 11
697.592263
 21
185.818822
 31
0.0
  0
LINE
  5
D0
330
1F
100
AcDbEntity
  8
GR1-1
  6
細い実線
 62
     4
100
AcDbLine
 10
697.592263
 20
185.818822
 30
0.0
 11
698.342263
 21
185.818822
 31
0.0
  0
LINE
  5
D1
330
1F
100
AcDbEntity
  8
GR1-1
  6
細い実線
 62
     4
100
AcDbLine
 10
698.867263
 20
182.818822
 30
0.0
 11
699.756589
 21
182.818822
 31
0.0
  0
LINE
  5
D2
330
1F
100
AcDbEntity
  8
GR1-1
  6
細い実線
 62
     4
100
AcDbLine
 10
697.067263
 20
182.818822
 30
0.0
 11
696.177937
 21
182.818822
 31
0.0
  0
LINE
  5
D3
330
1F
100
AcDbEntity
  8
GR1-1
  6
020-1-CENTER2
 62
     2
100
AcDbLine
 10
680.763387
 20
177.94933
 30
0.0
 11
680.763387
 21
186.574601
 31
0.0
  0
LINE
  5
D4
330
1F
100
AcDbEntity
  8
GR1-1
  6
細い実線
 62
     4
100
AcDbLine
 10
681.663387
 20
182.603677
 30
0.0
 11
681.138387
 21
179.603677
 31
0.0
  0
LINE
  5
D5
330
1F
100
AcDbEntity
  8
GR1-1
  6
細い実線
 62
     4
100
AcDbLine
 10
680.388387
 20
179.603677
 30
0.0
 11
679.863387
 21
182.603677
 31
0.0
  0
LINE
  5
D6
330
1F
100
AcDbEntity
  8
GR1-1
  6
細い実線
 62
     4
100
AcDbLine
 10
681.138387
 20
179.603677
 30
0.0
 11
680.388387
 21
179.603677
 31
0.0
  0
LINE
  5
D7
330
1F
100
AcDbEntity
  8
GR1-1
  6
細い実線
 62
     4
100
AcDbLine
 10
679.863387
 20
182.603677
 30
0.0
 11
678.974061
 21
182.603677
 31
0.0
  0
LINE
  5
D8
330
1F
100
AcDbEntity
  8
GR1-1
  6
細い実線
 62
     4
100
AcDbLine
 10
681.663387
 20
182.603677
 30
0.0
 11
682.552713
 21
182.603677
 31
0.0
  0
LINE
  5
D9
330
1F
100
AcDbEntity
  8
GR1-1
  6
020-1-CENTER2
 62
     2
100
AcDbLine
 10
679.613078
 20
185.424292
 30
0.0
 11
681.913696
 21
185.424292
 31
0.0
  0
CIRCLE
  5
DA
330
1F
100
AcDbEntity
  8
GR1-1
  6
細い実線
 62
     4
100
AcDbCircle
 10
680.763387
 20
185.424292
 30
0.0
 40
0.9
  0
CIRCLE
  5
DB
330
1F
100
AcDbEntity
  8
GR1-1
  6
細い実線
 62
     4
100
AcDbCircle
 10
680.763387
 20
185.424292
 30
0.0
 40
0.375
  0
INSERT
  5
DF
330
1F
100
AcDbEntity
  8
0
100
AcDbBlockReference
  2
BLKF021
 10
0.0
 20
0.0
 30
0.0
  0
INSERT
  5
EE
330
1F
100
AcDbEntity
  8
0
100
AcDbBlockReference
  2
BLKF022
 10
0.0
 20
0.0
 30
0.0
  0
TEXT
  5
FA
330
1F
100
AcDbEntity
  8
GR1-1
  6
細い実線
 62
     4
100
AcDbText
 10
681.300547
 20
197.866719
 30
0.0
 40
2.0
  1
 ガイドピン孔詳細 
 41
0.812
  7
FX_VECTOR
 72
     5
 11
697.540546
 21
197.866719
 31
0.0
100
AcDbText
  0
LINE
  5
FB
330
1F
100
AcDbEntity
  8
GR1-1
  6
細い実線
 62
     4
100
AcDbLine
 10
681.300599
 20
197.666711
 30
0.0
 11
697.540599
 21
197.666711
 31
0.0
  0
TEXT
  5
FC
330
1F
100
AcDbEntity
  8
GR1-1
  6
細い実線
 62
     4
100
AcDbText
 10
679.612188
 20
193.656523
 30
0.0
 40
1.4
  1
上部
 41
0.84
  7
FX_VECTOR
 72
     5
 11
681.964187
 21
193.656523
 31
0.0
100
AcDbText
  0
LINE
  5
FD
330
1F
100
AcDbEntity
  8
GR1-1
  6
細い実線
 62
     4
100
AcDbLine
 10
679.612239
 20
193.516531
 30
0.0
 11
681.964239
 21
193.516531
 31
0.0
  0
INSERT
  5
101
330
1F
100
AcDbEntity
  8
0
100
AcDbBlockReference
  2
BLKF023
 10
0.0
 20
0.0
 30
0.0
  0
INSERT
  5
110
330
1F
100
AcDbEntity
  8
0
100
AcDbBlockReference
  2
BLKF024
 10
0.0
 20
0.0
 30
0.0
  0
INSERT
  5
118
330
1F
100
AcDbEntity
  8
0
100
AcDbBlockReference
  2
BLKF025
 10
0.0
 20
0.0
 30
0.0
  0
LINE
  5
11D
330
1F
100
AcDbEntity
  8
GR1-1
  6
細い実線
 62
     4
100
AcDbLine
 10
697.067263
 20
181.261561
 30
0.0
 11
697.592263
 21
180.661561
 31
0.0
  0
LINE
  5
11E
330
1F
100
AcDbEntity
  8
GR1-1
  6
細い実線
 62
     4
100
AcDbLine
 10
698.342263
 20
180.661561
 30
0.0
 11
698.867263
 21
181.261561
 31
0.0
  0
LINE
  5
11F
330
1F
100
AcDbEntity
  8
GR1-1
  6
細い実線
 62
     4
100
AcDbLine
 10
698.342263
 20
178.561561
 30
0.0
 11
698.867263
 21
177.961561
 31
0.0
  0
LINE
  5
120
330
1F
100
AcDbEntity
  8
GR1-1
  6
細い実線
 62
     4
100
AcDbLine
 10
697.592263
 20
178.561561
 30
0.0
 11
697.067263
 21
177.961561
 31
0.0
  0
INSERT
  5
124
330
1F
100
AcDbEntity
  8
0
100
AcDbBlockReference
  2
BLKF026
 10
0.0
 20
0.0
 30
0.0
  0
INSERT
  5
133
330
1F
100
AcDbEntity
  8
0
100
AcDbBlockReference
  2
BLKF027
 10
0.0
 20
0.0
 30
0.0
  0
INSERT
  5
142
330
1F
100
AcDbEntity
  8
0
100
AcDbBlockReference
  2
BLKF028
 10
0.0
 20
0.0
 30
0.0
  0
INSERT
  5
151
330
1F
100
AcDbEntity
  8
0
100
AcDbBlockReference
  2
BLKF029
 10
0.0
 20
0.0
 30
0.0
  0
INSERT
  5
160
330
1F
100
AcDbEntity
  8
0
100
AcDbBlockReference
  2
BLKF030
 10
0.0
 20
0.0
 30
0.0
  0
INSERT
  5
16F
330
1F
100
AcDbEntity
  8
0
100
AcDbBlockReference
  2
BLKF031
 10
0.0
 20
0.0
 30
0.0
  0
INSERT
  5
17E
330
1F
100
AcDbEntity
  8
0
100
AcDbBlockReference
  2
BLKF032
 10
0.0
 20
0.0
 30
0.0
  0
INSERT
  5
18D
330
1F
100
AcDbEntity
  8
0
100
AcDbBlockReference
  2
BLKF033
 10
0.0
 20
0.0
 30
0.0
  0
INSERT
  5
19B
330
1F
100
AcDbEntity
  8
0
100
AcDbBlockReference
  2
BLKF034
 10
0.0
 20
0.0
 30
0.0
  0
TEXT
  5
1A6
330
1F
100
AcDbEntity
  8
GR1-1
  6
細い実線
 62
     4
100
AcDbText
 10
696.797734
 20
193.597578
 30
0.0
 40
1.4
  1
下部
 41
0.84
  7
FX_VECTOR
 72
     5
 11
699.149734
 21
193.597578
 31
0.0
100
AcDbText
  0
LINE
  5
1A7
330
1F
100
AcDbEntity
  8
GR1-1
  6
細い実線
 62
     4
100
AcDbLine
 10
696.797727
 20
193.457578
 30
0.0
 11
699.149727
 21
193.457578
 31
0.0
  0
INSERT
  5
1AB
330
1F
100
AcDbEntity
  8
0
100
AcDbBlockReference
  2
BLKF035
 10
0.0
 20
0.0
 30
0.0
  0
INSERT
  5
1B9
330
1F
100
AcDbEntity
  8
0
100
AcDbBlockReference
  2
BLKF036
 10
0.0
 20
0.0
 30
0.0
  0
INSERT
  5
1C8
330
1F
100
AcDbEntity
  8
0
100
AcDbBlockReference
  2
BLKF037
 10
0.0
 20
0.0
 30
0.0
  0
INSERT
  5
1D7
330
1F
100
AcDbEntity
  8
0
100
AcDbBlockReference
  2
BLKF038
 10
0.0
 20
0.0
 30
0.0
  0
INSERT
  5
1E6
330
1F
100
AcDbEntity
  8
0
100
AcDbBlockReference
  2
BLKF039
 10
0.0
 20
0.0
 30
0.0
  0
INSERT
  5
1F5
330
1F
100
AcDbEntity
  8
0
100
AcDbBlockReference
  2
BLKF040
 10
0.0
 20
0.0
 30
0.0
  0
INSERT
  5
204
330
1F
100
AcDbEntity
  8
0
100
AcDbBlockReference
  2
BLKF041
 10
0.0
 20
0.0
 30
0.0
  0
INSERT
  5
213
330
1F
100
AcDbEntity
  8
0
100
AcDbBlockReference
  2
BLKF042
 10
0.0
 20
0.0
 30
0.0
  0
INSERT
  5
221
330
1F
100
AcDbEntity
  8
0
100
AcDbBlockReference
  2
BLKF043
 10
0.0
 20
0.0
 30
0.0
  0
TEXT
  5
22D
330
1F
100
AcDbEntity
  8
GR1-1
  6
細い実線
 62
     4
100
AcDbText
 10
697.57875
 20
218.732715
 30
0.0
 40
1.4
  1
(S=1/10)
 41
0.566125
  7
FX_VECTOR
 72
     5
 11
703.91935
 21
218.732715
 31
0.0
100
AcDbText
  0
TEXT
  5
22E
330
1F
100
AcDbEntity
  8
GR1-1
  6
細い実線
 62
     4
100
AcDbText
 10
697.769297
 20
198.234102
 30
0.0
 40
1.4
  1
(S=1/10)
 41
0.566125
  7
FX_VECTOR
 72
     5
 11
704.109897
 21
198.234102
 31
0.0
100
AcDbText
  0
INSERT
  5
232
330
1F
100
AcDbEntity
  8
0
100
AcDbBlockReference
  2
BLKF044
 10
0.0
 20
0.0
 30
0.0
  0
INSERT
  5
241
330
1F
100
AcDbEntity
  8
0
100
AcDbBlockReference
  2
BLKF045
 10
0.0
 20
0.0
 30
0.0
  0
INSERT
  5
250
330
1F
100
AcDbEntity
  8
0
100
AcDbBlockReference
  2
BLKF046
 10
0.0
 20
0.0
 30
0.0
  0
INSERT
  5
25F
330
1F
100
AcDbEntity
  8
0
100
AcDbBlockReference
  2
BLKF047
 10
0.0
 20
0.0
 30
0.0
  0
TEXT
  5
26B
330
1F
100
AcDbEntity
  8
GR1-1
  6
CONTINUOUS
 62
     4
100
AcDbText
 10
715.825391
 20
126.847715
 30
0.0
 40
1.5
  1
1:0.5
 50
297.0
 41
0.7
  7
FX_VECTOR
 72
     5
 11
718.208841
 21
122.169931
 31
0.0
100
AcDbText
  0
INSERT
  5
26F
330
1F
100
AcDbEntity
  8
0
100
AcDbBlockReference
  2
BLKF048
 10
0.0
 20
0.0
 30
0.0
  0
INSERT
  5
27E
330
1F
100
AcDbEntity
  8
0
100
AcDbBlockReference
  2
BLKF049
 10
0.0
 20
0.0
 30
0.0
  0
TEXT
  5
289
330
1F
100
AcDbEntity
  8
GR1-1
  6
CONTINUOUS
 62
     4
100
AcDbText
 10
786.714375
 20
115.21416
 30
0.0
 40
1.2
  1
　水抜ハ゜イフ゜用　
 41
0.666667
  7
FX_VECTOR
 72
     5
 11
794.714375
 21
115.21416
 31
0.0
100
AcDbText
  0
TEXT
  5
28A
330
1F
100
AcDbEntity
  8
GR1-1
  6
CONTINUOUS
 62
     4
100
AcDbText
 10
789.700859
 20
113.43127
 30
0.0
 40
1.2
  1
ノックアウト孔
 41
0.857143
  7
FX_VECTOR
 72
     5
 11
796.900859
 21
113.43127
 31
0.0
100
AcDbText
  0
INSERT
  5
28E
330
1F
100
AcDbEntity
  8
0
100
AcDbBlockReference
  2
BLKF050
 10
0.0
 20
0.0
 30
0.0
  0
INSERT
  5
29C
330
1F
100
AcDbEntity
  8
0
100
AcDbBlockReference
  2
BLKF051
 10
0.0
 20
0.0
 30
0.0
  0
LINE
  5
2A7
330
1F
100
AcDbEntity
  8
GR1-1
  6
CONTINUOUS
 62
     2
100
AcDbLine
 10
780.90787
 20
123.432929
 30
0.0
 11
780.210217
 21
123.781756
 31
0.0
  0
TEXT
  5
2A8
330
1F
100
AcDbEntity
  8
GR1-1
  6
CONTINUOUS
 62
     4
100
AcDbText
 10
779.349609
 20
124.916621
 30
0.0
 40
1.5
  1
15
 50
333.434937
 41
0.7
  7
FX_VECTOR
 72
     5
 11
781.227906
 21
123.977472
 31
0.0
100
AcDbText
  0
LINE
  5
2A9
330
1F
100
AcDbEntity
  8
GR1-1
  6
CONTINUOUS
 62
     2
100
AcDbLine
 10
782.821083
 20
122.632384
 30
0.0
 11
782.704808
 21
122.399833
 31
0.0
  0
LINE
  5
2AA
330
1F
100
AcDbEntity
  8
GR1-1
  6
CONTINUOUS
 62
     2
100
AcDbLine
 10
782.704808
 20
122.399833
 30
0.0
 11
782.065292
 21
122.864936
 31
0.0
  0
LINE
  5
2AB
330
1F
100
AcDbEntity
  8
GR1-1
  6
CONTINUOUS
 62
     2
100
AcDbLine
 10
782.065292
 20
122.864936
 30
0.0
 11
782.821083
 21
122.632384
 31
0.0
  0
LINE
  5
2AC
330
1F
100
AcDbEntity
  8
GR1-1
  6
CONTINUOUS
 62
     2
100
AcDbLine
 10
780.966008
 20
123.549205
 30
0.0
 11
780.849732
 21
123.316654
 31
0.0
  0
LINE
  5
2AD
330
1F
100
AcDbEntity
  8
GR1-1
  6
CONTINUOUS
 62
     2
100
AcDbLine
 10
780.849732
 20
123.316654
 30
0.0
 11
781.605523
 21
123.084103
 31
0.0
  0
LINE
  5
2AE
330
1F
100
AcDbEntity
  8
GR1-1
  6
CONTINUOUS
 62
     2
100
AcDbLine
 10
781.605523
 20
123.084103
 30
0.0
 11
780.966008
 21
123.549205
 31
0.0
  0
LINE
  5
2AF
330
1F
100
AcDbEntity
  8
GR1-1
  6
CONTINUOUS
 62
     2
100
AcDbLine
 10
782.640596
 20
121.574545
 30
0.0
 11
788.030048
 21
112.863698
 31
0.0
  0
INSERT
  5
2B0
330
1F
100
AcDbEntity
  8
GR1-1
  6
CONTINUOUS
 62
     2
100
AcDbBlockReference
  2
FXTIP_BLACKTRIANGLE_S
 10
782.640596
 20
121.574545
 30
0.0
 41
2.0
 42
2.0
 50
121.745325
  0
LINE
  5
2B1
330
1F
100
AcDbEntity
  8
GR1-1
  6
CONTINUOUS
 62
     2
100
AcDbLine
 10
788.030048
 20
112.863698
 30
0.0
 11
797.607485
 21
112.863698
 31
0.0
  0
TEXT
  5
2B2
330
1F
100
AcDbEntity
  8
GR1-1
  6
CONTINUOUS
 62
     4
100
AcDbText
 10
729.336094
 20
139.183789
 30
0.0
 40
2.0
  1
 正面図 
 41
0.784
  7
FX_VECTOR
 72
     5
 11
737.176094
 21
139.183789
 31
0.0
100
AcDbText
  0
LINE
  5
2B3
330
1F
100
AcDbEntity
  8
GR1-1
  6
CONTINUOUS
 62
     4
100
AcDbLine
 10
729.336054
 20
138.98378
 30
0.0
 11
737.176054
 21
138.98378
 31
0.0
  0
TEXT
  5
2B4
330
1F
100
AcDbEntity
  8
GR1-1
  6
CONTINUOUS
 62
     4
100
AcDbText
 10
779.326953
 20
139.183789
 30
0.0
 40
2.0
  1
 側面図 
 41
0.784
  7
FX_VECTOR
 72
     5
 11
787.166953
 21
139.183789
 31
0.0
100
AcDbText
  0
LINE
  5
2B5
330
1F
100
AcDbEntity
  8
GR1-1
  6
CONTINUOUS
 62
     4
100
AcDbLine
 10
779.326952
 20
138.98378
 30
0.0
 11
787.166952
 21
138.98378
 31
0.0
  0
LINE
  5
2B6
330
1F
100
AcDbEntity
  8
GR1-1
  6
CONTINUOUS
 62
     2
100
AcDbLine
 10
820.428579
 20
122.720505
 30
0.0
 11
797.607485
 21
112.863698
 31
0.0
  0
INSERT
  5
2B7
330
1F
100
AcDbEntity
  8
GR1-1
  6
CONTINUOUS
 62
     2
100
AcDbBlockReference
  2
FXTIP_ARROW_S
 10
820.428579
 20
122.720505
 30
0.0
 41
2.0
 42
2.0
 50
23.360312
  0
LINE
  5
2B8
330
1F
100
AcDbEntity
  8
GR1-1
  6
CONTINUOUS
 62
     2
100
AcDbLine
 10
787.934988
 20
107.801638
 30
0.0
 11
789.419059
 21
110.76978
 31
0.0
  0
LINE
  5
2B9
330
1F
100
AcDbEntity
  8
GR1-1
  6
CONTINUOUS
 62
     2
100
AcDbLine
 10
785.514081
 20
107.811308
 30
0.0
 11
788.520153
 21
107.811308
 31
0.0
  0
INSERT
  5
2BA
330
1F
100
AcDbEntity
  8
GR1-1
  6
CONTINUOUS
 62
     2
100
AcDbBlockReference
  2
FXTIP_ARROW_S
 10
785.514081
 20
107.811308
 30
0.0
 41
2.0
 42
2.0
 50
180.0
  0
TEXT
  5
2BB
330
1F
100
AcDbEntity
  8
GR1-1
  6
CONTINUOUS
 62
     4
100
AcDbText
 10
786.83875
 20
108.70877
 30
0.0
 40
2.0
  1
C
 41
0.7
  7
FX_VECTOR
 72
     5
 11
788.23875
 21
108.70877
 31
0.0
100
AcDbText
  0
TEXT
  5
2BC
330
1F
100
AcDbEntity
  8
GR1-1
  6
CONTINUOUS
 62
     4
100
AcDbText
 10
804.097813
 20
144.693066
 30
0.0
 40
2.0
  1
C
 41
0.7
  7
FX_VECTOR
 72
     5
 11
805.497813
 21
144.693066
 31
0.0
100
AcDbText
  0
TEXT
  5
2BD
330
1F
100
AcDbEntity
  8
GR1-1
  6
CONTINUOUS
 62
     4
100
AcDbText
 10
807.789063
 20
144.693066
 30
0.0
 40
2.0
  1
D
 41
0.7
  7
FX_VECTOR
 72
     5
 11
809.189062
 21
144.693066
 31
0.0
100
AcDbText
  0
TEXT
  5
2BE
330
1F
100
AcDbEntity
  8
GR1-1
  6
CONTINUOUS
 62
     4
100
AcDbText
 10
790.018359
 20
108.653418
 30
0.0
 40
2.0
  1
D
 41
0.7
  7
FX_VECTOR
 72
     5
 11
791.418359
 21
108.653418
 31
0.0
100
AcDbText
  0
LINE
  5
2BF
330
1F
100
AcDbEntity
  8
GR1-1
  6
CONTINUOUS
 62
     2
100
AcDbLine
 10
791.526225
 20
107.811308
 30
0.0
 11
788.520153
 21
107.811308
 31
0.0
  0
INSERT
  5
2C0
330
1F
100
AcDbEntity
  8
GR1-1
  6
CONTINUOUS
 62
     2
100
AcDbBlockReference
  2
FXTIP_ARROW_S
 10
791.526225
 20
107.811308
 30
0.0
 41
2.0
 42
2.0
  0
LINE
  5
2C1
330
1F
100
AcDbEntity
  8
GR1-1
  6
CONTINUOUS
 62
     2
100
AcDbLine
 10
805.783841
 20
144.83478
 30
0.0
 11
806.998081
 21
147.26326
 31
0.0
  0
TEXT
  5
2C2
330
1F
100
AcDbEntity
  8
GR1-1
  6
CONTINUOUS
 62
     4
100
AcDbText
 10
667.543594
 20
141.837598
 30
0.0
 40
2.0
  1
 A-A 断面図 
 41
0.746667
  7
FX_VECTOR
 72
     5
 11
680.983593
 21
141.837598
 31
0.0
100
AcDbText
  0
LINE
  5
2C3
330
1F
100
AcDbEntity
  8
GR1-1
  6
CONTINUOUS
 62
     4
100
AcDbLine
 10
667.54362
 20
141.637602
 30
0.0
 11
680.98362
 21
141.637602
 31
0.0
  0
LINE
  5
2C4
330
1F
100
AcDbEntity
  8
GR1-1
  6
CONTINUOUS
 62
     4
100
AcDbLine
 10
718.37414
 20
118.482804
 30
0.0
 11
711.218722
 21
132.793639
 31
0.0
  0
LINE
  5
2C5
330
1F
100
AcDbEntity
  8
GR1-1
  6
CONTINUOUS
 62
     4
100
AcDbLine
 10
679.12295
 20
118.722804
 30
0.0
 11
672.087533
 21
132.793639
 31
0.0
  0
LINE
  5
2C6
330
1F
100
AcDbEntity
  8
GR1-1
  6
CONTINUOUS
 62
     8
100
AcDbLine
 10
717.117384
 20
122.635721
 30
0.0
 11
716.574272
 21
123.573935
 31
0.0
  0
LINE
  5
2C7
330
1F
100
AcDbEntity
  8
GR1-1
  6
CONTINUOUS
 62
     4
100
AcDbLine
 10
718.37414
 20
118.482804
 30
0.0
 11
713.47414
 21
118.482804
 31
0.0
  0
LINE
  5
2C8
330
1F
100
AcDbEntity
  8
GR1-1
  6
CONTINUOUS
 62
     8
100
AcDbLine
 10
718.224267
 20
118.760449
 30
0.0
 11
718.611558
 21
119.278379
 31
0.0
  0
LINE
  5
2C9
330
1F
100
AcDbEntity
  8
GR1-1
  6
CONTINUOUS
 62
     8
100
AcDbLine
 10
718.152935
 20
120.543035
 30
0.0
 11
717.892891
 21
120.94595
 31
0.0
  0
LINE
  5
2CA
330
1F
100
AcDbEntity
  8
GR1-1
  6
CONTINUOUS
 62
     8
100
AcDbLine
 10
717.892891
 20
120.94595
 30
0.0
 11
717.117384
 21
122.635721
 31
0.0
  0
LINE
  5
2CB
330
1F
100
AcDbEntity
  8
GR1-1
  6
CONTINUOUS
 62
     8
100
AcDbLine
 10
718.596037
 20
119.633704
 30
0.0
 11
718.268464
 21
120.158828
 31
0.0
  0
LINE
  5
2CC
330
1F
100
AcDbEntity
  8
GR1-1
  6
CONTINUOUS
 62
     8
100
AcDbLine
 10
718.611558
 20
119.278379
 30
0.0
 11
718.596037
 21
119.633704
 31
0.0
  0
LINE
  5
2CD
330
1F
100
AcDbEntity
  8
GR1-1
  6
CONTINUOUS
 62
     8
100
AcDbLine
 10
718.268464
 20
120.158828
 30
0.0
 11
718.152935
 21
120.543035
 31
0.0
  0
LINE
  5
2CE
330
1F
100
AcDbEntity
  8
GR1-1
  6
CONTINUOUS
 62
     4
100
AcDbLine
 10
711.218722
 20
132.793639
 30
0.0
 11
672.087533
 21
132.793639
 31
0.0
  0
LINE
  5
2CF
330
1F
100
AcDbEntity
  8
GR1-1
  6
CONTINUOUS
 62
     8
100
AcDbLine
 10
713.493124
 20
129.740349
 30
0.0
 11
713.201491
 21
130.393034
 31
0.0
  0
LINE
  5
2D0
330
1F
100
AcDbEntity
  8
GR1-1
  6
CONTINUOUS
 62
     8
100
AcDbLine
 10
715.865061
 20
124.945591
 30
0.0
 11
715.131901
 21
126.430412
 31
0.0
  0
LINE
  5
2D1
330
1F
100
AcDbEntity
  8
GR1-1
  6
CONTINUOUS
 62
     8
100
AcDbLine
 10
713.294534
 20
128.635256
 30
0.0
 11
713.74211
 21
128.914846
 31
0.0
  0
LINE
  5
2D2
330
1F
100
AcDbEntity
  8
GR1-1
  6
CONTINUOUS
 62
     8
100
AcDbLine
 10
713.857551
 20
128.867673
 30
0.0
 11
713.569753
 21
128.68312
 31
0.0
  0
LINE
  5
2D3
330
1F
100
AcDbEntity
  8
GR1-1
  6
CONTINUOUS
 62
     8
100
AcDbLine
 10
714.343019
 20
128.114197
 30
0.0
 11
714.029218
 21
128.695776
 31
0.0
  0
LINE
  5
2D4
330
1F
100
AcDbEntity
  8
GR1-1
  6
CONTINUOUS
 62
     8
100
AcDbLine
 10
714.029218
 20
128.695776
 30
0.0
 11
713.857551
 21
128.867673
 31
0.0
  0
LINE
  5
2D5
330
1F
100
AcDbEntity
  8
GR1-1
  6
CONTINUOUS
 62
     8
100
AcDbLine
 10
713.569753
 20
128.68312
 30
0.0
 11
713.328055
 21
128.641085
 31
0.0
  0
LINE
  5
2D6
330
1F
100
AcDbEntity
  8
GR1-1
  6
CONTINUOUS
 62
     8
100
AcDbLine
 10
713.812449
 20
129.127013
 30
0.0
 11
713.493124
 21
129.740349
 31
0.0
  0
LINE
  5
2D7
330
1F
100
AcDbEntity
  8
GR1-1
  6
CONTINUOUS
 62
     8
100
AcDbLine
 10
713.74211
 20
128.914846
 30
0.0
 11
713.812449
 21
129.127013
 31
0.0
  0
LINE
  5
2D8
330
1F
100
AcDbEntity
  8
GR1-1
  6
CONTINUOUS
 62
     8
100
AcDbLine
 10
715.131901
 20
126.430412
 30
0.0
 11
714.822888
 21
127.194347
 31
0.0
  0
LINE
  5
2D9
330
1F
100
AcDbEntity
  8
GR1-1
  6
CONTINUOUS
 62
     8
100
AcDbLine
 10
714.822888
 20
127.194347
 30
0.0
 11
714.611948
 21
127.592064
 31
0.0
  0
LINE
  5
2DA
330
1F
100
AcDbEntity
  8
GR1-1
  6
CONTINUOUS
 62
     8
100
AcDbLine
 10
714.611948
 20
127.592064
 30
0.0
 11
714.343019
 21
128.114197
 31
0.0
  0
LINE
  5
2DB
330
1F
100
AcDbEntity
  8
GR1-1
  6
CONTINUOUS
 62
     8
100
AcDbLine
 10
716.423384
 20
123.919908
 30
0.0
 11
715.978945
 21
124.290753
 31
0.0
  0
LINE
  5
2DC
330
1F
100
AcDbEntity
  8
GR1-1
  6
CONTINUOUS
 62
     8
100
AcDbLine
 10
716.574272
 20
123.573935
 30
0.0
 11
716.731018
 21
123.257361
 31
0.0
  0
LINE
  5
2DD
330
1F
100
AcDbEntity
  8
GR1-1
  6
CONTINUOUS
 62
     8
100
AcDbLine
 10
716.731018
 20
123.257361
 30
0.0
 11
716.423384
 21
123.919908
 31
0.0
  0
LINE
  5
2DE
330
1F
100
AcDbEntity
  8
GR1-1
  6
CONTINUOUS
 62
     8
100
AcDbLine
 10
716.033318
 20
124.524279
 30
0.0
 11
715.865061
 21
124.945591
 31
0.0
  0
LINE
  5
2DF
330
1F
100
AcDbEntity
  8
GR1-1
  6
CONTINUOUS
 62
     8
100
AcDbLine
 10
716.048119
 20
124.439174
 30
0.0
 11
716.033318
 21
124.524279
 31
0.0
  0
LINE
  5
2E0
330
1F
100
AcDbEntity
  8
GR1-1
  6
CONTINUOUS
 62
     8
100
AcDbLine
 10
715.617556
 20
124.184063
 30
0.0
 11
716.048119
 21
124.439174
 31
0.0
  0
LINE
  5
2E1
330
1F
100
AcDbEntity
  8
GR1-1
  6
CONTINUOUS
 62
     8
100
AcDbLine
 10
715.978945
 20
124.290753
 30
0.0
 11
715.617556
 21
124.184063
 31
0.0
  0
LINE
  5
2E2
330
1F
100
AcDbEntity
  8
GR1-1
  6
CONTINUOUS
 62
     8
100
AcDbLine
 10
713.201491
 20
130.393034
 30
0.0
 11
712.915687
 21
131.0122
 31
0.0
  0
LINE
  5
2E3
330
1F
100
AcDbEntity
  8
GR1-1
  6
CONTINUOUS
 62
     8
100
AcDbLine
 10
712.431753
 20
131.965877
 30
0.0
 11
712.110358
 21
132.58067
 31
0.0
  0
LINE
  5
2E4
330
1F
100
AcDbEntity
  8
GR1-1
  6
CONTINUOUS
 62
     8
100
AcDbLine
 10
712.630113
 20
131.431471
 30
0.0
 11
712.431753
 21
131.965877
 31
0.0
  0
LINE
  5
2E5
330
1F
100
AcDbEntity
  8
GR1-1
  6
CONTINUOUS
 62
     8
100
AcDbLine
 10
712.915687
 20
131.0122
 30
0.0
 11
712.630113
 21
131.431471
 31
0.0
  0
LINE
  5
2E6
330
1F
100
AcDbEntity
  8
GR1-1
  6
CONTINUOUS
 62
     8
100
AcDbLine
 10
711.732584
 20
132.714904
 30
0.0
 11
711.331108
 21
132.577832
 31
0.0
  0
LINE
  5
2E7
330
1F
100
AcDbEntity
  8
GR1-1
  6
CONTINUOUS
 62
     8
100
AcDbLine
 10
711.985635
 20
132.691662
 30
0.0
 11
711.732584
 21
132.714904
 31
0.0
  0
LINE
  5
2E8
330
1F
100
AcDbEntity
  8
GR1-1
  6
CONTINUOUS
 62
     8
100
AcDbLine
 10
712.110358
 20
132.58067
 30
0.0
 11
711.985635
 21
132.691662
 31
0.0
  0
LINE
  5
2E9
330
1F
100
AcDbEntity
  8
GR1-1
  6
CONTINUOUS
 62
     4
100
AcDbLine
 10
712.47414
 20
118.482804
 30
0.0
 11
712.57414
 21
118.722804
 31
0.0
  0
LINE
  5
2EA
330
1F
100
AcDbEntity
  8
GR1-1
  6
CONTINUOUS
 62
     4
100
AcDbLine
 10
712.57414
 20
118.722804
 30
0.0
 11
713.37414
 21
118.722804
 31
0.0
  0
LINE
  5
2EB
330
1F
100
AcDbEntity
  8
GR1-1
  6
CONTINUOUS
 62
     4
100
AcDbLine
 10
713.37414
 20
118.722804
 30
0.0
 11
713.47414
 21
118.482804
 31
0.0
  0
LINE
  5
2EC
330
1F
100
AcDbEntity
  8
GR1-1
  6
CONTINUOUS
 62
     4
100
AcDbLine
 10
709.518722
 20
132.793639
 30
0.0
 11
709.343722
 21
131.793639
 31
0.0
  0
LINE
  5
2ED
330
1F
100
AcDbEntity
  8
GR1-1
  6
CONTINUOUS
 62
     4
100
AcDbLine
 10
709.343722
 20
131.793639
 30
0.0
 11
709.093722
 21
131.793639
 31
0.0
  0
LINE
  5
2EE
330
1F
100
AcDbEntity
  8
GR1-1
  6
CONTINUOUS
 62
     4
100
AcDbLine
 10
709.093722
 20
131.793639
 30
0.0
 11
708.918722
 21
132.793639
 31
0.0
  0
LINE
  5
2EF
330
1F
100
AcDbEntity
  8
GR1-1
  6
CONTINUOUS
 62
     4
100
AcDbLine
 10
683.04295
 20
118.722804
 30
0.0
 11
683.84295
 21
118.722804
 31
0.0
  0
LINE
  5
2F0
330
1F
100
AcDbEntity
  8
GR1-1
  6
CONTINUOUS
 62
     4
100
AcDbLine
 10
682.94295
 20
118.482804
 30
0.0
 11
683.04295
 21
118.722804
 31
0.0
  0
LINE
  5
2F1
330
1F
100
AcDbEntity
  8
GR1-1
  6
CONTINUOUS
 62
     4
100
AcDbLine
 10
683.84295
 20
118.722804
 30
0.0
 11
683.94295
 21
118.482804
 31
0.0
  0
LINE
  5
2F2
330
1F
100
AcDbEntity
  8
GR1-1
  6
CONTINUOUS
 62
     4
100
AcDbLine
 10
679.12295
 20
118.722804
 30
0.0
 11
680.04295
 21
118.722804
 31
0.0
  0
LINE
  5
2F3
330
1F
100
AcDbEntity
  8
GR1-1
  6
CONTINUOUS
 62
     4
100
AcDbLine
 10
680.04295
 20
118.722804
 30
0.0
 11
680.14295
 21
118.482804
 31
0.0
  0
LINE
  5
2F4
330
1F
100
AcDbEntity
  8
GR1-1
  6
CONTINUOUS
 62
     4
100
AcDbLine
 10
716.49914
 20
119.482804
 30
0.0
 11
716.67414
 21
118.482804
 31
0.0
  0
LINE
  5
2F5
330
1F
100
AcDbEntity
  8
GR1-1
  6
CONTINUOUS
 62
     4
100
AcDbLine
 10
716.24914
 20
119.482804
 30
0.0
 11
716.49914
 21
119.482804
 31
0.0
  0
LINE
  5
2F6
330
1F
100
AcDbEntity
  8
GR1-1
  6
CONTINUOUS
 62
     4
100
AcDbLine
 10
716.07414
 20
118.482804
 30
0.0
 11
716.24914
 21
119.482804
 31
0.0
  0
INSERT
  5
2FA
330
1F
100
AcDbEntity
  8
0
100
AcDbBlockReference
  2
BLKF052
 10
0.0
 20
0.0
 30
0.0
  0
INSERT
  5
309
330
1F
100
AcDbEntity
  8
0
100
AcDbBlockReference
  2
BLKF053
 10
0.0
 20
0.0
 30
0.0
  0
INSERT
  5
318
330
1F
100
AcDbEntity
  8
0
100
AcDbBlockReference
  2
BLKF054
 10
0.0
 20
0.0
 30
0.0
  0
INSERT
  5
326
330
1F
100
AcDbEntity
  8
0
100
AcDbBlockReference
  2
BLKF055
 10
0.0
 20
0.0
 30
0.0
  0
INSERT
  5
334
330
1F
100
AcDbEntity
  8
0
100
AcDbBlockReference
  2
BLKF056
 10
0.0
 20
0.0
 30
0.0
  0
LINE
  5
33A
330
1F
100
AcDbEntity
  8
GR1-1
  6
CONTINUOUS
 62
     2
100
AcDbLine
 10
683.478191
 20
118.858663
 30
0.0
 11
697.386489
 21
124.176775
 31
0.0
  0
INSERT
  5
33B
330
1F
100
AcDbEntity
  8
GR1-1
  6
CONTINUOUS
 62
     2
100
AcDbBlockReference
  2
FXTIP_ARROW_S
 10
683.478191
 20
118.858663
 30
0.0
 41
2.0
 42
2.0
 50
200.92534
  0
LINE
  5
33C
330
1F
100
AcDbEntity
  8
GR1-1
  6
CONTINUOUS
 62
     2
100
AcDbLine
 10
712.826919
 20
118.90982
 30
0.0
 11
697.386489
 21
124.176775
 31
0.0
  0
INSERT
  5
33D
330
1F
100
AcDbEntity
  8
GR1-1
  6
CONTINUOUS
 62
     2
100
AcDbBlockReference
  2
FXTIP_ARROW_S
 10
712.826919
 20
118.90982
 30
0.0
 41
2.0
 42
2.0
 50
341.164748
  0
INSERT
  5
341
330
1F
100
AcDbEntity
  8
0
100
AcDbBlockReference
  2
BLKF057
 10
0.0
 20
0.0
 30
0.0
  0
LINE
  5
34C
330
1F
100
AcDbEntity
  8
GR1-1
  6
CONTINUOUS
 62
     4
100
AcDbLine
 10
712.47414
 20
118.482804
 30
0.0
 11
683.94295
 21
118.482804
 31
0.0
  0
LINE
  5
34D
330
1F
100
AcDbEntity
  8
GR1-1
  6
CONTINUOUS
 62
     4
100
AcDbLine
 10
682.94295
 20
118.482804
 30
0.0
 11
680.14295
 21
118.482804
 31
0.0
  0
LINE
  5
34E
330
1F
100
AcDbEntity
  8
GR1-1
  6
CONTINUOUS
 62
     4
100
AcDbLine
 10
787.212081
 20
132.793639
 30
0.0
 11
826.343271
 21
132.793639
 31
0.0
  0
INSERT
  5
352
330
1F
100
AcDbEntity
  8
0
100
AcDbBlockReference
  2
BLKF058
 10
0.0
 20
0.0
 30
0.0
  0
LINE
  5
35D
330
1F
100
AcDbEntity
  8
GR1-1
  6
CONTINUOUS
 62
     4
100
AcDbLine
 10
780.056664
 20
118.482804
 30
0.0
 11
819.187854
 21
118.482804
 31
0.0
  0
LINE
  5
35E
330
1F
100
AcDbEntity
  8
GR1-1
  6
CONTINUOUS
 62
     8
100
AcDbLine
 10
780.537913
 20
120.94595
 30
0.0
 11
781.31342
 21
122.635721
 31
0.0
  0
LINE
  5
35F
330
1F
100
AcDbEntity
  8
GR1-1
  6
CONTINUOUS
 62
     2
100
AcDbLine
 10
781.107616
 20
121.031922
 30
0.0
 11
782.449257
 21
120.361101
 31
0.0
  0
LINE
  5
360
330
1F
100
AcDbEntity
  8
GR1-1
  6
CONTINUOUS
 62
     2
100
AcDbLine
 10
782.628142
 20
124.072974
 30
0.0
 11
781.107616
 21
121.031922
 31
0.0
  0
TEXT
  5
361
330
1F
100
AcDbEntity
  8
GR1-1
  6
CONTINUOUS
 62
     4
100
AcDbText
 10
778.563594
 20
127.676016
 30
0.0
 40
1.5
  1
1:0.5
 50
63.0
 41
0.7
  7
FX_VECTOR
 72
     5
 11
780.947044
 21
132.3538
 31
0.0
100
AcDbText
  0
INSERT
  5
365
330
1F
100
AcDbEntity
  8
0
100
AcDbBlockReference
  2
BLKF059
 10
0.0
 20
0.0
 30
0.0
  0
LINE
  5
370
330
1F
100
AcDbEntity
  8
GR1-1
  6
CONTINUOUS
 62
     8
100
AcDbLine
 10
779.834766
 20
119.633704
 30
0.0
 11
780.16234
 21
120.158828
 31
0.0
  0
LINE
  5
371
330
1F
100
AcDbEntity
  8
GR1-1
  6
CONTINUOUS
 62
     4
100
AcDbLine
 10
780.056664
 20
118.482804
 30
0.0
 11
781.286501
 21
120.942479
 31
0.0
  0
LINE
  5
372
330
1F
100
AcDbEntity
  8
GR1-1
  6
CONTINUOUS
 62
     8
100
AcDbLine
 10
779.819246
 20
119.278379
 30
0.0
 11
779.834766
 21
119.633704
 31
0.0
  0
LINE
  5
373
330
1F
100
AcDbEntity
  8
GR1-1
  6
CONTINUOUS
 62
     8
100
AcDbLine
 10
780.206537
 20
118.760449
 30
0.0
 11
779.819246
 21
119.278379
 31
0.0
  0
LINE
  5
374
330
1F
100
AcDbEntity
  8
GR1-1
  6
CONTINUOUS
 62
     8
100
AcDbLine
 10
780.277869
 20
120.543035
 30
0.0
 11
780.537913
 21
120.94595
 31
0.0
  0
LINE
  5
375
330
1F
100
AcDbEntity
  8
GR1-1
  6
CONTINUOUS
 62
     8
100
AcDbLine
 10
780.16234
 20
120.158828
 30
0.0
 11
780.277869
 21
120.543035
 31
0.0
  0
LINE
  5
376
330
1F
100
AcDbEntity
  8
GR1-1
  6
CONTINUOUS
 62
     8
100
AcDbLine
 10
785.229313
 20
130.393034
 30
0.0
 11
785.515117
 21
131.0122
 31
0.0
  0
INSERT
  5
37A
330
1F
100
AcDbEntity
  8
0
100
AcDbBlockReference
  2
BLKF060
 10
0.0
 20
0.0
 30
0.0
  0
INSERT
  5
389
330
1F
100
AcDbEntity
  8
0
100
AcDbBlockReference
  2
BLKF061
 10
0.0
 20
0.0
 30
0.0
  0
LINE
  5
395
330
1F
100
AcDbEntity
  8
GR1-1
  6
CONTINUOUS
 62
     4
100
AcDbLine
 10
782.628142
 20
118.482804
 30
0.0
 11
789.78356
 21
132.793639
 31
0.0
  0
LINE
  5
396
330
1F
100
AcDbEntity
  8
GR1-1
  6
CONTINUOUS
 62
     4
100
AcDbLine
 10
783.075356
 20
118.482804
 30
0.0
 11
790.230773
 21
132.793639
 31
0.0
  0
LINE
  5
397
330
1F
100
AcDbEntity
  8
GR1-1
  6
CONTINUOUS
 62
     4
100
AcDbLine
 10
782.807028
 20
123.983532
 30
0.0
 11
787.212081
 21
132.793639
 31
0.0
  0
LINE
  5
398
330
1F
100
AcDbEntity
  8
GR1-1
  6
CONTINUOUS
 62
     4
100
AcDbLine
 10
783.969783
 20
123.402154
 30
0.0
 11
788.665526
 21
132.793639
 31
0.0
  0
LINE
  5
399
330
1F
100
AcDbEntity
  8
GR1-1
  6
CONTINUOUS
 62
     8
100
AcDbLine
 10
781.856531
 20
123.573935
 30
0.0
 11
781.699786
 21
123.257361
 31
0.0
  0
LINE
  5
39A
330
1F
100
AcDbEntity
  8
GR1-1
  6
CONTINUOUS
 62
     8
100
AcDbLine
 10
781.699786
 20
123.257361
 30
0.0
 11
782.007419
 21
123.919908
 31
0.0
  0
LINE
  5
39B
330
1F
100
AcDbEntity
  8
GR1-1
  6
CONTINUOUS
 62
     8
100
AcDbLine
 10
781.31342
 20
122.635721
 30
0.0
 11
781.856531
 21
123.573935
 31
0.0
  0
LINE
  5
39C
330
1F
100
AcDbEntity
  8
GR1-1
  6
CONTINUOUS
 62
     2
100
AcDbLine
 10
782.628142
 20
124.072974
 30
0.0
 11
783.969783
 21
123.402154
 31
0.0
  0
LINE
  5
39D
330
1F
100
AcDbEntity
  8
GR1-1
  6
CONTINUOUS
 62
     4
100
AcDbLine
 10
781.510108
 20
118.482804
 30
0.0
 11
782.449257
 21
120.361101
 31
0.0
  0
ARC
  5
39E
330
1F
100
AcDbEntity
  8
GR1-1
  6
CONTINUOUS
 62
     2
100
AcDbCircle
 10
777.355826
 20
124.808475
 30
0.0
 40
6.761817216230002
100
AcDbArc
 50
318.873879
 51
347.99601
  0
LINE
  5
39F
330
1F
100
AcDbEntity
  8
GR1-1
  6
CONTINUOUS
 62
     8
100
AcDbLine
 10
783.298903
 20
126.430412
 30
0.0
 11
783.607916
 21
127.194347
 31
0.0
  0
LINE
  5
3A0
330
1F
100
AcDbEntity
  8
GR1-1
  6
CONTINUOUS
 62
     8
100
AcDbLine
 10
782.397485
 20
124.524279
 30
0.0
 11
782.565743
 21
124.945591
 31
0.0
  0
LINE
  5
3A1
330
1F
100
AcDbEntity
  8
GR1-1
  6
CONTINUOUS
 62
     8
100
AcDbLine
 10
782.382684
 20
124.439174
 30
0.0
 11
782.397485
 21
124.524279
 31
0.0
  0
LINE
  5
3A2
330
1F
100
AcDbEntity
  8
GR1-1
  6
CONTINUOUS
 62
     8
100
AcDbLine
 10
782.007419
 20
123.919908
 30
0.0
 11
782.451858
 21
124.290753
 31
0.0
  0
LINE
  5
3A3
330
1F
100
AcDbEntity
  8
GR1-1
  6
CONTINUOUS
 62
     8
100
AcDbLine
 10
782.813247
 20
124.184063
 30
0.0
 11
782.382684
 21
124.439174
 31
0.0
  0
LINE
  5
3A4
330
1F
100
AcDbEntity
  8
GR1-1
  6
CONTINUOUS
 62
     8
100
AcDbLine
 10
782.451858
 20
124.290753
 30
0.0
 11
782.813247
 21
124.184063
 31
0.0
  0
LINE
  5
3A5
330
1F
100
AcDbEntity
  8
GR1-1
  6
CONTINUOUS
 62
     8
100
AcDbLine
 10
782.565743
 20
124.945591
 30
0.0
 11
783.298903
 21
126.430412
 31
0.0
  0
LINE
  5
3A6
330
1F
100
AcDbEntity
  8
GR1-1
  6
CONTINUOUS
 62
     8
100
AcDbLine
 10
783.607916
 20
127.194347
 30
0.0
 11
783.818856
 21
127.592064
 31
0.0
  0
LINE
  5
3A7
330
1F
100
AcDbEntity
  8
GR1-1
  6
CONTINUOUS
 62
     8
100
AcDbLine
 10
784.087784
 20
128.114197
 30
0.0
 11
784.401586
 21
128.695776
 31
0.0
  0
LINE
  5
3A8
330
1F
100
AcDbEntity
  8
GR1-1
  6
CONTINUOUS
 62
     8
100
AcDbLine
 10
783.818856
 20
127.592064
 30
0.0
 11
784.087784
 21
128.114197
 31
0.0
  0
LINE
  5
3A9
330
1F
100
AcDbEntity
  8
GR1-1
  6
CONTINUOUS
 62
     8
100
AcDbLine
 10
784.861051
 20
128.68312
 30
0.0
 11
785.102749
 21
128.641085
 31
0.0
  0
LINE
  5
3AA
330
1F
100
AcDbEntity
  8
GR1-1
  6
CONTINUOUS
 62
     8
100
AcDbLine
 10
784.401586
 20
128.695776
 30
0.0
 11
784.573252
 21
128.867673
 31
0.0
  0
LINE
  5
3AB
330
1F
100
AcDbEntity
  8
GR1-1
  6
CONTINUOUS
 62
     8
100
AcDbLine
 10
784.573252
 20
128.867673
 30
0.0
 11
784.861051
 21
128.68312
 31
0.0
  0
LINE
  5
3AC
330
1F
100
AcDbEntity
  8
GR1-1
  6
CONTINUOUS
 62
     8
100
AcDbLine
 10
784.618355
 20
129.127013
 30
0.0
 11
784.937679
 21
129.740349
 31
0.0
  0
LINE
  5
3AD
330
1F
100
AcDbEntity
  8
GR1-1
  6
CONTINUOUS
 62
     8
100
AcDbLine
 10
784.688694
 20
128.914846
 30
0.0
 11
784.618355
 21
129.127013
 31
0.0
  0
LINE
  5
3AE
330
1F
100
AcDbEntity
  8
GR1-1
  6
CONTINUOUS
 62
     8
100
AcDbLine
 10
785.136269
 20
128.635256
 30
0.0
 11
784.688694
 21
128.914846
 31
0.0
  0
LINE
  5
3AF
330
1F
100
AcDbEntity
  8
GR1-1
  6
CONTINUOUS
 62
     8
100
AcDbLine
 10
784.937679
 20
129.740349
 30
0.0
 11
785.229313
 21
130.393034
 31
0.0
  0
LINE
  5
3B0
330
1F
100
AcDbEntity
  8
GR1-1
  6
CONTINUOUS
 62
     8
100
AcDbLine
 10
785.999051
 20
131.965877
 30
0.0
 11
786.320446
 21
132.58067
 31
0.0
  0
LINE
  5
3B1
330
1F
100
AcDbEntity
  8
GR1-1
  6
CONTINUOUS
 62
     8
100
AcDbLine
 10
785.800691
 20
131.431471
 30
0.0
 11
785.999051
 21
131.965877
 31
0.0
  0
LINE
  5
3B2
330
1F
100
AcDbEntity
  8
GR1-1
  6
CONTINUOUS
 62
     8
100
AcDbLine
 10
785.515117
 20
131.0122
 30
0.0
 11
785.800691
 21
131.431471
 31
0.0
  0
LINE
  5
3B3
330
1F
100
AcDbEntity
  8
GR1-1
  6
CONTINUOUS
 62
     8
100
AcDbLine
 10
786.69822
 20
132.714904
 30
0.0
 11
787.099695
 21
132.577832
 31
0.0
  0
LINE
  5
3B4
330
1F
100
AcDbEntity
  8
GR1-1
  6
CONTINUOUS
 62
     8
100
AcDbLine
 10
786.445169
 20
132.691662
 30
0.0
 11
786.69822
 21
132.714904
 31
0.0
  0
LINE
  5
3B5
330
1F
100
AcDbEntity
  8
GR1-1
  6
CONTINUOUS
 62
     8
100
AcDbLine
 10
786.320446
 20
132.58067
 30
0.0
 11
786.445169
 21
132.691662
 31
0.0
  0
INSERT
  5
3B9
330
1F
100
AcDbEntity
  8
0
100
AcDbBlockReference
  2
BLKF062
 10
0.0
 20
0.0
 30
0.0
  0
INSERT
  5
3C8
330
1F
100
AcDbEntity
  8
0
100
AcDbBlockReference
  2
BLKF063
 10
0.0
 20
0.0
 30
0.0
  0
INSERT
  5
3D7
330
1F
100
AcDbEntity
  8
0
100
AcDbBlockReference
  2
BLKF064
 10
0.0
 20
0.0
 30
0.0
  0
INSERT
  5
3E5
330
1F
100
AcDbEntity
  8
0
100
AcDbBlockReference
  2
BLKF065
 10
0.0
 20
0.0
 30
0.0
  0
INSERT
  5
3F3
330
1F
100
AcDbEntity
  8
0
100
AcDbBlockReference
  2
BLKF066
 10
0.0
 20
0.0
 30
0.0
  0
INSERT
  5
402
330
1F
100
AcDbEntity
  8
0
100
AcDbBlockReference
  2
BLKF067
 10
0.0
 20
0.0
 30
0.0
  0
LINE
  5
40D
330
1F
100
AcDbEntity
  8
GR1-1
  6
CONTINUOUS
 62
     4
100
AcDbLine
 10
819.187854
 20
118.482804
 30
0.0
 11
826.343271
 21
132.793639
 31
0.0
  0
LINE
  5
40E
330
1F
100
AcDbEntity
  8
GR1-1
  6
CONTINUOUS
 62
     4
100
AcDbLine
 10
821.021429
 20
125.056844
 30
0.0
 11
824.889827
 21
132.793639
 31
0.0
  0
LINE
  5
40F
330
1F
100
AcDbEntity
  8
GR1-1
  6
CONTINUOUS
 62
     4
100
AcDbLine
 10
816.616375
 20
118.482804
 30
0.0
 11
823.771793
 21
132.793639
 31
0.0
  0
LINE
  5
410
330
1F
100
AcDbEntity
  8
GR1-1
  6
CONTINUOUS
 62
     4
100
AcDbLine
 10
816.169162
 20
118.482804
 30
0.0
 11
823.324579
 21
132.793639
 31
0.0
  0
ARC
  5
411
330
1F
100
AcDbEntity
  8
GR1-1
  6
CONTINUOUS
 62
     2
100
AcDbCircle
 10
826.114861
 20
120.609471
 30
0.0
 40
6.761817216230011
100
AcDbArc
 50
138.873888
 51
167.996018
  0
LINE
  5
412
330
1F
100
AcDbEntity
  8
GR1-1
  6
CONTINUOUS
 62
     2
100
AcDbLine
 10
821.915856
 20
124.609631
 30
0.0
 11
820.39533
 21
121.568578
 31
0.0
  0
LINE
  5
413
330
1F
100
AcDbEntity
  8
GR1-1
  6
CONTINUOUS
 62
     4
100
AcDbLine
 10
817.734409
 20
118.482804
 30
0.0
 11
819.500904
 21
122.015793
 31
0.0
  0
LINE
  5
414
330
1F
100
AcDbEntity
  8
GR1-1
  6
CONTINUOUS
 62
     2
100
AcDbLine
 10
820.39533
 20
121.568578
 30
0.0
 11
819.500903
 21
122.015792
 31
0.0
  0
LINE
  5
415
330
1F
100
AcDbEntity
  8
GR1-1
  6
CONTINUOUS
 62
     2
100
AcDbLine
 10
821.915857
 20
124.609631
 30
0.0
 11
821.021429
 21
125.056844
 31
0.0
  0
INSERT
  5
419
330
1F
100
AcDbEntity
  8
0
100
AcDbBlockReference
  2
BLKF068
 10
0.0
 20
0.0
 30
0.0
  0
INSERT
  5
427
330
1F
100
AcDbEntity
  8
0
100
AcDbBlockReference
  2
BLKF069
 10
0.0
 20
0.0
 30
0.0
  0
INSERT
  5
435
330
1F
100
AcDbEntity
  8
0
100
AcDbBlockReference
  2
BLKF070
 10
0.0
 20
0.0
 30
0.0
  0
INSERT
  5
443
330
1F
100
AcDbEntity
  8
0
100
AcDbBlockReference
  2
BLKF071
 10
0.0
 20
0.0
 30
0.0
  0
INSERT
  5
452
330
1F
100
AcDbEntity
  8
0
100
AcDbBlockReference
  2
BLKF072
 10
0.0
 20
0.0
 30
0.0
  0
LINE
  5
45D
330
1F
100
AcDbEntity
  8
GR1-1
  6
CONTINUOUS
 62
     4
100
AcDbLine
 10
690.045581
 20
122.638222
 30
0.0
 11
708.777739
 21
122.638222
 31
0.0
  0
LINE
  5
45E
330
1F
100
AcDbEntity
  8
GR1-1
  6
CONTINUOUS
 62
     4
100
AcDbLine
 10
690.045581
 20
128.638222
 30
0.0
 11
708.777739
 21
128.638222
 31
0.0
  0
LINE
  5
45F
330
1F
100
AcDbEntity
  8
GR1-1
  6
CONTINUOUS
 62
     4
100
AcDbLine
 10
683.645581
 20
128.638222
 30
0.0
 11
681.683933
 21
128.638222
 31
0.0
  0
LINE
  5
460
330
1F
100
AcDbEntity
  8
GR1-1
  6
CONTINUOUS
 62
     4
100
AcDbLine
 10
683.645581
 20
122.638222
 30
0.0
 11
681.683933
 21
122.638222
 31
0.0
  0
LINE
  5
461
330
1F
100
AcDbEntity
  8
GR1-1
  6
CONTINUOUS
 62
     4
100
AcDbLine
 10
681.083933
 20
123.238222
 30
0.0
 11
681.083933
 21
128.038222
 31
0.0
  0
LINE
  5
462
330
1F
100
AcDbEntity
  8
GR1-1
  6
CONTINUOUS
 62
     4
100
AcDbLine
 10
689.445581
 20
128.038222
 30
0.0
 11
689.445581
 21
123.238222
 31
0.0
  0
LINE
  5
463
330
1F
100
AcDbEntity
  8
GR1-1
  6
CONTINUOUS
 62
     4
100
AcDbLine
 10
684.245581
 20
128.038222
 30
0.0
 11
684.245581
 21
123.238222
 31
0.0
  0
LINE
  5
464
330
1F
100
AcDbEntity
  8
GR1-1
  6
CONTINUOUS
 62
     4
100
AcDbLine
 10
709.377739
 20
123.238222
 30
0.0
 11
709.377739
 21
128.038222
 31
0.0
  0
INSERT
  5
468
330
1F
100
AcDbEntity
  8
0
100
AcDbBlockReference
  2
BLKF073
 10
0.0
 20
0.0
 30
0.0
  0
INSERT
  5
477
330
1F
100
AcDbEntity
  8
0
100
AcDbBlockReference
  2
BLKF074
 10
0.0
 20
0.0
 30
0.0
  0
INSERT
  5
486
330
1F
100
AcDbEntity
  8
0
100
AcDbBlockReference
  2
BLKF075
 10
0.0
 20
0.0
 30
0.0
  0
INSERT
  5
494
330
1F
100
AcDbEntity
  8
0
100
AcDbBlockReference
  2
BLKF076
 10
0.0
 20
0.0
 30
0.0
  0
INSERT
  5
4A3
330
1F
100
AcDbEntity
  8
0
100
AcDbBlockReference
  2
BLKF077
 10
0.0
 20
0.0
 30
0.0
  0
INSERT
  5
4B1
330
1F
100
AcDbEntity
  8
0
100
AcDbBlockReference
  2
BLKF078
 10
0.0
 20
0.0
 30
0.0
  0
INSERT
  5
4C0
330
1F
100
AcDbEntity
  8
0
100
AcDbBlockReference
  2
BLKF079
 10
0.0
 20
0.0
 30
0.0
  0
INSERT
  5
4CF
330
1F
100
AcDbEntity
  8
0
100
AcDbBlockReference
  2
BLKF080
 10
0.0
 20
0.0
 30
0.0
  0
INSERT
  5
4DD
330
1F
100
AcDbEntity
  8
0
100
AcDbBlockReference
  2
BLKF081
 10
0.0
 20
0.0
 30
0.0
  0
INSERT
  5
4EB
330
1F
100
AcDbEntity
  8
0
100
AcDbBlockReference
  2
BLKF082
 10
0.0
 20
0.0
 30
0.0
  0
TEXT
  5
4F6
330
1F
100
AcDbEntity
  8
GR1-1
  6
CONTINUOUS
 62
     4
100
AcDbText
 10
741.137266
 20
152.794746
 30
0.0
 40
2.0
  1
A
 41
0.7
  7
FX_VECTOR
 72
     5
 11
742.537266
 21
152.794746
 31
0.0
100
AcDbText
  0
LINE
  5
4F7
330
1F
100
AcDbEntity
  8
GR1-1
  6
CONTINUOUS
 62
     2
100
AcDbLine
 10
743.088576
 20
152.133
 30
0.0
 11
743.088576
 21
155.197957
 31
0.0
  0
INSERT
  5
4FB
330
1F
100
AcDbEntity
  8
0
100
AcDbBlockReference
  2
BLKF083
 10
0.0
 20
0.0
 30
0.0
  0
LINE
  5
506
330
1F
100
AcDbEntity
  8
GR1-1
  6
CONTINUOUS
 62
     2
100
AcDbLine
 10
740.082504
 20
152.14267
 30
0.0
 11
743.088576
 21
152.14267
 31
0.0
  0
INSERT
  5
507
330
1F
100
AcDbEntity
  8
GR1-1
  6
CONTINUOUS
 62
     2
100
AcDbBlockReference
  2
FXTIP_ARROW_S
 10
740.082504
 20
152.14267
 30
0.0
 41
2.0
 42
2.0
 50
180.0
  0
LINE
  5
508
330
1F
100
AcDbEntity
  8
GR1-1
  6
CONTINUOUS
 62
     4
100
AcDbLine
 10
744.947382
 20
199.385857
 30
0.0
 11
744.947382
 21
166.255007
 31
0.0
  0
LINE
  5
509
330
1F
100
AcDbEntity
  8
GR1-1
  6
CONTINUOUS
 62
     4
100
AcDbLine
 10
745.347382
 20
199.785857
 30
0.0
 11
745.347382
 21
192.63044
 31
0.0
  0
LINE
  5
50A
330
1F
100
AcDbEntity
  8
GR1-1
  6
CONTINUOUS
 62
     4
100
AcDbLine
 10
740.947382
 20
199.385857
 30
0.0
 11
740.947382
 21
166.255007
 31
0.0
  0
LINE
  5
50B
330
1F
100
AcDbEntity
  8
GR1-1
  6
CONTINUOUS
 62
     4
100
AcDbLine
 10
740.547382
 20
199.785857
 30
0.0
 11
740.547382
 21
192.63044
 31
0.0
  0
INSERT
  5
50F
330
1F
100
AcDbEntity
  8
0
100
AcDbBlockReference
  2
BLKF084
 10
0.0
 20
0.0
 30
0.0
  0
INSERT
  5
51E
330
1F
100
AcDbEntity
  8
0
100
AcDbBlockReference
  2
BLKF085
 10
0.0
 20
0.0
 30
0.0
  0
LINE
  5
52A
330
1F
100
AcDbEntity
  8
GR1-1
  6
CONTINUOUS
 62
     4
100
AcDbLine
 10
736.747382
 20
202.357336
 30
0.0
 11
736.747382
 21
193.748474
 31
0.0
  0
LINE
  5
52B
330
1F
100
AcDbEntity
  8
GR1-1
  6
CONTINUOUS
 62
     4
100
AcDbLine
 10
749.147382
 20
202.357336
 30
0.0
 11
749.147382
 21
193.748474
 31
0.0
  0
INSERT
  5
52F
330
1F
100
AcDbEntity
  8
0
100
AcDbBlockReference
  2
BLKF086
 10
0.0
 20
0.0
 30
0.0
  0
INSERT
  5
53E
330
1F
100
AcDbEntity
  8
0
100
AcDbBlockReference
  2
BLKF087
 10
0.0
 20
0.0
 30
0.0
  0
LINE
  5
54A
330
1F
100
AcDbEntity
  8
GR1-1
  6
CONTINUOUS
 62
     4
100
AcDbLine
 10
736.697382
 20
156.080898
 30
0.0
 11
749.197382
 21
156.080898
 31
0.0
  0
LINE
  5
54B
330
1F
100
AcDbEntity
  8
GR1-1
  6
CONTINUOUS
 62
     4
100
AcDbLine
 10
749.197382
 20
163.236316
 30
0.0
 11
736.697382
 21
163.236316
 31
0.0
  0
LINE
  5
54C
330
1F
100
AcDbEntity
  8
GR1-1
  6
CONTINUOUS
 62
     4
100
AcDbLine
 10
736.697382
 20
163.236316
 30
0.0
 11
749.197382
 21
163.236316
 31
0.0
  0
INSERT
  5
550
330
1F
100
AcDbEntity
  8
0
100
AcDbBlockReference
  2
BLKF088
 10
0.0
 20
0.0
 30
0.0
  0
LINE
  5
55B
330
1F
100
AcDbEntity
  8
GR1-1
  6
CONTINUOUS
 62
     4
100
AcDbLine
 10
736.697382
 20
164.68976
 30
0.0
 11
736.697382
 21
156.080898
 31
0.0
  0
LINE
  5
55C
330
1F
100
AcDbEntity
  8
GR1-1
  6
CONTINUOUS
 62
     4
100
AcDbLine
 10
736.697382
 20
164.68976
 30
0.0
 11
740.547382
 21
165.807794
 31
0.0
  0
LINE
  5
55D
330
1F
100
AcDbEntity
  8
GR1-1
  6
CONTINUOUS
 62
     4
100
AcDbLine
 10
740.547382
 20
165.807794
 30
0.0
 11
740.947382
 21
166.255007
 31
0.0
  0
LINE
  5
55E
330
1F
100
AcDbEntity
  8
GR1-1
  6
CONTINUOUS
 62
     2
100
AcDbLine
 10
747.766657
 20
167.213423
 30
0.0
 11
753.864108
 21
167.213423
 31
0.0
  0
INSERT
  5
562
330
1F
100
AcDbEntity
  8
0
100
AcDbBlockReference
  2
BLKF089
 10
0.0
 20
0.0
 30
0.0
  0
LINE
  5
56D
330
1F
100
AcDbEntity
  8
GR1-1
  6
CONTINUOUS
 62
     4
100
AcDbLine
 10
749.197382
 20
164.68976
 30
0.0
 11
749.197382
 21
156.080898
 31
0.0
  0
INSERT
  5
571
330
1F
100
AcDbEntity
  8
0
100
AcDbBlockReference
  2
BLKF090
 10
0.0
 20
0.0
 30
0.0
  0
CIRCLE
  5
576
330
1F
100
AcDbEntity
  8
GR1-1
  6
CONTINUOUS
 62
     2
100
AcDbCircle
 10
742.947382
 20
165.236316
 30
0.0
 40
0.3
  0
LINE
  5
577
330
1F
100
AcDbEntity
  8
GR1-1
  6
CONTINUOUS
 62
     2
100
AcDbLine
 10
742.947382
 20
167.543509
 30
0.0
 11
742.947382
 21
166.929122
 31
0.0
  0
CIRCLE
  5
578
330
1F
100
AcDbEntity
  8
GR1-1
  6
CONTINUOUS
 62
     2
100
AcDbCircle
 10
742.947382
 20
167.236316
 30
0.0
 40
0.1
  0
LINE
  5
579
330
1F
100
AcDbEntity
  8
GR1-1
  6
CONTINUOUS
 62
     2
100
AcDbLine
 10
742.640188
 20
167.236316
 30
0.0
 11
743.254575
 21
167.236316
 31
0.0
  0
CIRCLE
  5
57A
330
1F
100
AcDbEntity
  8
GR1-1
  6
CONTINUOUS
 62
     4
100
AcDbCircle
 10
742.947382
 20
167.236316
 30
0.0
 40
0.6
  0
LINE
  5
57B
330
1F
100
AcDbEntity
  8
GR1-1
  6
CONTINUOUS
 62
     4
100
AcDbLine
 10
749.197382
 20
164.68976
 30
0.0
 11
745.347382
 21
165.807794
 31
0.0
  0
LINE
  5
57C
330
1F
100
AcDbEntity
  8
GR1-1
  6
CONTINUOUS
 62
     4
100
AcDbLine
 10
745.347382
 20
165.807794
 30
0.0
 11
744.947382
 21
166.255007
 31
0.0
  0
LINE
  5
57D
330
1F
100
AcDbEntity
  8
GR1-1
  6
CONTINUOUS
 62
     4
100
AcDbLine
 10
736.747382
 20
193.748474
 30
0.0
 11
740.547382
 21
192.63044
 31
0.0
  0
LINE
  5
57E
330
1F
100
AcDbEntity
  8
GR1-1
  6
CONTINUOUS
 62
     4
100
AcDbLine
 10
740.547382
 20
192.63044
 30
0.0
 11
740.947382
 21
192.23044
 31
0.0
  0
LINE
  5
57F
330
1F
100
AcDbEntity
  8
GR1-1
  6
CONTINUOUS
 62
     4
100
AcDbLine
 10
745.347382
 20
192.63044
 30
0.0
 11
749.147382
 21
193.748474
 31
0.0
  0
LINE
  5
580
330
1F
100
AcDbEntity
  8
GR1-1
  6
CONTINUOUS
 62
     4
100
AcDbLine
 10
744.947382
 20
192.23044
 30
0.0
 11
745.347382
 21
192.63044
 31
0.0
  0
TEXT
  5
581
330
1F
100
AcDbEntity
  8
GR1-1
  6
CONTINUOUS
 62
     4
100
AcDbText
 10
723.34875
 20
215.758359
 30
0.0
 40
2.0
  1
 平面図 
 41
0.784
  7
FX_VECTOR
 72
     5
 11
731.18875
 21
215.758359
 31
0.0
100
AcDbText
  0
LINE
  5
582
330
1F
100
AcDbEntity
  8
GR1-1
  6
CONTINUOUS
 62
     4
100
AcDbLine
 10
723.34873
 20
215.558346
 30
0.0
 11
731.18873
 21
215.558346
 31
0.0
  0
INSERT
  5
586
330
1F
100
AcDbEntity
  8
0
100
AcDbBlockReference
  2
BLKF091
 10
0.0
 20
0.0
 30
0.0
  0
LINE
  5
591
330
1F
100
AcDbEntity
  8
GR1-1
  6
CONTINUOUS
 62
     4
100
AcDbLine
 10
736.747382
 20
202.357336
 30
0.0
 11
749.147382
 21
202.357336
 31
0.0
  0
INSERT
  5
595
330
1F
100
AcDbEntity
  8
0
100
AcDbBlockReference
  2
BLKF092
 10
0.0
 20
0.0
 30
0.0
  0
INSERT
  5
5A4
330
1F
100
AcDbEntity
  8
0
100
AcDbBlockReference
  2
BLKF093
 10
0.0
 20
0.0
 30
0.0
  0
LINE
  5
5AF
330
1F
100
AcDbEntity
  8
GR1-1
  6
CONTINUOUS
 62
     4
100
AcDbLine
 10
736.747382
 20
200.903891
 30
0.0
 11
740.547382
 21
199.785857
 31
0.0
  0
LINE
  5
5B0
330
1F
100
AcDbEntity
  8
GR1-1
  6
CONTINUOUS
 62
     4
100
AcDbLine
 10
740.547382
 20
199.785857
 30
0.0
 11
740.947382
 21
199.385857
 31
0.0
  0
INSERT
  5
5B4
330
1F
100
AcDbEntity
  8
0
100
AcDbBlockReference
  2
BLKF094
 10
0.0
 20
0.0
 30
0.0
  0
INSERT
  5
5C2
330
1F
100
AcDbEntity
  8
0
100
AcDbBlockReference
  2
BLKF095
 10
0.0
 20
0.0
 30
0.0
  0
LINE
  5
5CE
330
1F
100
AcDbEntity
  8
GR1-1
  6
CONTINUOUS
 62
     2
100
AcDbLine
 10
742.947382
 20
200.66453
 30
0.0
 11
742.947382
 21
200.050143
 31
0.0
  0
LINE
  5
5CF
330
1F
100
AcDbEntity
  8
GR1-1
  6
CONTINUOUS
 62
     2
100
AcDbLine
 10
742.640188
 20
200.357336
 30
0.0
 11
743.254575
 21
200.357336
 31
0.0
  0
CIRCLE
  5
5D0
330
1F
100
AcDbEntity
  8
GR1-1
  6
CONTINUOUS
 62
     4
100
AcDbCircle
 10
742.947382
 20
200.357336
 30
0.0
 40
0.6
  0
CIRCLE
  5
5D1
330
1F
100
AcDbEntity
  8
GR1-1
  6
CONTINUOUS
 62
     2
100
AcDbCircle
 10
742.947382
 20
200.357336
 30
0.0
 40
0.1
  0
LINE
  5
5D2
330
1F
100
AcDbEntity
  8
GR1-1
  6
CONTINUOUS
 62
     2
100
AcDbLine
 10
740.082504
 20
216.023986
 30
0.0
 11
743.088576
 21
216.023986
 31
0.0
  0
INSERT
  5
5D3
330
1F
100
AcDbEntity
  8
GR1-1
  6
CONTINUOUS
 62
     2
100
AcDbBlockReference
  2
FXTIP_ARROW_S
 10
740.082504
 20
216.023986
 30
0.0
 41
2.0
 42
2.0
 50
180.0
  0
LINE
  5
5D4
330
1F
100
AcDbEntity
  8
GR1-1
  6
CONTINUOUS
 62
     2
100
AcDbLine
 10
743.088576
 20
216.033657
 30
0.0
 11
743.088576
 21
212.968699
 31
0.0
  0
TEXT
  5
5D5
330
1F
100
AcDbEntity
  8
GR1-1
  6
CONTINUOUS
 62
     4
100
AcDbText
 10
741.137266
 20
213.371914
 30
0.0
 40
2.0
  1
A
 41
0.7
  7
FX_VECTOR
 72
     5
 11
742.537266
 21
213.371914
 31
0.0
100
AcDbText
  0
INSERT
  5
5D9
330
1F
100
AcDbEntity
  8
0
100
AcDbBlockReference
  2
BLKF096
 10
0.0
 20
0.0
 30
0.0
  0
LINE
  5
5E5
330
1F
100
AcDbEntity
  8
GR1-1
  6
CONTINUOUS
 62
     4
100
AcDbLine
 10
745.347382
 20
199.785857
 30
0.0
 11
749.147382
 21
200.903891
 31
0.0
  0
LINE
  5
5E6
330
1F
100
AcDbEntity
  8
GR1-1
  6
CONTINUOUS
 62
     4
100
AcDbLine
 10
744.947382
 20
199.385857
 30
0.0
 11
745.347382
 21
199.785857
 31
0.0
  0
INSERT
  5
5EA
330
1F
100
AcDbEntity
  8
0
100
AcDbBlockReference
  2
BLKF097
 10
0.0
 20
0.0
 30
0.0
  0
LINE
  5
5F5
330
1F
100
AcDbEntity
  8
GR1-1
  6
CONTINUOUS
 62
     2
100
AcDbLine
 10
747.755634
 20
129.882829
 30
0.0
 11
747.561288
 21
128.59811
 31
0.0
  0
LINE
  5
5F6
330
1F
100
AcDbEntity
  8
GR1-1
  6
CONTINUOUS
 62
     2
100
AcDbLine
 10
742.494974
 20
129.252098
 30
0.0
 11
742.485338
 21
131.198602
 31
0.0
  0
INSERT
  5
5FA
330
1F
100
AcDbEntity
  8
0
100
AcDbBlockReference
  2
BLKF098
 10
0.0
 20
0.0
 30
0.0
  0
LINE
  5
5FF
330
1F
100
AcDbEntity
  8
GR1-1
  6
CONTINUOUS
 62
     4
100
AcDbLine
 10
736.697382
 20
132.793639
 30
0.0
 11
736.697382
 21
118.482804
 31
0.0
  0
LINE
  5
600
330
1F
100
AcDbEntity
  8
GR1-1
  6
CONTINUOUS
 62
     4
100
AcDbLine
 10
749.197382
 20
132.793639
 30
0.0
 11
749.197382
 21
118.482804
 31
0.0
  0
INSERT
  5
604
330
1F
100
AcDbEntity
  8
0
100
AcDbBlockReference
  2
BLKF099
 10
0.0
 20
0.0
 30
0.0
  0
LINE
  5
60F
330
1F
100
AcDbEntity
  8
GR1-1
  6
CONTINUOUS
 62
     2
100
AcDbLine
 10
742.92559
 20
128.643115
 30
0.0
 11
744.903133
 21
129.116612
 31
0.0
  0
LINE
  5
610
330
1F
100
AcDbEntity
  8
GR1-1
  6
CONTINUOUS
 62
     2
100
AcDbLine
 10
744.018563
 20
120.084453
 30
0.0
 11
745.902803
 21
121.891785
 31
0.0
  0
LINE
  5
611
330
1F
100
AcDbEntity
  8
GR1-1
  6
CONTINUOUS
 62
     2
100
AcDbLine
 10
747.076172
 20
127.275052
 30
0.0
 11
744.497637
 21
121.534246
 31
0.0
  0
LINE
  5
612
330
1F
100
AcDbEntity
  8
GR1-1
  6
CONTINUOUS
 62
     4
100
AcDbLine
 10
736.697382
 20
118.482804
 30
0.0
 11
749.197382
 21
118.482804
 31
0.0
  0
LINE
  5
613
330
1F
100
AcDbEntity
  8
GR1-1
  6
CONTINUOUS
 62
     2
100
AcDbLine
 10
740.67943
 20
123.122366
 30
0.0
 11
741.780135
 21
121.925963
 31
0.0
  0
LINE
  5
614
330
1F
100
AcDbEntity
  8
GR1-1
  6
CONTINUOUS
 62
     2
100
AcDbLine
 10
739.633181
 20
124.112034
 30
0.0
 11
740.569841
 21
122.136068
 31
0.0
  0
LINE
  5
615
330
1F
100
AcDbEntity
  8
GR1-1
  6
CONTINUOUS
 62
     2
100
AcDbLine
 10
740.569841
 20
122.136068
 30
0.0
 11
740.888309
 21
118.68491
 31
0.0
  0
LINE
  5
616
330
1F
100
AcDbEntity
  8
GR1-1
  6
CONTINUOUS
 62
     2
100
AcDbLine
 10
741.769185
 20
119.670912
 30
0.0
 11
741.769185
 21
118.68491
 31
0.0
  0
LINE
  5
617
330
1F
100
AcDbEntity
  8
GR1-1
  6
CONTINUOUS
 62
     2
100
AcDbLine
 10
744.497637
 20
121.534246
 30
0.0
 11
741.835732
 21
120.536031
 31
0.0
  0
LINE
  5
618
330
1F
100
AcDbEntity
  8
GR1-1
  6
CONTINUOUS
 62
     2
100
AcDbLine
 10
742.700851
 20
120.170019
 30
0.0
 11
741.769185
 21
119.670912
 31
0.0
  0
LINE
  5
619
330
1F
100
AcDbEntity
  8
GR1-1
  6
CONTINUOUS
 62
     2
100
AcDbLine
 10
741.835732
 20
120.536031
 30
0.0
 11
741.780135
 21
121.925963
 31
0.0
  0
LINE
  5
61A
330
1F
100
AcDbEntity
  8
GR1-1
  6
CONTINUOUS
 62
     2
100
AcDbLine
 10
744.018563
 20
120.084453
 30
0.0
 11
742.700851
 21
120.170019
 31
0.0
  0
LINE
  5
61B
330
1F
100
AcDbEntity
  8
GR1-1
  6
CONTINUOUS
 62
     2
100
AcDbLine
 10
739.691974
 20
126.458263
 30
0.0
 11
741.20353
 21
127.689901
 31
0.0
  0
LINE
  5
61C
330
1F
100
AcDbEntity
  8
GR1-1
  6
CONTINUOUS
 62
     2
100
AcDbLine
 10
739.385507
 20
125.545273
 30
0.0
 11
736.979519
 21
127.307406
 31
0.0
  0
LINE
  5
61D
330
1F
100
AcDbEntity
  8
GR1-1
  6
CONTINUOUS
 62
     2
100
AcDbLine
 10
739.126635
 20
124.829568
 30
0.0
 11
736.877382
 21
124.635473
 31
0.0
  0
LINE
  5
61E
330
1F
100
AcDbEntity
  8
GR1-1
  6
CONTINUOUS
 62
     2
100
AcDbLine
 10
736.877382
 20
123.864713
 30
0.0
 11
738.522841
 21
124.247441
 31
0.0
  0
LINE
  5
61F
330
1F
100
AcDbEntity
  8
GR1-1
  6
CONTINUOUS
 62
     2
100
AcDbLine
 10
739.126635
 20
124.829568
 30
0.0
 11
739.385507
 21
125.545273
 31
0.0
  0
LINE
  5
620
330
1F
100
AcDbEntity
  8
GR1-1
  6
CONTINUOUS
 62
     2
100
AcDbLine
 10
738.522841
 20
124.247441
 30
0.0
 11
739.633181
 21
124.112034
 31
0.0
  0
LINE
  5
621
330
1F
100
AcDbEntity
  8
GR1-1
  6
CONTINUOUS
 62
     2
100
AcDbLine
 10
739.691974
 20
126.458263
 30
0.0
 11
736.877382
 21
128.677065
 31
0.0
  0
LINE
  5
622
330
1F
100
AcDbEntity
  8
GR1-1
  6
CONTINUOUS
 62
     2
100
AcDbLine
 10
736.979519
 20
127.307406
 30
0.0
 11
736.877382
 21
127.453802
 31
0.0
  0
LINE
  5
623
330
1F
100
AcDbEntity
  8
GR1-1
  6
CONTINUOUS
 62
     2
100
AcDbLine
 10
741.394953
 20
126.433913
 30
0.0
 11
739.939706
 21
125.040169
 31
0.0
  0
LINE
  5
624
330
1F
100
AcDbEntity
  8
GR1-1
  6
CONTINUOUS
 62
     2
100
AcDbLine
 10
739.939706
 20
125.040169
 30
0.0
 11
740.67943
 21
123.122366
 31
0.0
  0
LINE
  5
625
330
1F
100
AcDbEntity
  8
GR1-1
  6
CONTINUOUS
 62
     2
100
AcDbLine
 10
742.92559
 20
128.643115
 30
0.0
 11
742.146398
 21
127.595236
 31
0.0
  0
LINE
  5
626
330
1F
100
AcDbEntity
  8
GR1-1
  6
CONTINUOUS
 62
     2
100
AcDbLine
 10
741.20353
 20
127.689901
 30
0.0
 11
742.494974
 21
129.252098
 31
0.0
  0
LINE
  5
627
330
1F
100
AcDbEntity
  8
GR1-1
  6
CONTINUOUS
 62
     2
100
AcDbLine
 10
742.146398
 20
127.595236
 30
0.0
 11
741.394953
 21
126.433913
 31
0.0
  0
LINE
  5
628
330
1F
100
AcDbEntity
  8
GR1-1
  6
CONTINUOUS
 62
     2
100
AcDbLine
 10
747.678385
 20
121.309001
 30
0.0
 11
746.194832
 21
122.405115
 31
0.0
  0
LINE
  5
629
330
1F
100
AcDbEntity
  8
GR1-1
  6
CONTINUOUS
 62
     2
100
AcDbLine
 10
747.561719
 20
118.68491
 30
0.0
 11
747.497264
 21
119.989313
 31
0.0
  0
LINE
  5
62A
330
1F
100
AcDbEntity
  8
GR1-1
  6
CONTINUOUS
 62
     2
100
AcDbLine
 10
748.589626
 20
119.380111
 30
0.0
 11
748.668141
 21
118.68491
 31
0.0
  0
LINE
  5
62B
330
1F
100
AcDbEntity
  8
GR1-1
  6
CONTINUOUS
 62
     2
100
AcDbLine
 10
747.497264
 20
119.989313
 30
0.0
 11
745.902803
 21
121.891785
 31
0.0
  0
LINE
  5
62C
330
1F
100
AcDbEntity
  8
GR1-1
  6
CONTINUOUS
 62
     2
100
AcDbLine
 10
747.678385
 20
121.309001
 30
0.0
 11
748.589626
 21
119.380111
 31
0.0
  0
LINE
  5
62D
330
1F
100
AcDbEntity
  8
GR1-1
  6
CONTINUOUS
 62
     2
100
AcDbLine
 10
746.27886
 20
122.846261
 30
0.0
 11
747.589572
 21
126.379802
 31
0.0
  0
LINE
  5
62E
330
1F
100
AcDbEntity
  8
GR1-1
  6
CONTINUOUS
 62
     2
100
AcDbLine
 10
746.194832
 20
122.405115
 30
0.0
 11
746.27886
 21
122.846261
 31
0.0
  0
LINE
  5
62F
330
1F
100
AcDbEntity
  8
GR1-1
  6
CONTINUOUS
 62
     2
100
AcDbLine
 10
746.786341
 20
129.177854
 30
0.0
 11
747.076172
 21
127.275052
 31
0.0
  0
LINE
  5
630
330
1F
100
AcDbEntity
  8
GR1-1
  6
CONTINUOUS
 62
     2
100
AcDbLine
 10
744.903133
 20
129.116612
 30
0.0
 11
746.786341
 21
129.177854
 31
0.0
  0
LINE
  5
631
330
1F
100
AcDbEntity
  8
GR1-1
  6
CONTINUOUS
 62
     2
100
AcDbLine
 10
749.033533
 20
127.571909
 30
0.0
 11
747.899582
 21
127.583228
 31
0.0
  0
LINE
  5
632
330
1F
100
AcDbEntity
  8
GR1-1
  6
CONTINUOUS
 62
     2
100
AcDbLine
 10
747.589572
 20
126.379802
 30
0.0
 11
749.017382
 21
126.946664
 31
0.0
  0
LINE
  5
633
330
1F
100
AcDbEntity
  8
GR1-1
  6
CONTINUOUS
 62
     2
100
AcDbLine
 10
747.561288
 20
128.59811
 30
0.0
 11
747.899582
 21
127.583228
 31
0.0
  0
LINE
  5
634
330
1F
100
AcDbEntity
  8
GR1-1
  6
CONTINUOUS
 62
     2
100
AcDbLine
 10
744.030041
 20
129.452416
 30
0.0
 11
746.246353
 21
129.653899
 31
0.0
  0
LINE
  5
635
330
1F
100
AcDbEntity
  8
GR1-1
  6
CONTINUOUS
 62
     4
100
AcDbLine
 10
736.697382
 20
132.793639
 30
0.0
 11
749.197382
 21
132.793639
 31
0.0
  0
LINE
  5
636
330
1F
100
AcDbEntity
  8
GR1-1
  6
CONTINUOUS
 62
     2
100
AcDbLine
 10
742.485338
 20
131.198602
 30
0.0
 11
741.268616
 21
132.621231
 31
0.0
  0
LINE
  5
637
330
1F
100
AcDbEntity
  8
GR1-1
  6
CONTINUOUS
 62
     2
100
AcDbLine
 10
742.495947
 20
132.621231
 30
0.0
 11
743.089787
 21
131.80305
 31
0.0
  0
LINE
  5
638
330
1F
100
AcDbEntity
  8
GR1-1
  6
CONTINUOUS
 62
     2
100
AcDbLine
 10
743.156948
 20
129.586738
 30
0.0
 11
744.030041
 21
129.452416
 31
0.0
  0
LINE
  5
639
330
1F
100
AcDbEntity
  8
GR1-1
  6
CONTINUOUS
 62
     2
100
AcDbLine
 10
743.089787
 20
131.80305
 30
0.0
 11
743.156948
 21
129.586738
 31
0.0
  0
LINE
  5
63A
330
1F
100
AcDbEntity
  8
GR1-1
  6
CONTINUOUS
 62
     2
100
AcDbLine
 10
746.246353
 20
129.653899
 30
0.0
 11
749.017382
 21
131.371992
 31
0.0
  0
LINE
  5
63B
330
1F
100
AcDbEntity
  8
GR1-1
  6
CONTINUOUS
 62
     2
100
AcDbLine
 10
749.017382
 20
130.383178
 30
0.0
 11
747.755634
 21
129.882829
 31
0.0
  0
INSERT
  5
63F
330
1F
100
AcDbEntity
  8
0
100
AcDbBlockReference
  2
BLKF100
 10
0.0
 20
0.0
 30
0.0
  0
INSERT
  5
64D
330
1F
100
AcDbEntity
  8
0
100
AcDbBlockReference
  2
BLKF101
 10
0.0
 20
0.0
 30
0.0
  0
LINE
  5
659
330
1F
100
AcDbEntity
  8
GR1-1
  6
CONTINUOUS
 62
     4
100
AcDbLine
 10
786.204443
 20
98.588803
 30
0.0
 11
786.204443
 21
84.277968
 31
0.0
  0
LINE
  5
65A
330
1F
100
AcDbEntity
  8
GR1-1
  6
CONTINUOUS
 62
     4
100
AcDbLine
 10
798.704443
 20
98.588803
 30
0.0
 11
798.704443
 21
84.277968
 31
0.0
  0
LINE
  5
65B
330
1F
100
AcDbEntity
  8
GR1-1
  6
CONTINUOUS
 62
     4
100
AcDbLine
 10
794.854443
 20
98.588803
 30
0.0
 11
794.854443
 21
84.277968
 31
0.0
  0
LINE
  5
65C
330
1F
100
AcDbEntity
  8
GR1-1
  6
CONTINUOUS
 62
     4
100
AcDbLine
 10
794.454443
 20
98.588803
 30
0.0
 11
794.454443
 21
84.277968
 31
0.0
  0
LINE
  5
65D
330
1F
100
AcDbEntity
  8
GR1-1
  6
CONTINUOUS
 62
     4
100
AcDbLine
 10
790.054443
 20
98.588803
 30
0.0
 11
790.054443
 21
84.277968
 31
0.0
  0
LINE
  5
65E
330
1F
100
AcDbEntity
  8
GR1-1
  6
CONTINUOUS
 62
     4
100
AcDbLine
 10
790.454443
 20
98.588803
 30
0.0
 11
790.454443
 21
84.277968
 31
0.0
  0
ELLIPSE
  5
660
330
1F
100
AcDbEntity
  8
GR1-1
  6
HIDDEN2
 62
     2
100
AcDbEllipse
 10
786.204443
 20
88.357968
 30
0.0
 11
9.307008289050067E-17
 21
-1.52
 31
0.0
210
0.0
220
0.0
230
1.0
 40
0.657895
 41
0.0
 42
3.141592653589793
  0
ELLIPSE
  5
661
330
1F
100
AcDbEntity
  8
GR1-1
  6
HIDDEN2
 62
     2
100
AcDbEllipse
 10
798.704443
 20
88.357968
 30
0.0
 11
9.307008289050067E-17
 21
-1.52
 31
0.0
210
0.0
220
0.0
230
1.0
 40
0.657895
 41
3.141592653589793
 42
6.283185307179586
  0
LINE
  5
662
330
1F
100
AcDbEntity
  8
GR1-1
  6
CONTINUOUS
 62
     4
100
AcDbLine
 10
740.547382
 20
98.588803
 30
0.0
 11
740.547382
 21
84.277968
 31
0.0
  0
LINE
  5
663
330
1F
100
AcDbEntity
  8
GR1-1
  6
CONTINUOUS
 62
     4
100
AcDbLine
 10
745.347382
 20
98.588803
 30
0.0
 11
745.347382
 21
84.277968
 31
0.0
  0
LINE
  5
664
330
1F
100
AcDbEntity
  8
GR1-1
  6
CONTINUOUS
 62
     4
100
AcDbLine
 10
744.947382
 20
98.588803
 30
0.0
 11
744.947382
 21
84.277968
 31
0.0
  0
ELLIPSE
  5
665
330
1F
100
AcDbEntity
  8
GR1-1
  6
HIDDEN2
 62
     2
100
AcDbEllipse
 10
736.697382
 20
87.857968
 30
0.0
 11
9.307008289050067E-17
 21
-1.52
 31
0.0
210
0.0
220
0.0
230
1.0
 40
0.657895
 41
0.0
 42
3.141592653589793
  0
ELLIPSE
  5
666
330
1F
100
AcDbEntity
  8
GR1-1
  6
CONTINUOUS
 62
     4
100
AcDbEllipse
 10
736.697382
 20
88.257968
 30
0.0
 11
9.307008289050067E-17
 21
-1.52
 31
0.0
210
0.0
220
0.0
230
1.0
 40
0.657895
 41
0.0
 42
3.141592653589793
  0
ELLIPSE
  5
667
330
1F
100
AcDbEntity
  8
GR1-1
  6
HIDDEN2
 62
     2
100
AcDbEllipse
 10
749.197382
 20
87.857968
 30
0.0
 11
9.307008289050067E-17
 21
-1.52
 31
0.0
210
0.0
220
0.0
230
1.0
 40
0.657895
 41
3.141592653589793
 42
6.283185307179586
  0
ELLIPSE
  5
668
330
1F
100
AcDbEntity
  8
GR1-1
  6
CONTINUOUS
 62
     4
100
AcDbEllipse
 10
749.197382
 20
88.257968
 30
0.0
 11
9.307008289050067E-17
 21
-1.52
 31
0.0
210
0.0
220
0.0
230
1.0
 40
0.657895
 41
3.141592653589793
 42
6.283185307179586
  0
LINE
  5
669
330
1F
100
AcDbEntity
  8
GR1-1
  6
CONTINUOUS
 62
     4
100
AcDbLine
 10
740.947382
 20
98.588803
 30
0.0
 11
740.947382
 21
84.277968
 31
0.0
  0
LINE
  5
66A
330
1F
100
AcDbEntity
  8
GR1-1
  6
CONTINUOUS
 62
     4
100
AcDbLine
 10
736.697382
 20
98.588803
 30
0.0
 11
736.697382
 21
84.277968
 31
0.0
  0
LINE
  5
66B
330
1F
100
AcDbEntity
  8
GR1-1
  6
CONTINUOUS
 62
     4
100
AcDbLine
 10
749.197382
 20
98.588803
 30
0.0
 11
749.197382
 21
84.277968
 31
0.0
  0
INSERT
  5
66F
330
1F
100
AcDbEntity
  8
0
100
AcDbBlockReference
  2
BLKF102
 10
0.0
 20
0.0
 30
0.0
  0
INSERT
  5
67D
330
1F
100
AcDbEntity
  8
0
100
AcDbBlockReference
  2
BLKF103
 10
0.0
 20
0.0
 30
0.0
  0
LINE
  5
688
330
1F
100
AcDbEntity
  8
GR1-1
  6
CONTINUOUS
 62
     4
100
AcDbLine
 10
736.697382
 20
84.277968
 30
0.0
 11
749.197382
 21
84.277968
 31
0.0
  0
INSERT
  5
68C
330
1F
100
AcDbEntity
  8
0
100
AcDbBlockReference
  2
BLKF104
 10
0.0
 20
0.0
 30
0.0
  0
INSERT
  5
69A
330
1F
100
AcDbEntity
  8
0
100
AcDbBlockReference
  2
BLKF105
 10
0.0
 20
0.0
 30
0.0
  0
LINE
  5
6A5
330
1F
100
AcDbEntity
  8
GR1-1
  6
CONTINUOUS
 62
     4
100
AcDbLine
 10
740.947382
 20
84.517968
 30
0.0
 11
741.747382
 21
84.517968
 31
0.0
  0
LINE
  5
6A6
330
1F
100
AcDbEntity
  8
GR1-1
  6
CONTINUOUS
 62
     4
100
AcDbLine
 10
741.747382
 20
84.517968
 30
0.0
 11
741.847382
 21
84.277968
 31
0.0
  0
LINE
  5
6A7
330
1F
100
AcDbEntity
  8
GR1-1
  6
CONTINUOUS
 62
     4
100
AcDbLine
 10
744.947382
 20
84.517968
 30
0.0
 11
744.147382
 21
84.517968
 31
0.0
  0
LINE
  5
6A8
330
1F
100
AcDbEntity
  8
GR1-1
  6
CONTINUOUS
 62
     4
100
AcDbLine
 10
744.147382
 20
84.517968
 30
0.0
 11
744.047382
 21
84.277968
 31
0.0
  0
INSERT
  5
6AC
330
1F
100
AcDbEntity
  8
0
100
AcDbBlockReference
  2
BLKF106
 10
0.0
 20
0.0
 30
0.0
  0
INSERT
  5
6BB
330
1F
100
AcDbEntity
  8
0
100
AcDbBlockReference
  2
BLKF107
 10
0.0
 20
0.0
 30
0.0
  0
INSERT
  5
6C9
330
1F
100
AcDbEntity
  8
0
100
AcDbBlockReference
  2
BLKF108
 10
0.0
 20
0.0
 30
0.0
  0
LINE
  5
6D4
330
1F
100
AcDbEntity
  8
GR1-1
  6
CONTINUOUS
 62
     4
100
AcDbLine
 10
786.204443
 20
84.277968
 30
0.0
 11
798.704443
 21
84.277968
 31
0.0
  0
INSERT
  5
6D8
330
1F
100
AcDbEntity
  8
0
100
AcDbBlockReference
  2
BLKF109
 10
0.0
 20
0.0
 30
0.0
  0
INSERT
  5
6E6
330
1F
100
AcDbEntity
  8
0
100
AcDbBlockReference
  2
BLKF110
 10
0.0
 20
0.0
 30
0.0
  0
LINE
  5
6F1
330
1F
100
AcDbEntity
  8
GR1-1
  6
CONTINUOUS
 62
     4
100
AcDbLine
 10
792.029443
 20
84.517968
 30
0.0
 11
792.829443
 21
84.517968
 31
0.0
  0
LINE
  5
6F2
330
1F
100
AcDbEntity
  8
GR1-1
  6
CONTINUOUS
 62
     4
100
AcDbLine
 10
791.929443
 20
84.277968
 30
0.0
 11
792.029443
 21
84.517968
 31
0.0
  0
LINE
  5
6F3
330
1F
100
AcDbEntity
  8
GR1-1
  6
CONTINUOUS
 62
     4
100
AcDbLine
 10
792.829443
 20
84.517968
 30
0.0
 11
792.929443
 21
84.277968
 31
0.0
  0
LINE
  5
6F4
330
1F
100
AcDbEntity
  8
GR1-1
  6
CONTINUOUS
 62
     4
100
AcDbLine
 10
736.697382
 20
98.588803
 30
0.0
 11
749.197382
 21
98.588803
 31
0.0
  0
LINE
  5
6F5
330
1F
100
AcDbEntity
  8
GR1-1
  6
CONTINUOUS
 62
     4
100
AcDbLine
 10
744.947382
 20
87.833968
 30
0.0
 11
740.947382
 21
88.433386
 31
0.0
  0
INSERT
  5
6F9
330
1F
100
AcDbEntity
  8
0
100
AcDbBlockReference
  2
BLKF111
 10
0.0
 20
0.0
 30
0.0
  0
LINE
  5
705
330
1F
100
AcDbEntity
  8
GR1-1
  6
CONTINUOUS
 62
     4
100
AcDbLine
 10
744.947382
 20
95.033968
 30
0.0
 11
740.947382
 21
94.433386
 31
0.0
  0
TEXT
  5
706
330
1F
100
AcDbEntity
  8
GR1-1
  6
CONTINUOUS
 62
     4
100
AcDbText
 10
729.837891
 20
101.935742
 30
0.0
 40
2.0
  1
 C-C 断面図 
 41
0.746667
  7
FX_VECTOR
 72
     5
 11
743.27789
 21
101.935742
 31
0.0
100
AcDbText
  0
LINE
  5
707
330
1F
100
AcDbEntity
  8
GR1-1
  6
CONTINUOUS
 62
     4
100
AcDbLine
 10
729.837919
 20
101.735738
 30
0.0
 11
743.277919
 21
101.735738
 31
0.0
  0
LINE
  5
708
330
1F
100
AcDbEntity
  8
GR1-1
  6
CONTINUOUS
 62
     4
100
AcDbLine
 10
786.204443
 20
98.588803
 30
0.0
 11
798.704443
 21
98.588803
 31
0.0
  0
ELLIPSE
  5
709
330
1F
100
AcDbEntity
  8
GR1-1
  6
CONTINUOUS
 62
     4
100
AcDbEllipse
 10
786.204443
 20
88.757968
 30
0.0
 11
9.307008289050067E-17
 21
-1.52
 31
0.0
210
0.0
220
0.0
230
1.0
 40
0.657895
 41
0.0
 42
3.141592653589793
  0
LINE
  5
70A
330
1F
100
AcDbEntity
  8
GR1-1
  6
CONTINUOUS
 62
     4
100
AcDbLine
 10
794.454443
 20
87.833968
 30
0.0
 11
790.454443
 21
88.433386
 31
0.0
  0
ELLIPSE
  5
70B
330
1F
100
AcDbEntity
  8
GR1-1
  6
CONTINUOUS
 62
     4
100
AcDbEllipse
 10
798.704443
 20
88.757968
 30
0.0
 11
9.307008289050067E-17
 21
-1.52
 31
0.0
210
0.0
220
0.0
230
1.0
 40
0.657895
 41
3.141592653589793
 42
6.283185307179586
  0
LINE
  5
70C
330
1F
100
AcDbEntity
  8
GR1-1
  6
CONTINUOUS
 62
     4
100
AcDbLine
 10
794.454443
 20
95.033968
 30
0.0
 11
790.454443
 21
94.433386
 31
0.0
  0
TEXT
  5
70D
330
1F
100
AcDbEntity
  8
GR1-1
  6
CONTINUOUS
 62
     4
100
AcDbText
 10
779.345
 20
101.935742
 30
0.0
 40
2.0
  1
 D-D 断面図 
 41
0.746667
  7
FX_VECTOR
 72
     5
 11
792.785
 21
101.935742
 31
0.0
100
AcDbText
  0
LINE
  5
70E
330
1F
100
AcDbEntity
  8
GR1-1
  6
CONTINUOUS
 62
     4
100
AcDbLine
 10
779.34498
 20
101.735738
 30
0.0
 11
792.78498
 21
101.735738
 31
0.0
  0
ARC
  5
70F
330
1F
100
AcDbEntity
  8
GR1-1
  6
CONTINUOUS
 62
     4
100
AcDbCircle
 10
681.683933
 20
128.038222
 30
0.0
 40
0.6
100
AcDbArc
 50
90.0
 51
180.0
  0
ARC
  5
710
330
1F
100
AcDbEntity
  8
GR1-1
  6
CONTINUOUS
 62
     4
100
AcDbCircle
 10
683.645581
 20
128.038222
 30
0.0
 40
0.6
100
AcDbArc
 50
0.0
 51
90.0
  0
ARC
  5
711
330
1F
100
AcDbEntity
  8
GR1-1
  6
CONTINUOUS
 62
     4
100
AcDbCircle
 10
683.645581
 20
123.238222
 30
0.0
 40
0.6
100
AcDbArc
 50
270.0
 51
360.0
  0
ARC
  5
712
330
1F
100
AcDbEntity
  8
GR1-1
  6
CONTINUOUS
 62
     4
100
AcDbCircle
 10
681.683933
 20
123.238222
 30
0.0
 40
0.6
100
AcDbArc
 50
180.0
 51
270.0
  0
ARC
  5
713
330
1F
100
AcDbEntity
  8
GR1-1
  6
CONTINUOUS
 62
     4
100
AcDbCircle
 10
690.045581
 20
128.038222
 30
0.0
 40
0.6
100
AcDbArc
 50
90.0
 51
180.0
  0
ARC
  5
714
330
1F
100
AcDbEntity
  8
GR1-1
  6
CONTINUOUS
 62
     4
100
AcDbCircle
 10
690.045581
 20
123.238222
 30
0.0
 40
0.6
100
AcDbArc
 50
180.0
 51
270.0
  0
ARC
  5
715
330
1F
100
AcDbEntity
  8
GR1-1
  6
CONTINUOUS
 62
     4
100
AcDbCircle
 10
708.777739
 20
128.038222
 30
0.0
 40
0.6
100
AcDbArc
 50
0.0
 51
90.0
  0
ARC
  5
716
330
1F
100
AcDbEntity
  8
GR1-1
  6
CONTINUOUS
 62
     4
100
AcDbCircle
 10
708.777739
 20
123.238222
 30
0.0
 40
0.6
100
AcDbArc
 50
270.0
 51
360.0
  0
LINE
  5
717
330
1F
100
AcDbEntity
  8
GR1-1
  6
CONTINUOUS
 62
     4
100
AcDbLine
 10
808.985222
 20
122.038222
 30
0.0
 11
789.053064
 21
122.038222
 31
0.0
  0
LINE
  5
718
330
1F
100
AcDbEntity
  8
GR1-1
  6
CONTINUOUS
 62
     4
100
AcDbLine
 10
808.985222
 20
129.238222
 30
0.0
 11
789.053064
 21
129.238222
 31
0.0
  0
LINE
  5
719
330
1F
100
AcDbEntity
  8
GR1-1
  6
CONTINUOUS
 62
     4
100
AcDbLine
 10
808.385222
 20
122.638222
 30
0.0
 11
789.653064
 21
122.638222
 31
0.0
  0
LINE
  5
71A
330
1F
100
AcDbEntity
  8
GR1-1
  6
CONTINUOUS
 62
     4
100
AcDbLine
 10
808.385222
 20
128.638222
 30
0.0
 11
789.653064
 21
128.638222
 31
0.0
  0
ARC
  5
71B
330
1F
100
AcDbEntity
  8
GR1-1
  6
CONTINUOUS
 62
     4
100
AcDbCircle
 10
789.053064
 20
128.638222
 30
0.0
 40
0.6
100
AcDbArc
 50
90.0
 51
180.0
  0
LINE
  5
71C
330
1F
100
AcDbEntity
  8
GR1-1
  6
CONTINUOUS
 62
     4
100
AcDbLine
 10
789.053064
 20
129.238222
 30
0.0
 11
789.653064
 21
128.638222
 31
0.0
  0
ARC
  5
71D
330
1F
100
AcDbEntity
  8
GR1-1
  6
CONTINUOUS
 62
     4
100
AcDbCircle
 10
789.053064
 20
122.638222
 30
0.0
 40
0.6
100
AcDbArc
 50
180.0
 51
270.0
  0
LINE
  5
71E
330
1F
100
AcDbEntity
  8
GR1-1
  6
CONTINUOUS
 62
     4
100
AcDbLine
 10
789.053064
 20
122.038222
 30
0.0
 11
789.653064
 21
122.638222
 31
0.0
  0
ARC
  5
71F
330
1F
100
AcDbEntity
  8
GR1-1
  6
CONTINUOUS
 62
     4
100
AcDbCircle
 10
789.653064
 20
128.038222
 30
0.0
 40
0.6
100
AcDbArc
 50
90.0
 51
180.0
  0
ARC
  5
720
330
1F
100
AcDbEntity
  8
GR1-1
  6
CONTINUOUS
 62
     4
100
AcDbCircle
 10
789.653064
 20
123.238222
 30
0.0
 40
0.6
100
AcDbArc
 50
180.0
 51
270.0
  0
LINE
  5
721
330
1F
100
AcDbEntity
  8
GR1-1
  6
CONTINUOUS
 62
     4
100
AcDbLine
 10
789.053064
 20
123.238222
 30
0.0
 11
789.053064
 21
128.038222
 31
0.0
  0
LINE
  5
722
330
1F
100
AcDbEntity
  8
GR1-1
  6
CONTINUOUS
 62
     4
100
AcDbLine
 10
788.453064
 20
122.638222
 30
0.0
 11
788.453064
 21
128.638222
 31
0.0
  0
LINE
  5
723
330
1F
100
AcDbEntity
  8
GR1-1
  6
CONTINUOUS
 62
     4
100
AcDbLine
 10
788.453064
 20
122.638222
 30
0.0
 11
789.053064
 21
123.238222
 31
0.0
  0
LINE
  5
724
330
1F
100
AcDbEntity
  8
GR1-1
  6
CONTINUOUS
 62
     4
100
AcDbLine
 10
788.453064
 20
128.638222
 30
0.0
 11
789.053064
 21
128.038222
 31
0.0
  0
INSERT
  5
728
330
1F
100
AcDbEntity
  8
0
100
AcDbBlockReference
  2
BLKF112
 10
0.0
 20
0.0
 30
0.0
  0
ARC
  5
72D
330
1F
100
AcDbEntity
  8
GR1-1
  6
CONTINUOUS
 62
     4
100
AcDbCircle
 10
817.346871
 20
128.638222
 30
0.0
 40
0.6
100
AcDbArc
 50
0.0
 51
90.0
  0
LINE
  5
72E
330
1F
100
AcDbEntity
  8
GR1-1
  6
CONTINUOUS
 62
     4
100
AcDbLine
 10
817.346871
 20
129.238222
 30
0.0
 11
816.746871
 21
128.638222
 31
0.0
  0
ARC
  5
72F
330
1F
100
AcDbEntity
  8
GR1-1
  6
CONTINUOUS
 62
     4
100
AcDbCircle
 10
814.185222
 20
128.638222
 30
0.0
 40
0.6
100
AcDbArc
 50
90.0
 51
180.0
  0
LINE
  5
730
330
1F
100
AcDbEntity
  8
GR1-1
  6
CONTINUOUS
 62
     4
100
AcDbLine
 10
814.185222
 20
129.238222
 30
0.0
 11
814.785222
 21
128.638222
 31
0.0
  0
ARC
  5
731
330
1F
100
AcDbEntity
  8
GR1-1
  6
CONTINUOUS
 62
     4
100
AcDbCircle
 10
808.985222
 20
128.638222
 30
0.0
 40
0.6
100
AcDbArc
 50
0.0
 51
90.0
  0
LINE
  5
732
330
1F
100
AcDbEntity
  8
GR1-1
  6
CONTINUOUS
 62
     4
100
AcDbLine
 10
808.985222
 20
129.238222
 30
0.0
 11
808.385222
 21
128.638222
 31
0.0
  0
INSERT
  5
736
330
1F
100
AcDbEntity
  8
0
100
AcDbBlockReference
  2
BLKF113
 10
0.0
 20
0.0
 30
0.0
  0
LINE
  5
73B
330
1F
100
AcDbEntity
  8
GR1-1
  6
CONTINUOUS
 62
     4
100
AcDbLine
 10
816.746871
 20
122.638222
 30
0.0
 11
817.346871
 21
122.038222
 31
0.0
  0
ARC
  5
73C
330
1F
100
AcDbEntity
  8
GR1-1
  6
CONTINUOUS
 62
     4
100
AcDbCircle
 10
817.346871
 20
122.638222
 30
0.0
 40
0.6
100
AcDbArc
 50
270.0
 51
360.0
  0
LINE
  5
73D
330
1F
100
AcDbEntity
  8
GR1-1
  6
CONTINUOUS
 62
     4
100
AcDbLine
 10
814.185222
 20
122.038222
 30
0.0
 11
814.785222
 21
122.638222
 31
0.0
  0
ARC
  5
73E
330
1F
100
AcDbEntity
  8
GR1-1
  6
CONTINUOUS
 62
     4
100
AcDbCircle
 10
814.185222
 20
122.638222
 30
0.0
 40
0.6
100
AcDbArc
 50
180.0
 51
270.0
  0
LINE
  5
73F
330
1F
100
AcDbEntity
  8
GR1-1
  6
CONTINUOUS
 62
     4
100
AcDbLine
 10
808.385222
 20
122.638222
 30
0.0
 11
808.985222
 21
122.038222
 31
0.0
  0
ARC
  5
740
330
1F
100
AcDbEntity
  8
GR1-1
  6
CONTINUOUS
 62
     4
100
AcDbCircle
 10
808.985222
 20
122.638222
 30
0.0
 40
0.6
100
AcDbArc
 50
270.0
 51
360.0
  0
LINE
  5
741
330
1F
100
AcDbEntity
  8
GR1-1
  6
CONTINUOUS
 62
     4
100
AcDbLine
 10
814.185222
 20
122.038222
 30
0.0
 11
817.346871
 21
122.038222
 31
0.0
  0
LINE
  5
742
330
1F
100
AcDbEntity
  8
GR1-1
  6
CONTINUOUS
 62
     4
100
AcDbLine
 10
809.585222
 20
128.638222
 30
0.0
 11
809.585222
 21
122.638222
 31
0.0
  0
LINE
  5
743
330
1F
100
AcDbEntity
  8
GR1-1
  6
CONTINUOUS
 62
     4
100
AcDbLine
 10
808.985222
 20
128.038222
 30
0.0
 11
808.985222
 21
123.238222
 31
0.0
  0
ARC
  5
744
330
1F
100
AcDbEntity
  8
GR1-1
  6
CONTINUOUS
 62
     4
100
AcDbCircle
 10
808.385222
 20
123.238222
 30
0.0
 40
0.6
100
AcDbArc
 50
270.0
 51
360.0
  0
LINE
  5
745
330
1F
100
AcDbEntity
  8
GR1-1
  6
CONTINUOUS
 62
     4
100
AcDbLine
 10
809.585222
 20
122.638222
 30
0.0
 11
808.985222
 21
123.238222
 31
0.0
  0
ARC
  5
746
330
1F
100
AcDbEntity
  8
GR1-1
  6
CONTINUOUS
 62
     4
100
AcDbCircle
 10
808.385222
 20
128.038222
 30
0.0
 40
0.6
100
AcDbArc
 50
0.0
 51
90.0
  0
LINE
  5
747
330
1F
100
AcDbEntity
  8
GR1-1
  6
CONTINUOUS
 62
     4
100
AcDbLine
 10
808.985222
 20
128.038222
 30
0.0
 11
809.585222
 21
128.638222
 31
0.0
  0
LINE
  5
748
330
1F
100
AcDbEntity
  8
GR1-1
  6
CONTINUOUS
 62
     4
100
AcDbLine
 10
817.946871
 20
122.638222
 30
0.0
 11
817.946871
 21
128.638222
 31
0.0
  0
LINE
  5
749
330
1F
100
AcDbEntity
  8
GR1-1
  6
CONTINUOUS
 62
     4
100
AcDbLine
 10
817.346871
 20
123.238222
 30
0.0
 11
817.346871
 21
128.038222
 31
0.0
  0
LINE
  5
74A
330
1F
100
AcDbEntity
  8
GR1-1
  6
CONTINUOUS
 62
     4
100
AcDbLine
 10
813.585222
 20
128.638222
 30
0.0
 11
813.585222
 21
122.638222
 31
0.0
  0
LINE
  5
74B
330
1F
100
AcDbEntity
  8
GR1-1
  6
CONTINUOUS
 62
     4
100
AcDbLine
 10
814.185222
 20
128.038222
 30
0.0
 11
814.185222
 21
123.238222
 31
0.0
  0
LINE
  5
74C
330
1F
100
AcDbEntity
  8
GR1-1
  6
CONTINUOUS
 62
     4
100
AcDbLine
 10
814.785222
 20
122.638222
 30
0.0
 11
816.746871
 21
122.638222
 31
0.0
  0
ARC
  5
74D
330
1F
100
AcDbEntity
  8
GR1-1
  6
CONTINUOUS
 62
     4
100
AcDbCircle
 10
814.785222
 20
123.238222
 30
0.0
 40
0.6
100
AcDbArc
 50
180.0
 51
270.0
  0
LINE
  5
74E
330
1F
100
AcDbEntity
  8
GR1-1
  6
CONTINUOUS
 62
     4
100
AcDbLine
 10
813.585222
 20
122.638222
 30
0.0
 11
814.185222
 21
123.238222
 31
0.0
  0
LINE
  5
74F
330
1F
100
AcDbEntity
  8
GR1-1
  6
CONTINUOUS
 62
     4
100
AcDbLine
 10
817.946871
 20
122.638222
 30
0.0
 11
817.346871
 21
123.238222
 31
0.0
  0
ARC
  5
750
330
1F
100
AcDbEntity
  8
GR1-1
  6
CONTINUOUS
 62
     4
100
AcDbCircle
 10
816.746871
 20
123.238222
 30
0.0
 40
0.6
100
AcDbArc
 50
270.0
 51
360.0
  0
LINE
  5
751
330
1F
100
AcDbEntity
  8
GR1-1
  6
CONTINUOUS
 62
     4
100
AcDbLine
 10
814.785222
 20
128.638222
 30
0.0
 11
816.746871
 21
128.638222
 31
0.0
  0
ARC
  5
752
330
1F
100
AcDbEntity
  8
GR1-1
  6
CONTINUOUS
 62
     4
100
AcDbCircle
 10
814.785222
 20
128.038222
 30
0.0
 40
0.6
100
AcDbArc
 50
90.0
 51
180.0
  0
LINE
  5
753
330
1F
100
AcDbEntity
  8
GR1-1
  6
CONTINUOUS
 62
     4
100
AcDbLine
 10
813.585222
 20
128.638222
 30
0.0
 11
814.185222
 21
128.038222
 31
0.0
  0
LINE
  5
754
330
1F
100
AcDbEntity
  8
GR1-1
  6
CONTINUOUS
 62
     4
100
AcDbLine
 10
817.346871
 20
128.038222
 30
0.0
 11
817.946871
 21
128.638222
 31
0.0
  0
ARC
  5
755
330
1F
100
AcDbEntity
  8
GR1-1
  6
CONTINUOUS
 62
     4
100
AcDbCircle
 10
816.746871
 20
128.038222
 30
0.0
 40
0.6
100
AcDbArc
 50
0.0
 51
90.0
  0
LINE
  5
756
330
1F
100
AcDbEntity
  8
GR1-1
  6
CONTINUOUS
 62
     4
100
AcDbLine
 10
814.185222
 20
129.238222
 30
0.0
 11
817.346871
 21
129.238222
 31
0.0
  0
INSERT
  5
75A
330
1F
100
AcDbEntity
  8
0
100
AcDbBlockReference
  2
BLKF114
 10
0.0
 20
0.0
 30
0.0
  0
LINE
  5
75F
330
1F
100
AcDbEntity
  8
GR1-1
  6
CONTINUOUS
 62
     2
100
AcDbLine
 10
752.926758
 20
175.025816
 30
0.0
 11
763.358181
 21
175.025816
 31
0.0
  0
INSERT
  5
763
330
1F
100
AcDbEntity
  8
0
100
AcDbBlockReference
  2
BLKF115
 10
0.0
 20
0.0
 30
0.0
  0
TEXT
  5
768
330
1F
100
AcDbEntity
  8
GR1-1
  6
CONTINUOUS
 62
     4
100
AcDbText
 10
754.795469
 20
173.23125
 30
0.0
 40
1.5
  1
LKP-75
 41
0.7
  7
FX_VECTOR
 72
     5
 11
761.095469
 21
173.23125
 31
0.0
100
AcDbText
  0
LINE
  5
769
330
1F
100
AcDbEntity
  8
GR1-1
  6
CONTINUOUS
 62
     2
100
AcDbLine
 10
804.572338
 20
147.26326
 30
0.0
 11
807.578411
 21
147.26326
 31
0.0
  0
INSERT
  5
76A
330
1F
100
AcDbEntity
  8
GR1-1
  6
CONTINUOUS
 62
     2
100
AcDbBlockReference
  2
FXTIP_ARROW_S
 10
804.572338
 20
147.26326
 30
0.0
 41
2.0
 42
2.0
 50
180.0
  0
LINE
  5
76B
330
1F
100
AcDbEntity
  8
GR1-1
  6
CONTINUOUS
 62
     2
100
AcDbLine
 10
810.584483
 20
147.26326
 30
0.0
 11
807.578411
 21
147.26326
 31
0.0
  0
INSERT
  5
76C
330
1F
100
AcDbEntity
  8
GR1-1
  6
CONTINUOUS
 62
     2
100
AcDbBlockReference
  2
FXTIP_ARROW_S
 10
810.584483
 20
147.26326
 30
0.0
 41
2.0
 42
2.0
  0
ENDSEC
  0
SECTION
  2
OBJECTS
  0
DICTIONARY
  5
C
330
0
100
AcDbDictionary
  3
ACAD_GROUP
350
D
  3
ACAD_LAYOUT
350
1A
  3
ACAD_MLINESTYLE
350
17
  3
ACAD_PLOTSETTINGS
350
19
1001
ACAD
1000
TREAT_AS_HARD
1070
     0
  0
DICTIONARY
  5
773
330
29
100
AcDbDictionary
  3
ACAD_XREC_ROUNDTRIP
360
774
  0
DICTIONARY
  5
D
102
{ACAD_REACTORS
330
C
102
}
330
C
100
AcDbDictionary
1001
ACAD
1000
TREAT_AS_HARD
1070
     0
  0
DICTIONARY
  5
1A
102
{ACAD_REACTORS
330
C
102
}
330
C
100
AcDbDictionary
1001
ACAD
1000
TREAT_AS_HARD
1070
     0
  0
DICTIONARY
  5
17
102
{ACAD_REACTORS
330
C
102
}
330
C
100
AcDbDictionary
  3
STANDARD
350
18
1001
ACAD
1000
TREAT_AS_HARD
1070
     0
  0
DICTIONARY
  5
19
102
{ACAD_REACTORS
330
C
102
}
330
C
100
AcDbDictionary
1001
ACAD
1000
TREAT_AS_HARD
1070
     0
  0
XRECORD
  5
774
102
{ACAD_REACTORS
330
773
102
}
330
773
100
AcDbXrecord
102
UCS
 74
     0
 71
     1
 10
0.0
 20
0.0
 30
0.0
 10
1.0
 20
0.0
 30
0.0
 10
0.0
 20
1.0
 30
0.0
146
0.0
 79
     0
102
VIEW
281
     0
  0
MLINESTYLE
  5
18
102
{ACAD_REACTORS
330
17
102
}
330
17
100
AcDbMlineStyle
  2
Standard
 70
     0
  3

 62
   256
 51
90.0
 52
90.0
 71
     2
 49
0.5
 62
   256
  6
BYLAYER
 49
-0.5
 62
   256
  6
BYLAYER
  0
ENDSEC
  0
EOF
