  0
SECTION
  2
HEADER
  9
$ACADVER
  1
AC1012
  9
$DWGCODEPAGE
  3
ansi_932
  9
$INSBASE
 10
591.720957
 20
8.11036
 30
0.0
  9
$EXTMIN
 10
591.720957
 20
8.11036
 30
0.0
  9
$EXTMAX
 10
962.970964
 20
270.610366
 30
0.0
  9
$LIMMIN
 10
591.720957
 20
8.11036
  9
$LIMMAX
 10
962.970964
 20
270.610366
  9
$ORTHOMODE
 70
     0
  9
$REGENMODE
 70
     1
  9
$FILLMODE
 70
     1
  9
$QTEXTMODE
 70
     0
  9
$MIRRTEXT
 70
     1
  9
$DRAGMODE
 70
     2
  9
$LTSCALE
 40
1.0
  9
$OSMODE
 70
    37
  9
$ATTMODE
 70
     1
  9
$TEXTSIZE
 40
0.2
  9
$TRACEWID
 40
0.05
  9
$TEXTSTYLE
  7
STYLE1
  9
$CLAYER
  8
0
  9
$CELTYPE
  6
BYLAYER
  9
$CECOLOR
 62
   256
  9
$CELTSCALE
 40
1.0
  9
$DELOBJ
 70
     1
  9
$DISPSILH
 70
     0
  9
$DIMSCALE
 40
1.0
  9
$DIMASZ
 40
2.0
  9
$DIMEXO
 40
2.0
  9
$DIMDLI
 40
7.0
  9
$DIMRND
 40
0.0
  9
$DIMDLE
 40
6.0
  9
$DIMEXE
 40
1.0
  9
$DIMTP
 40
0.0
  9
$DIMTM
 40
0.0
  9
$DIMTXT
 40
3.5
  9
$DIMCEN
 40
2.5
  9
$DIMTSZ
 40
0.0
  9
$DIMTOL
 70
     0
  9
$DIMLIM
 70
     0
  9
$DIMTIH
 70
     0
  9
$DIMTOH
 70
     0
  9
$DIMSE1
 70
     0
  9
$DIMSE2
 70
     0
  9
$DIMTAD
 70
     1
  9
$DIMZIN
 70
     8
  9
$DIMBLK
  1

  9
$DIMASO
 70
     1
  9
$DIMSHO
 70
     1
  9
$DIMPOST
  1

  9
$DIMAPOST
  1

  9
$DIMALT
 70
     0
  9
$DIMALTD
 70
     3
  9
$DIMALTF
 40
0.03937
  9
$DIMLFAC
 40
1.0
  9
$DIMTOFL
 70
     1
  9
$DIMTVP
 40
0.0
  9
$DIMTIX
 70
     0
  9
$DIMSOXD
 70
     0
  9
$DIMSAH
 70
     1
  9
$DIMBLK1
  1
FXTIP_ARROW_S
  9
$DIMBLK2
  1
FXTIP_ARROW_E
  9
$DIMSTYLE
  2
FXDIMINFO
  9
$DIMCLRD
 70
     7
  9
$DIMCLRE
 70
     7
  9
$DIMCLRT
 70
     7
  9
$DIMTFAC
 40
1.0
  9
$DIMGAP
 40
1.0
  9
$DIMJUST
 70
     0
  9
$DIMSD1
 70
     0
  9
$DIMSD2
 70
     0
  9
$DIMTOLJ
 70
     0
  9
$DIMTZIN
 70
     8
  9
$DIMALTZ
 70
     0
  9
$DIMALTTZ
 70
     0
  9
$DIMFIT
 70
     3
  9
$DIMUPT
 70
     0
  9
$DIMUNIT
 70
     2
  9
$DIMDEC
 70
     2
  9
$DIMTDEC
 70
     2
  9
$DIMALTU
 70
     2
  9
$DIMALTTD
 70
     3
  9
$DIMTXSTY
  7
STYLE1
  9
$DIMAUNIT
 70
     0
  9
$LUNITS
 70
     2
  9
$LUPREC
 70
     4
  9
$SKETCHINC
 40
0.1
  9
$FILLETRAD
 40
0.5
  9
$AUNITS
 70
     0
  9
$AUPREC
 70
     0
  9
$MENU
  1
.
  9
$ELEVATION
 40
0.0
  9
$PELEVATION
 40
0.0
  9
$THICKNESS
 40
0.0
  9
$LIMCHECK
 70
     0
  9
$CHAMFERA
 40
0.5
  9
$CHAMFERB
 40
0.5
  9
$CHAMFERC
 40
1.0
  9
$CHAMFERD
 40
0.0
  9
$SKPOLY
 70
     0
  9
$TDCREATE
 40
2455587.723227535
  9
$TDUPDATE
 40
2455587.723227546
  9
$TDINDWG
 40
0.0000000116
  9
$TDUSRTIMER
 40
0.0000000116
  9
$USRTIMER
 70
     1
  9
$ANGBASE
 50
0.0
  9
$ANGDIR
 70
     0
  9
$PDMODE
 70
     0
  9
$PDSIZE
 40
0.0
  9
$PLINEWID
 40
0.0
  9
$COORDS
 70
     1
  9
$SPLFRAME
 70
     0
  9
$SPLINETYPE
 70
     6
  9
$SPLINESEGS
 70
     8
  9
$ATTDIA
 70
     0
  9
$ATTREQ
 70
     1
  9
$HANDLING
 70
     1
  9
$HANDSEED
  5
767
  9
$SURFTAB1
 70
     6
  9
$SURFTAB2
 70
     6
  9
$SURFTYPE
 70
     6
  9
$SURFU
 70
     6
  9
$SURFV
 70
     6
  9
$UCSNAME
  2

  9
$UCSORG
 10
0.0
 20
0.0
 30
0.0
  9
$UCSXDIR
 10
1.0
 20
0.0
 30
0.0
  9
$UCSYDIR
 10
0.0
 20
1.0
 30
0.0
  9
$PUCSNAME
  2

  9
$PUCSORG
 10
0.0
 20
0.0
 30
0.0
  9
$PUCSXDIR
 10
1.0
 20
0.0
 30
0.0
  9
$PUCSYDIR
 10
0.0
 20
1.0
 30
0.0
  9
$USERI1
 70
     0
  9
$USERI2
 70
     0
  9
$USERI3
 70
     0
  9
$USERI4
 70
     0
  9
$USERI5
 70
     0
  9
$USERR1
 40
0.0
  9
$USERR2
 40
0.0
  9
$USERR3
 40
0.0
  9
$USERR4
 40
0.0
  9
$USERR5
 40
0.0
  9
$WORLDVIEW
 70
     1
  9
$SHADEDGE
 70
     3
  9
$SHADEDIF
 70
    70
  9
$TILEMODE
 70
     1
  9
$MAXACTVP
 70
    64
  9
$PINSBASE
 10
0.0
 20
0.0
 30
0.0
  9
$PLIMCHECK
 70
     0
  9
$PEXTMIN
 10
1.000000E+20
 20
1.000000E+20
 30
1.000000E+20
  9
$PEXTMAX
 10
-1.000000E+20
 20
-1.000000E+20
 30
-1.000000E+20
  9
$PLIMMIN
 10
0.0
 20
0.0
  9
$PLIMMAX
 10
12.0
 20
9.0
  9
$UNITMODE
 70
     0
  9
$VISRETAIN
 70
     1
  9
$PLINEGEN
 70
     0
  9
$PSLTSCALE
 70
     1
  9
$TREEDEPTH
 70
  3020
  9
$PICKSTYLE
 70
     1
  9
$CMLSTYLE
  2
STANDARD
  9
$CMLJUST
 70
     0
  9
$CMLSCALE
 40
1.0
  9
$SAVEIMAGES
 70
     1
  0
ENDSEC
  0
SECTION
  2
CLASSES
  0
CLASS
  1
ACDBDICTIONARYWDFLT
  2
AcDbDictionaryWithDefault
  3
ObjectDBX Classes
 90
        0
280
     0
281
     0
  0
CLASS
  1
XRECORD
  2
AcDbXrecord
  3
AutoCAD 2000
 90
    32768
280
     0
281
     0
  0
CLASS
  1
LWPOLYLINE
  2
AcDbPolyline
  3
AutoCAD 2000
 90
    32768
280
     0
281
     1
  0
CLASS
  1
HATCH
  2
AcDbHatch
  3
AutoCAD 2000
 90
    32768
280
     0
281
     1
  0
CLASS
  1
ACDBPLACEHOLDER
  2
AcDbPlaceHolder
  3
ObjectDBX Classes
 90
        0
280
     0
281
     0
  0
CLASS
  1
LAYOUT
  2
AcDbLayout
  3
ObjectDBX Classes
 90
        0
280
     0
281
     0
  0
ENDSEC
  0
SECTION
  2
TABLES
  0
TABLE
  2
VPORT
  5
8
330
0
100
AcDbSymbolTable
 70
     1
  0
VPORT
  5
29
102
{ACAD_XDICTIONARY
360
765
102
}
330
8
100
AcDbSymbolTableRecord
100
AcDbViewportTableRecord
  2
*ACTIVE
 70
     0
 10
0.0
 20
0.0
 11
1.0
 21
1.0
 12
777.34596
 22
139.360363
 13
0.0
 23
0.0
 14
0.5
 24
0.5
 15
0.5
 25
0.5
 16
0.0
 26
0.0
 36
1.0
 17
0.0
 27
0.0
 37
0.0
 40
262.500005
 41
1.414286
 42
50.0
 43
0.0
 44
0.0
 50
0.0
 51
0.0
 71
     0
 72
   100
 73
     1
 74
     3
 75
     0
 76
     0
 77
     0
 78
     0
  0
ENDTAB
  0
TABLE
  2
LTYPE
  5
5
330
0
100
AcDbSymbolTable
 70
     6
  0
LTYPE
  5
14
330
5
100
AcDbSymbolTableRecord
100
AcDbLinetypeTableRecord
  2
BYBLOCK
 70
     0
  3

 72
    65
 73
     0
 40
0.0
  0
LTYPE
  5
15
330
5
100
AcDbSymbolTableRecord
100
AcDbLinetypeTableRecord
  2
BYLAYER
 70
     0
  3

 72
    65
 73
     0
 40
0.0
  0
LTYPE
  5
16
330
5
100
AcDbSymbolTableRecord
100
AcDbLinetypeTableRecord
  2
CONTINUOUS
 70
     0
  3
--------------------
 72
    65
 73
     0
 40
0.0
  0
LTYPE
  5
A6
330
5
100
AcDbSymbolTableRecord
100
AcDbLinetypeTableRecord
  2
極太の実線
 70
     0
  3

 72
    65
 73
     0
 40
0.0
  0
LTYPE
  5
AF
330
5
100
AcDbSymbolTableRecord
100
AcDbLinetypeTableRecord
  2
太い実線
 70
     0
  3

 72
    65
 73
     0
 40
0.0
  0
LTYPE
  5
B6
330
5
100
AcDbSymbolTableRecord
100
AcDbLinetypeTableRecord
  2
細い実線
 70
     0
  3

 72
    65
 73
     0
 40
0.0
  0
LTYPE
  5
CC
330
5
100
AcDbSymbolTableRecord
100
AcDbLinetypeTableRecord
  2
020-1-CENTER2
 70
     0
  3

 72
    65
 73
     4
 40
1.0
 49
0.7
 74
     0
 49
-0.1
 74
     0
 49
0.1
 74
     0
 49
-0.1
 74
     0
  0
LTYPE
  5
64E
330
5
100
AcDbSymbolTableRecord
100
AcDbLinetypeTableRecord
  2
HIDDEN2
 70
     0
  3

 72
    65
 73
     2
 40
0.2
 49
0.1
 74
     0
 49
-0.1
 74
     0
  0
ENDTAB
  0
TABLE
  2
LAYER
  5
2
330
0
100
AcDbSymbolTable
 70
    19
  0
LAYER
  5
10
330
2
100
AcDbSymbolTableRecord
100
AcDbLayerTableRecord
  2
0
 70
     0
 62
     7
  6
CONTINUOUS
  0
LAYER
  5
A5
330
2
100
AcDbSymbolTableRecord
100
AcDbLayerTableRecord
  2
GR1-1
 70
     0
 62
     7
  6
CONTINUOUS
  0
ENDTAB
  0
TABLE
  2
STYLE
  5
3
330
0
100
AcDbSymbolTable
 70
     4
  0
STYLE
  5
11
330
3
100
AcDbSymbolTableRecord
100
AcDbTextStyleTableRecord
  2
STANDARD
 70
     0
 40
0.0
 41
1.0
 50
0.0
 71
     0
 42
0.2
  3
txt
  4

  0
STYLE
  5
3C
330
3
100
AcDbSymbolTableRecord
100
AcDbTextStyleTableRecord
  2
STYLE1
 70
     0
 40
0.0
 41
1.0
 50
0.0
 71
     0
 42
0.2
  3
MONOTXT.SHX
  4
extfont.shx
  0
STYLE
  5
3D
330
3
100
AcDbSymbolTableRecord
100
AcDbTextStyleTableRecord
  2
FX_VECTOR
 70
     0
 40
0.0
 41
1.0
 50
0.0
 71
     0
 42
0.2
  3
MONOTXT.SHX
  4
BIGFONT.SHX
  0
ENDTAB
  0
TABLE
  2
VIEW
  5
6
330
0
100
AcDbSymbolTable
 70
     0
  0
ENDTAB
  0
TABLE
  2
UCS
  5
7
330
0
100
AcDbSymbolTable
 70
     0
  0
ENDTAB
  0
TABLE
  2
APPID
  5
9
330
0
100
AcDbSymbolTable
 70
     1
  0
APPID
  5
12
330
9
100
AcDbSymbolTableRecord
100
AcDbRegAppTableRecord
  2
ACAD
 70
     0
  0
ENDTAB
  0
TABLE
  2
DIMSTYLE
  5
A
330
0
100
AcDbSymbolTable
 70
     2
  0
DIMSTYLE
105
27
330
A
100
AcDbSymbolTableRecord
100
AcDbDimStyleTableRecord
  2
STANDARD
 70
     0
  3

  4

  5

  6

  7

 40
1.0
 41
0.18
 42
0.0625
 43
0.38
 44
0.18
 45
0.0
 46
0.0
 47
0.0
 48
0.0
140
0.18
141
0.09
142
0.0
143
25.4
144
1.0
145
0.0
146
1.0
147
0.09
 71
     0
 72
     0
 73
     1
 74
     1
 75
     0
 76
     0
 77
     0
 78
     0
170
     0
171
     2
172
     0
173
     0
174
     0
175
     0
176
     0
177
     0
178
     0
270
     2
271
     4
272
     4
273
     2
274
     2
340
11
275
     0
280
     0
281
     0
282
     0
283
     1
284
     0
285
     0
286
     0
287
     3
288
     0
  0
DIMSTYLE
105
A4
330
A
100
AcDbSymbolTableRecord
100
AcDbDimStyleTableRecord
  2
FXDIMINFO
 70
     0
  3

  4

  5

  6
FXTIP_ARROW_S
  7
FXTIP_ARROW_E
 40
1.0
 41
2.0
 42
2.0
 43
7.0
 44
1.0
 45
0.0
 46
6.0
 47
0.0
 48
0.0
140
3.5
141
2.5
142
0.0
143
0.03937
144
1.0
145
0.0
146
1.0
147
1.0
 71
     0
 72
     0
 73
     0
 74
     0
 75
     0
 76
     0
 77
     1
 78
     8
170
     0
171
     3
172
     1
173
     1
174
     0
175
     0
176
     7
177
     7
178
     7
179
     2
270
     2
271
     2
272
     2
273
     2
274
     3
340
3C
275
     0
280
     0
281
     0
282
     0
283
     0
284
     8
285
     0
286
     0
287
     3
288
     0
  0
ENDTAB
  0
TABLE
  2
BLOCK_RECORD
  5
1
330
0
100
AcDbSymbolTable
 70
   113
  0
BLOCK_RECORD
  5
1F
330
1
100
AcDbSymbolTableRecord
100
AcDbBlockTableRecord
  2
*MODEL_SPACE
  0
BLOCK_RECORD
  5
1B
330
1
100
AcDbSymbolTableRecord
100
AcDbBlockTableRecord
  2
*PAPER_SPACE
  0
BLOCK_RECORD
  5
3E
330
1
100
AcDbSymbolTableRecord
100
AcDbBlockTableRecord
  2
FXTIP_ARROW_S
  0
BLOCK_RECORD
  5
44
330
1
100
AcDbSymbolTableRecord
100
AcDbBlockTableRecord
  2
FXTIP_ARROW_E
  0
BLOCK_RECORD
  5
4A
330
1
100
AcDbSymbolTableRecord
100
AcDbBlockTableRecord
  2
FXTIP_BLACKDOT_S
  0
BLOCK_RECORD
  5
50
330
1
100
AcDbSymbolTableRecord
100
AcDbBlockTableRecord
  2
FXTIP_BLACKDOT_E
  0
BLOCK_RECORD
  5
56
330
1
100
AcDbSymbolTableRecord
100
AcDbBlockTableRecord
  2
FXTIP_TRIANGLE_S
  0
BLOCK_RECORD
  5
5D
330
1
100
AcDbSymbolTableRecord
100
AcDbBlockTableRecord
  2
FXTIP_TRIANGLE_E
  0
BLOCK_RECORD
  5
64
330
1
100
AcDbSymbolTableRecord
100
AcDbBlockTableRecord
  2
FXTIP_ARCHITECT_S
  0
BLOCK_RECORD
  5
6A
330
1
100
AcDbSymbolTableRecord
100
AcDbBlockTableRecord
  2
FXTIP_ARCHITECT_E
  0
BLOCK_RECORD
  5
70
330
1
100
AcDbSymbolTableRecord
100
AcDbBlockTableRecord
  2
FXTIP_CIVIL_S
  0
BLOCK_RECORD
  5
76
330
1
100
AcDbSymbolTableRecord
100
AcDbBlockTableRecord
  2
FXTIP_CIVIL_E
  0
BLOCK_RECORD
  5
7C
330
1
100
AcDbSymbolTableRecord
100
AcDbBlockTableRecord
  2
FXTIP_WHITEDOT_S
  0
BLOCK_RECORD
  5
81
330
1
100
AcDbSymbolTableRecord
100
AcDbBlockTableRecord
  2
FXTIP_WHITEDOT_E
  0
BLOCK_RECORD
  5
86
330
1
100
AcDbSymbolTableRecord
100
AcDbBlockTableRecord
  2
FXTIP_UPARROW_S
  0
BLOCK_RECORD
  5
8B
330
1
100
AcDbSymbolTableRecord
100
AcDbBlockTableRecord
  2
FXTIP_UPARROW_E
  0
BLOCK_RECORD
  5
90
330
1
100
AcDbSymbolTableRecord
100
AcDbBlockTableRecord
  2
FXTIP_DOWNARROW_S
  0
BLOCK_RECORD
  5
95
330
1
100
AcDbSymbolTableRecord
100
AcDbBlockTableRecord
  2
FXTIP_DOWNARROW_E
  0
BLOCK_RECORD
  5
9A
330
1
100
AcDbSymbolTableRecord
100
AcDbBlockTableRecord
  2
FXTIP_BLACKTRIANGLE_S
  0
BLOCK_RECORD
  5
9F
330
1
100
AcDbSymbolTableRecord
100
AcDbBlockTableRecord
  2
FXTIP_BLACKTRIANGLE_E
  0
BLOCK_RECORD
  5
DC
330
1
100
AcDbSymbolTableRecord
100
AcDbBlockTableRecord
  2
BLKF021
  0
BLOCK_RECORD
  5
EB
330
1
100
AcDbSymbolTableRecord
100
AcDbBlockTableRecord
  2
BLKF022
  0
BLOCK_RECORD
  5
FE
330
1
100
AcDbSymbolTableRecord
100
AcDbBlockTableRecord
  2
BLKF023
  0
BLOCK_RECORD
  5
10D
330
1
100
AcDbSymbolTableRecord
100
AcDbBlockTableRecord
  2
BLKF024
  0
BLOCK_RECORD
  5
115
330
1
100
AcDbSymbolTableRecord
100
AcDbBlockTableRecord
  2
BLKF025
  0
BLOCK_RECORD
  5
121
330
1
100
AcDbSymbolTableRecord
100
AcDbBlockTableRecord
  2
BLKF026
  0
BLOCK_RECORD
  5
130
330
1
100
AcDbSymbolTableRecord
100
AcDbBlockTableRecord
  2
BLKF027
  0
BLOCK_RECORD
  5
13F
330
1
100
AcDbSymbolTableRecord
100
AcDbBlockTableRecord
  2
BLKF028
  0
BLOCK_RECORD
  5
14E
330
1
100
AcDbSymbolTableRecord
100
AcDbBlockTableRecord
  2
BLKF029
  0
BLOCK_RECORD
  5
15D
330
1
100
AcDbSymbolTableRecord
100
AcDbBlockTableRecord
  2
BLKF030
  0
BLOCK_RECORD
  5
16C
330
1
100
AcDbSymbolTableRecord
100
AcDbBlockTableRecord
  2
BLKF031
  0
BLOCK_RECORD
  5
17B
330
1
100
AcDbSymbolTableRecord
100
AcDbBlockTableRecord
  2
BLKF032
  0
BLOCK_RECORD
  5
18A
330
1
100
AcDbSymbolTableRecord
100
AcDbBlockTableRecord
  2
BLKF033
  0
BLOCK_RECORD
  5
198
330
1
100
AcDbSymbolTableRecord
100
AcDbBlockTableRecord
  2
BLKF034
  0
BLOCK_RECORD
  5
1A8
330
1
100
AcDbSymbolTableRecord
100
AcDbBlockTableRecord
  2
BLKF035
  0
BLOCK_RECORD
  5
1B6
330
1
100
AcDbSymbolTableRecord
100
AcDbBlockTableRecord
  2
BLKF036
  0
BLOCK_RECORD
  5
1C5
330
1
100
AcDbSymbolTableRecord
100
AcDbBlockTableRecord
  2
BLKF037
  0
BLOCK_RECORD
  5
1D4
330
1
100
AcDbSymbolTableRecord
100
AcDbBlockTableRecord
  2
BLKF038
  0
BLOCK_RECORD
  5
1E3
330
1
100
AcDbSymbolTableRecord
100
AcDbBlockTableRecord
  2
BLKF039
  0
BLOCK_RECORD
  5
1F2
330
1
100
AcDbSymbolTableRecord
100
AcDbBlockTableRecord
  2
BLKF040
  0
BLOCK_RECORD
  5
201
330
1
100
AcDbSymbolTableRecord
100
AcDbBlockTableRecord
  2
BLKF041
  0
BLOCK_RECORD
  5
210
330
1
100
AcDbSymbolTableRecord
100
AcDbBlockTableRecord
  2
BLKF042
  0
BLOCK_RECORD
  5
21E
330
1
100
AcDbSymbolTableRecord
100
AcDbBlockTableRecord
  2
BLKF043
  0
BLOCK_RECORD
  5
22F
330
1
100
AcDbSymbolTableRecord
100
AcDbBlockTableRecord
  2
BLKF044
  0
BLOCK_RECORD
  5
23E
330
1
100
AcDbSymbolTableRecord
100
AcDbBlockTableRecord
  2
BLKF045
  0
BLOCK_RECORD
  5
24D
330
1
100
AcDbSymbolTableRecord
100
AcDbBlockTableRecord
  2
BLKF046
  0
BLOCK_RECORD
  5
25C
330
1
100
AcDbSymbolTableRecord
100
AcDbBlockTableRecord
  2
BLKF047
  0
BLOCK_RECORD
  5
26B
330
1
100
AcDbSymbolTableRecord
100
AcDbBlockTableRecord
  2
BLKF048
  0
BLOCK_RECORD
  5
27A
330
1
100
AcDbSymbolTableRecord
100
AcDbBlockTableRecord
  2
BLKF049
  0
BLOCK_RECORD
  5
28A
330
1
100
AcDbSymbolTableRecord
100
AcDbBlockTableRecord
  2
BLKF050
  0
BLOCK_RECORD
  5
298
330
1
100
AcDbSymbolTableRecord
100
AcDbBlockTableRecord
  2
BLKF051
  0
BLOCK_RECORD
  5
2F6
330
1
100
AcDbSymbolTableRecord
100
AcDbBlockTableRecord
  2
BLKF052
  0
BLOCK_RECORD
  5
305
330
1
100
AcDbSymbolTableRecord
100
AcDbBlockTableRecord
  2
BLKF053
  0
BLOCK_RECORD
  5
314
330
1
100
AcDbSymbolTableRecord
100
AcDbBlockTableRecord
  2
BLKF054
  0
BLOCK_RECORD
  5
322
330
1
100
AcDbSymbolTableRecord
100
AcDbBlockTableRecord
  2
BLKF055
  0
BLOCK_RECORD
  5
330
330
1
100
AcDbSymbolTableRecord
100
AcDbBlockTableRecord
  2
BLKF056
  0
BLOCK_RECORD
  5
33D
330
1
100
AcDbSymbolTableRecord
100
AcDbBlockTableRecord
  2
BLKF057
  0
BLOCK_RECORD
  5
34F
330
1
100
AcDbSymbolTableRecord
100
AcDbBlockTableRecord
  2
BLKF058
  0
BLOCK_RECORD
  5
35E
330
1
100
AcDbSymbolTableRecord
100
AcDbBlockTableRecord
  2
BLKF059
  0
BLOCK_RECORD
  5
371
330
1
100
AcDbSymbolTableRecord
100
AcDbBlockTableRecord
  2
BLKF060
  0
BLOCK_RECORD
  5
386
330
1
100
AcDbSymbolTableRecord
100
AcDbBlockTableRecord
  2
BLKF061
  0
BLOCK_RECORD
  5
395
330
1
100
AcDbSymbolTableRecord
100
AcDbBlockTableRecord
  2
BLKF062
  0
BLOCK_RECORD
  5
3C5
330
1
100
AcDbSymbolTableRecord
100
AcDbBlockTableRecord
  2
BLKF063
  0
BLOCK_RECORD
  5
3D4
330
1
100
AcDbSymbolTableRecord
100
AcDbBlockTableRecord
  2
BLKF064
  0
BLOCK_RECORD
  5
3E3
330
1
100
AcDbSymbolTableRecord
100
AcDbBlockTableRecord
  2
BLKF065
  0
BLOCK_RECORD
  5
3F1
330
1
100
AcDbSymbolTableRecord
100
AcDbBlockTableRecord
  2
BLKF066
  0
BLOCK_RECORD
  5
3FF
330
1
100
AcDbSymbolTableRecord
100
AcDbBlockTableRecord
  2
BLKF067
  0
BLOCK_RECORD
  5
40E
330
1
100
AcDbSymbolTableRecord
100
AcDbBlockTableRecord
  2
BLKF068
  0
BLOCK_RECORD
  5
425
330
1
100
AcDbSymbolTableRecord
100
AcDbBlockTableRecord
  2
BLKF069
  0
BLOCK_RECORD
  5
433
330
1
100
AcDbSymbolTableRecord
100
AcDbBlockTableRecord
  2
BLKF070
  0
BLOCK_RECORD
  5
441
330
1
100
AcDbSymbolTableRecord
100
AcDbBlockTableRecord
  2
BLKF071
  0
BLOCK_RECORD
  5
44F
330
1
100
AcDbSymbolTableRecord
100
AcDbBlockTableRecord
  2
BLKF072
  0
BLOCK_RECORD
  5
45E
330
1
100
AcDbSymbolTableRecord
100
AcDbBlockTableRecord
  2
BLKF073
  0
BLOCK_RECORD
  5
474
330
1
100
AcDbSymbolTableRecord
100
AcDbBlockTableRecord
  2
BLKF074
  0
BLOCK_RECORD
  5
483
330
1
100
AcDbSymbolTableRecord
100
AcDbBlockTableRecord
  2
BLKF075
  0
BLOCK_RECORD
  5
492
330
1
100
AcDbSymbolTableRecord
100
AcDbBlockTableRecord
  2
BLKF076
  0
BLOCK_RECORD
  5
4A0
330
1
100
AcDbSymbolTableRecord
100
AcDbBlockTableRecord
  2
BLKF077
  0
BLOCK_RECORD
  5
4AF
330
1
100
AcDbSymbolTableRecord
100
AcDbBlockTableRecord
  2
BLKF078
  0
BLOCK_RECORD
  5
4BD
330
1
100
AcDbSymbolTableRecord
100
AcDbBlockTableRecord
  2
BLKF079
  0
BLOCK_RECORD
  5
4CC
330
1
100
AcDbSymbolTableRecord
100
AcDbBlockTableRecord
  2
BLKF080
  0
BLOCK_RECORD
  5
4DB
330
1
100
AcDbSymbolTableRecord
100
AcDbBlockTableRecord
  2
BLKF081
  0
BLOCK_RECORD
  5
4E9
330
1
100
AcDbSymbolTableRecord
100
AcDbBlockTableRecord
  2
BLKF082
  0
BLOCK_RECORD
  5
4F9
330
1
100
AcDbSymbolTableRecord
100
AcDbBlockTableRecord
  2
BLKF083
  0
BLOCK_RECORD
  5
50D
330
1
100
AcDbSymbolTableRecord
100
AcDbBlockTableRecord
  2
BLKF084
  0
BLOCK_RECORD
  5
51C
330
1
100
AcDbSymbolTableRecord
100
AcDbBlockTableRecord
  2
BLKF085
  0
BLOCK_RECORD
  5
52D
330
1
100
AcDbSymbolTableRecord
100
AcDbBlockTableRecord
  2
BLKF086
  0
BLOCK_RECORD
  5
53C
330
1
100
AcDbSymbolTableRecord
100
AcDbBlockTableRecord
  2
BLKF087
  0
BLOCK_RECORD
  5
54E
330
1
100
AcDbSymbolTableRecord
100
AcDbBlockTableRecord
  2
BLKF088
  0
BLOCK_RECORD
  5
560
330
1
100
AcDbSymbolTableRecord
100
AcDbBlockTableRecord
  2
BLKF089
  0
BLOCK_RECORD
  5
56F
330
1
100
AcDbSymbolTableRecord
100
AcDbBlockTableRecord
  2
BLKF090
  0
BLOCK_RECORD
  5
582
330
1
100
AcDbSymbolTableRecord
100
AcDbBlockTableRecord
  2
BLKF091
  0
BLOCK_RECORD
  5
591
330
1
100
AcDbSymbolTableRecord
100
AcDbBlockTableRecord
  2
BLKF092
  0
BLOCK_RECORD
  5
5A0
330
1
100
AcDbSymbolTableRecord
100
AcDbBlockTableRecord
  2
BLKF093
  0
BLOCK_RECORD
  5
5B0
330
1
100
AcDbSymbolTableRecord
100
AcDbBlockTableRecord
  2
BLKF094
  0
BLOCK_RECORD
  5
5BE
330
1
100
AcDbSymbolTableRecord
100
AcDbBlockTableRecord
  2
BLKF095
  0
BLOCK_RECORD
  5
5D5
330
1
100
AcDbSymbolTableRecord
100
AcDbBlockTableRecord
  2
BLKF096
  0
BLOCK_RECORD
  5
5E6
330
1
100
AcDbSymbolTableRecord
100
AcDbBlockTableRecord
  2
BLKF097
  0
BLOCK_RECORD
  5
5F6
330
1
100
AcDbSymbolTableRecord
100
AcDbBlockTableRecord
  2
BLKF098
  0
BLOCK_RECORD
  5
62E
330
1
100
AcDbSymbolTableRecord
100
AcDbBlockTableRecord
  2
BLKF099
  0
BLOCK_RECORD
  5
63D
330
1
100
AcDbSymbolTableRecord
100
AcDbBlockTableRecord
  2
BLKF100
  0
BLOCK_RECORD
  5
659
330
1
100
AcDbSymbolTableRecord
100
AcDbBlockTableRecord
  2
BLKF101
  0
BLOCK_RECORD
  5
668
330
1
100
AcDbSymbolTableRecord
100
AcDbBlockTableRecord
  2
BLKF102
  0
BLOCK_RECORD
  5
676
330
1
100
AcDbSymbolTableRecord
100
AcDbBlockTableRecord
  2
BLKF103
  0
BLOCK_RECORD
  5
684
330
1
100
AcDbSymbolTableRecord
100
AcDbBlockTableRecord
  2
BLKF104
  0
BLOCK_RECORD
  5
696
330
1
100
AcDbSymbolTableRecord
100
AcDbBlockTableRecord
  2
BLKF105
  0
BLOCK_RECORD
  5
6A4
330
1
100
AcDbSymbolTableRecord
100
AcDbBlockTableRecord
  2
BLKF106
  0
BLOCK_RECORD
  5
6B2
330
1
100
AcDbSymbolTableRecord
100
AcDbBlockTableRecord
  2
BLKF107
  0
BLOCK_RECORD
  5
6C4
330
1
100
AcDbSymbolTableRecord
100
AcDbBlockTableRecord
  2
BLKF108
  0
BLOCK_RECORD
  5
6E1
330
1
100
AcDbSymbolTableRecord
100
AcDbBlockTableRecord
  2
BLKF109
  0
BLOCK_RECORD
  5
6F2
330
1
100
AcDbSymbolTableRecord
100
AcDbBlockTableRecord
  2
BLKF110
  0
BLOCK_RECORD
  5
70E
330
1
100
AcDbSymbolTableRecord
100
AcDbBlockTableRecord
  2
BLKF111
  0
BLOCK_RECORD
  5
71A
330
1
100
AcDbSymbolTableRecord
100
AcDbBlockTableRecord
  2
BLKF112
  0
BLOCK_RECORD
  5
740
330
1
100
AcDbSymbolTableRecord
100
AcDbBlockTableRecord
  2
BLKF113
  0
BLOCK_RECORD
  5
751
330
1
100
AcDbSymbolTableRecord
100
AcDbBlockTableRecord
  2
BLKF114
  0
ENDTAB
  0
ENDSEC
  0
SECTION
  2
BLOCKS
  0
BLOCK
  5
20
330
1F
100
AcDbEntity
  8
0
100
AcDbBlockBegin
  2
*MODEL_SPACE
 70
     0
 71
     0
 10
0.0
 20
0.0
 30
0.0
  3
*MODEL_SPACE
  1

  0
ENDBLK
  5
21
330
1F
100
AcDbEntity
  8
0
100
AcDbBlockEnd
  0
BLOCK
  5
1C
330
1B
100
AcDbEntity
 67
     1
  8
0
100
AcDbBlockBegin
  2
*PAPER_SPACE
 70
     0
 71
     0
 10
0.0
 20
0.0
 30
0.0
  3
*PAPER_SPACE
  1

  0
ENDBLK
  5
1D
330
1B
100
AcDbEntity
 67
     1
  8
0
100
AcDbBlockEnd
  0
BLOCK
  5
3F
330
3E
100
AcDbEntity
  8
0
100
AcDbBlockBegin
  2
FXTIP_ARROW_S
 70
     0
 71
     0
 10
0.0
 20
0.0
 30
0.0
  3
FXTIP_ARROW_S
  1

  0
LINE
  5
41
330
3E
100
AcDbEntity
  8
0
  6
CONTINUOUS
 62
     0
100
AcDbLine
 10
0.0
 20
0.0
 30
0.0
 11
-1.0
 21
0.0
 31
0.0
  0
LINE
  5
42
330
3E
100
AcDbEntity
  8
0
  6
CONTINUOUS
 62
     0
100
AcDbLine
 10
0.0
 20
0.0
 30
0.0
 11
-0.965926
 21
-0.258819
 31
0.0
  0
LINE
  5
43
330
3E
100
AcDbEntity
  8
0
  6
CONTINUOUS
 62
     0
100
AcDbLine
 10
0.0
 20
0.0
 30
0.0
 11
-0.965926
 21
0.258819
 31
0.0
  0
ENDBLK
  5
40
330
3E
100
AcDbEntity
  8
0
100
AcDbBlockEnd
  0
BLOCK
  5
45
330
44
100
AcDbEntity
  8
0
100
AcDbBlockBegin
  2
FXTIP_ARROW_E
 70
     0
 71
     0
 10
0.0
 20
0.0
 30
0.0
  3
FXTIP_ARROW_E
  1

  0
LINE
  5
47
330
44
100
AcDbEntity
  8
0
  6
CONTINUOUS
 62
     0
100
AcDbLine
 10
0.0
 20
0.0
 30
0.0
 11
-1.0
 21
0.0
 31
0.0
  0
LINE
  5
48
330
44
100
AcDbEntity
  8
0
  6
CONTINUOUS
 62
     0
100
AcDbLine
 10
0.0
 20
0.0
 30
0.0
 11
-0.965926
 21
0.258819
 31
0.0
  0
LINE
  5
49
330
44
100
AcDbEntity
  8
0
  6
CONTINUOUS
 62
     0
100
AcDbLine
 10
0.0
 20
0.0
 30
0.0
 11
-0.965926
 21
-0.258819
 31
0.0
  0
ENDBLK
  5
46
330
44
100
AcDbEntity
  8
0
100
AcDbBlockEnd
  0
BLOCK
  5
4B
330
4A
100
AcDbEntity
  8
0
100
AcDbBlockBegin
  2
FXTIP_BLACKDOT_S
 70
     0
 71
     0
 10
0.0
 20
0.0
 30
0.0
  3
FXTIP_BLACKDOT_S
  1

  0
LINE
  5
4D
330
4A
100
AcDbEntity
  8
0
  6
CONTINUOUS
 62
     0
100
AcDbLine
 10
0.0
 20
0.0
 30
0.0
 11
-1.0
 21
0.0
 31
0.0
  0
POLYLINE
  5
4E
330
4A
100
AcDbEntity
  8
0
  6
CONTINUOUS
 62
     0
100
AcDb2dPolyline
 66
     1
 10
0.0
 20
0.0
 30
0.0
 70
     1
  0
VERTEX
  5
760
330
4E
100
AcDbEntity
  8
0
  6
CONTINUOUS
 62
     0
100
AcDbVertex
100
AcDb2dVertex
 10
-0.25
 20
0.0
 30
0.0
 40
0.5
 41
0.5
 42
1.0
  0
VERTEX
  5
761
330
4E
100
AcDbEntity
  8
0
  6
CONTINUOUS
 62
     0
100
AcDbVertex
100
AcDb2dVertex
 10
0.25
 20
0.0
 30
0.0
 40
0.5
 41
0.5
 42
1.0
  0
SEQEND
  5
75F
330
4E
100
AcDbEntity
  8
0
  6
CONTINUOUS
 62
     0
  0
CIRCLE
  5
4F
330
4A
100
AcDbEntity
  8
0
  6
CONTINUOUS
 62
     0
100
AcDbCircle
 10
0.0
 20
0.0
 30
0.0
 40
0.5
  0
ENDBLK
  5
4C
330
4A
100
AcDbEntity
  8
0
100
AcDbBlockEnd
  0
BLOCK
  5
51
330
50
100
AcDbEntity
  8
0
100
AcDbBlockBegin
  2
FXTIP_BLACKDOT_E
 70
     0
 71
     0
 10
0.0
 20
0.0
 30
0.0
  3
FXTIP_BLACKDOT_E
  1

  0
LINE
  5
53
330
50
100
AcDbEntity
  8
0
  6
CONTINUOUS
 62
     0
100
AcDbLine
 10
0.0
 20
0.0
 30
0.0
 11
-1.0
 21
0.0
 31
0.0
  0
POLYLINE
  5
54
330
50
100
AcDbEntity
  8
0
  6
CONTINUOUS
 62
     0
100
AcDb2dPolyline
 66
     1
 10
0.0
 20
0.0
 30
0.0
 70
     1
  0
VERTEX
  5
763
330
54
100
AcDbEntity
  8
0
  6
CONTINUOUS
 62
     0
100
AcDbVertex
100
AcDb2dVertex
 10
-0.25
 20
0.0
 30
0.0
 40
0.5
 41
0.5
 42
1.0
  0
VERTEX
  5
764
330
54
100
AcDbEntity
  8
0
  6
CONTINUOUS
 62
     0
100
AcDbVertex
100
AcDb2dVertex
 10
0.25
 20
0.0
 30
0.0
 40
0.5
 41
0.5
 42
1.0
  0
SEQEND
  5
762
330
54
100
AcDbEntity
  8
0
  6
CONTINUOUS
 62
     0
  0
CIRCLE
  5
55
330
50
100
AcDbEntity
  8
0
  6
CONTINUOUS
 62
     0
100
AcDbCircle
 10
0.0
 20
0.0
 30
0.0
 40
0.5
  0
ENDBLK
  5
52
330
50
100
AcDbEntity
  8
0
100
AcDbBlockEnd
  0
BLOCK
  5
57
330
56
100
AcDbEntity
  8
0
100
AcDbBlockBegin
  2
FXTIP_TRIANGLE_S
 70
     0
 71
     0
 10
0.0
 20
0.0
 30
0.0
  3
FXTIP_TRIANGLE_S
  1

  0
LINE
  5
59
330
56
100
AcDbEntity
  8
0
  6
CONTINUOUS
 62
     0
100
AcDbLine
 10
0.0
 20
0.0
 30
0.0
 11
-1.0
 21
0.0
 31
0.0
  0
LINE
  5
5A
330
56
100
AcDbEntity
  8
0
  6
CONTINUOUS
 62
     0
100
AcDbLine
 10
0.0
 20
0.0
 30
0.0
 11
-0.965926
 21
-0.258819
 31
0.0
  0
LINE
  5
5B
330
56
100
AcDbEntity
  8
0
  6
CONTINUOUS
 62
     0
100
AcDbLine
 10
0.0
 20
0.0
 30
0.0
 11
-0.965926
 21
0.258819
 31
0.0
  0
LINE
  5
5C
330
56
100
AcDbEntity
  8
0
  6
CONTINUOUS
 62
     0
100
AcDbLine
 10
-0.965926
 20
-0.258819
 30
0.0
 11
-0.965926
 21
0.258819
 31
0.0
  0
ENDBLK
  5
58
330
56
100
AcDbEntity
  8
0
100
AcDbBlockEnd
  0
BLOCK
  5
5E
330
5D
100
AcDbEntity
  8
0
100
AcDbBlockBegin
  2
FXTIP_TRIANGLE_E
 70
     0
 71
     0
 10
0.0
 20
0.0
 30
0.0
  3
FXTIP_TRIANGLE_E
  1

  0
LINE
  5
60
330
5D
100
AcDbEntity
  8
0
  6
CONTINUOUS
 62
     0
100
AcDbLine
 10
0.0
 20
0.0
 30
0.0
 11
-1.0
 21
0.0
 31
0.0
  0
LINE
  5
61
330
5D
100
AcDbEntity
  8
0
  6
CONTINUOUS
 62
     0
100
AcDbLine
 10
0.0
 20
0.0
 30
0.0
 11
-0.965926
 21
0.258819
 31
0.0
  0
LINE
  5
62
330
5D
100
AcDbEntity
  8
0
  6
CONTINUOUS
 62
     0
100
AcDbLine
 10
0.0
 20
0.0
 30
0.0
 11
-0.965926
 21
-0.258819
 31
0.0
  0
LINE
  5
63
330
5D
100
AcDbEntity
  8
0
  6
CONTINUOUS
 62
     0
100
AcDbLine
 10
-0.965926
 20
0.258819
 30
0.0
 11
-0.965926
 21
-0.258819
 31
0.0
  0
ENDBLK
  5
5F
330
5D
100
AcDbEntity
  8
0
100
AcDbBlockEnd
  0
BLOCK
  5
65
330
64
100
AcDbEntity
  8
0
100
AcDbBlockBegin
  2
FXTIP_ARCHITECT_S
 70
     0
 71
     0
 10
0.0
 20
0.0
 30
0.0
  3
FXTIP_ARCHITECT_S
  1

  0
LINE
  5
67
330
64
100
AcDbEntity
  8
0
  6
CONTINUOUS
 62
     0
100
AcDbLine
 10
0.0
 20
0.0
 30
0.0
 11
-1.0
 21
0.0
 31
0.0
  0
LINE
  5
68
330
64
100
AcDbEntity
  8
0
  6
CONTINUOUS
 62
     0
100
AcDbLine
 10
0.0
 20
0.0
 30
0.0
 11
-0.707107
 21
-0.707107
 31
0.0
  0
LINE
  5
69
330
64
100
AcDbEntity
  8
0
  6
CONTINUOUS
 62
     0
100
AcDbLine
 10
0.0
 20
0.0
 30
0.0
 11
0.707107
 21
0.707107
 31
0.0
  0
ENDBLK
  5
66
330
64
100
AcDbEntity
  8
0
100
AcDbBlockEnd
  0
BLOCK
  5
6B
330
6A
100
AcDbEntity
  8
0
100
AcDbBlockBegin
  2
FXTIP_ARCHITECT_E
 70
     0
 71
     0
 10
0.0
 20
0.0
 30
0.0
  3
FXTIP_ARCHITECT_E
  1

  0
LINE
  5
6D
330
6A
100
AcDbEntity
  8
0
  6
CONTINUOUS
 62
     0
100
AcDbLine
 10
0.0
 20
0.0
 30
0.0
 11
-1.0
 21
0.0
 31
0.0
  0
LINE
  5
6E
330
6A
100
AcDbEntity
  8
0
  6
CONTINUOUS
 62
     0
100
AcDbLine
 10
0.0
 20
0.0
 30
0.0
 11
0.707107
 21
0.707107
 31
0.0
  0
LINE
  5
6F
330
6A
100
AcDbEntity
  8
0
  6
CONTINUOUS
 62
     0
100
AcDbLine
 10
0.0
 20
0.0
 30
0.0
 11
-0.707107
 21
-0.707107
 31
0.0
  0
ENDBLK
  5
6C
330
6A
100
AcDbEntity
  8
0
100
AcDbBlockEnd
  0
BLOCK
  5
71
330
70
100
AcDbEntity
  8
0
100
AcDbBlockBegin
  2
FXTIP_CIVIL_S
 70
     0
 71
     0
 10
0.0
 20
0.0
 30
0.0
  3
FXTIP_CIVIL_S
  1

  0
LINE
  5
73
330
70
100
AcDbEntity
  8
0
  6
CONTINUOUS
 62
     0
100
AcDbLine
 10
0.0
 20
0.0
 30
0.0
 11
-1.0
 21
0.0
 31
0.0
  0
LINE
  5
74
330
70
100
AcDbEntity
  8
0
  6
CONTINUOUS
 62
     0
100
AcDbLine
 10
0.0
 20
-0.125
 30
0.0
 11
-1.0
 21
-0.125
 31
0.0
  0
LINE
  5
75
330
70
100
AcDbEntity
  8
0
  6
CONTINUOUS
 62
     0
100
AcDbLine
 10
0.0
 20
-0.25
 30
0.0
 11
-1.0
 21
-0.25
 31
0.0
  0
ENDBLK
  5
72
330
70
100
AcDbEntity
  8
0
100
AcDbBlockEnd
  0
BLOCK
  5
77
330
76
100
AcDbEntity
  8
0
100
AcDbBlockBegin
  2
FXTIP_CIVIL_E
 70
     0
 71
     0
 10
0.0
 20
0.0
 30
0.0
  3
FXTIP_CIVIL_E
  1

  0
LINE
  5
79
330
76
100
AcDbEntity
  8
0
  6
CONTINUOUS
 62
     0
100
AcDbLine
 10
0.0
 20
0.0
 30
0.0
 11
-1.0
 21
0.0
 31
0.0
  0
LINE
  5
7A
330
76
100
AcDbEntity
  8
0
  6
CONTINUOUS
 62
     0
100
AcDbLine
 10
0.0
 20
0.125
 30
0.0
 11
-1.0
 21
0.125
 31
0.0
  0
LINE
  5
7B
330
76
100
AcDbEntity
  8
0
  6
CONTINUOUS
 62
     0
100
AcDbLine
 10
0.0
 20
0.25
 30
0.0
 11
-1.0
 21
0.25
 31
0.0
  0
ENDBLK
  5
78
330
76
100
AcDbEntity
  8
0
100
AcDbBlockEnd
  0
BLOCK
  5
7D
330
7C
100
AcDbEntity
  8
0
100
AcDbBlockBegin
  2
FXTIP_WHITEDOT_S
 70
     0
 71
     0
 10
0.0
 20
0.0
 30
0.0
  3
FXTIP_WHITEDOT_S
  1

  0
LINE
  5
7F
330
7C
100
AcDbEntity
  8
0
  6
CONTINUOUS
 62
     0
100
AcDbLine
 10
0.0
 20
0.0
 30
0.0
 11
-1.0
 21
0.0
 31
0.0
  0
CIRCLE
  5
80
330
7C
100
AcDbEntity
  8
0
  6
CONTINUOUS
 62
     0
100
AcDbCircle
 10
0.0
 20
0.0
 30
0.0
 40
0.5
  0
ENDBLK
  5
7E
330
7C
100
AcDbEntity
  8
0
100
AcDbBlockEnd
  0
BLOCK
  5
82
330
81
100
AcDbEntity
  8
0
100
AcDbBlockBegin
  2
FXTIP_WHITEDOT_E
 70
     0
 71
     0
 10
0.0
 20
0.0
 30
0.0
  3
FXTIP_WHITEDOT_E
  1

  0
LINE
  5
84
330
81
100
AcDbEntity
  8
0
  6
CONTINUOUS
 62
     0
100
AcDbLine
 10
0.0
 20
0.0
 30
0.0
 11
-1.0
 21
0.0
 31
0.0
  0
CIRCLE
  5
85
330
81
100
AcDbEntity
  8
0
  6
CONTINUOUS
 62
     0
100
AcDbCircle
 10
0.0
 20
0.0
 30
0.0
 40
0.5
  0
ENDBLK
  5
83
330
81
100
AcDbEntity
  8
0
100
AcDbBlockEnd
  0
BLOCK
  5
87
330
86
100
AcDbEntity
  8
0
100
AcDbBlockBegin
  2
FXTIP_UPARROW_S
 70
     0
 71
     0
 10
0.0
 20
0.0
 30
0.0
  3
FXTIP_UPARROW_S
  1

  0
LINE
  5
89
330
86
100
AcDbEntity
  8
0
  6
CONTINUOUS
 62
     0
100
AcDbLine
 10
0.0
 20
0.0
 30
0.0
 11
-1.0
 21
0.0
 31
0.0
  0
LINE
  5
8A
330
86
100
AcDbEntity
  8
0
  6
CONTINUOUS
 62
     0
100
AcDbLine
 10
0.0
 20
0.0
 30
0.0
 11
-0.965926
 21
-0.258819
 31
0.0
  0
ENDBLK
  5
88
330
86
100
AcDbEntity
  8
0
100
AcDbBlockEnd
  0
BLOCK
  5
8C
330
8B
100
AcDbEntity
  8
0
100
AcDbBlockBegin
  2
FXTIP_UPARROW_E
 70
     0
 71
     0
 10
0.0
 20
0.0
 30
0.0
  3
FXTIP_UPARROW_E
  1

  0
LINE
  5
8E
330
8B
100
AcDbEntity
  8
0
  6
CONTINUOUS
 62
     0
100
AcDbLine
 10
0.0
 20
0.0
 30
0.0
 11
-1.0
 21
0.0
 31
0.0
  0
LINE
  5
8F
330
8B
100
AcDbEntity
  8
0
  6
CONTINUOUS
 62
     0
100
AcDbLine
 10
0.0
 20
0.0
 30
0.0
 11
-0.965926
 21
0.258819
 31
0.0
  0
ENDBLK
  5
8D
330
8B
100
AcDbEntity
  8
0
100
AcDbBlockEnd
  0
BLOCK
  5
91
330
90
100
AcDbEntity
  8
0
100
AcDbBlockBegin
  2
FXTIP_DOWNARROW_S
 70
     0
 71
     0
 10
0.0
 20
0.0
 30
0.0
  3
FXTIP_DOWNARROW_S
  1

  0
LINE
  5
93
330
90
100
AcDbEntity
  8
0
  6
CONTINUOUS
 62
     0
100
AcDbLine
 10
0.0
 20
0.0
 30
0.0
 11
-1.0
 21
0.0
 31
0.0
  0
LINE
  5
94
330
90
100
AcDbEntity
  8
0
  6
CONTINUOUS
 62
     0
100
AcDbLine
 10
0.0
 20
0.0
 30
0.0
 11
-0.965926
 21
0.258819
 31
0.0
  0
ENDBLK
  5
92
330
90
100
AcDbEntity
  8
0
100
AcDbBlockEnd
  0
BLOCK
  5
96
330
95
100
AcDbEntity
  8
0
100
AcDbBlockBegin
  2
FXTIP_DOWNARROW_E
 70
     0
 71
     0
 10
0.0
 20
0.0
 30
0.0
  3
FXTIP_DOWNARROW_E
  1

  0
LINE
  5
98
330
95
100
AcDbEntity
  8
0
  6
CONTINUOUS
 62
     0
100
AcDbLine
 10
0.0
 20
0.0
 30
0.0
 11
-1.0
 21
0.0
 31
0.0
  0
LINE
  5
99
330
95
100
AcDbEntity
  8
0
  6
CONTINUOUS
 62
     0
100
AcDbLine
 10
0.0
 20
0.0
 30
0.0
 11
-0.965926
 21
-0.258819
 31
0.0
  0
ENDBLK
  5
97
330
95
100
AcDbEntity
  8
0
100
AcDbBlockEnd
  0
BLOCK
  5
9B
330
9A
100
AcDbEntity
  8
0
100
AcDbBlockBegin
  2
FXTIP_BLACKTRIANGLE_S
 70
     0
 71
     0
 10
0.0
 20
0.0
 30
0.0
  3
FXTIP_BLACKTRIANGLE_S
  1

  0
LINE
  5
9D
330
9A
100
AcDbEntity
  8
0
  6
CONTINUOUS
 62
     0
100
AcDbLine
 10
0.0
 20
0.0
 30
0.0
 11
-1.0
 21
0.0
 31
0.0
  0
SOLID
  5
9E
330
9A
100
AcDbEntity
  8
0
  6
CONTINUOUS
 62
     0
100
AcDbTrace
 10
0.0
 20
0.0
 30
0.0
 11
-0.965926
 21
-0.258819
 31
0.0
 12
-0.965926
 22
0.258819
 32
0.0
 13
-0.965926
 23
0.258819
 33
0.0
  0
ENDBLK
  5
9C
330
9A
100
AcDbEntity
  8
0
100
AcDbBlockEnd
  0
BLOCK
  5
A0
330
9F
100
AcDbEntity
  8
0
100
AcDbBlockBegin
  2
FXTIP_BLACKTRIANGLE_E
 70
     0
 71
     0
 10
0.0
 20
0.0
 30
0.0
  3
FXTIP_BLACKTRIANGLE_E
  1

  0
LINE
  5
A2
330
9F
100
AcDbEntity
  8
0
  6
CONTINUOUS
 62
     0
100
AcDbLine
 10
0.0
 20
0.0
 30
0.0
 11
-1.0
 21
0.0
 31
0.0
  0
SOLID
  5
A3
330
9F
100
AcDbEntity
  8
0
  6
CONTINUOUS
 62
     0
100
AcDbTrace
 10
0.0
 20
0.0
 30
0.0
 11
-0.965926
 21
0.258819
 31
0.0
 12
-0.965926
 22
-0.258819
 32
0.0
 13
-0.965926
 23
-0.258819
 33
0.0
  0
ENDBLK
  5
A1
330
9F
100
AcDbEntity
  8
0
100
AcDbBlockEnd
  0
BLOCK
  5
DD
330
DC
100
AcDbEntity
  8
0
100
AcDbBlockBegin
  2
BLKF021
 70
     0
 71
     0
 10
0.0
 20
0.0
 30
0.0
  3
BLKF021
  1

  0
LINE
  5
E0
330
DC
100
AcDbEntity
  8
GR1-1
  6
細い実線
 62
     2
100
AcDbLine
 10
679.863387
 20
183.503677
 30
0.0
 11
679.863387
 21
188.318702
 31
0.0
  0
LINE
  5
E1
330
DC
100
AcDbEntity
  8
GR1-1
  6
細い実線
 62
     2
100
AcDbLine
 10
681.663387
 20
183.503677
 30
0.0
 11
681.663387
 21
188.318702
 31
0.0
  0
LINE
  5
E2
330
DC
100
AcDbEntity
  8
GR1-1
  6
細い実線
 62
     2
100
AcDbLine
 10
679.083387
 20
187.718702
 30
0.0
 11
678.303387
 21
187.718702
 31
0.0
  0
LINE
  5
E3
330
DC
100
AcDbEntity
  8
GR1-1
  6
細い実線
 62
     2
100
AcDbLine
 10
682.443387
 20
187.718702
 30
0.0
 11
683.223387
 21
187.718702
 31
0.0
  0
TEXT
  5
E4
330
DC
100
AcDbEntity
  8
GR1-1
  6
細い実線
 62
     4
100
AcDbText
 10
679.188359
 20
189.218711
 30
0.0
 40
1.5
  1
%%c30
 41
0.7
  7
FX_VECTOR
 72
     5
 11
682.338359
 21
189.218711
 31
0.0
100
AcDbText
  0
LINE
  5
E5
330
DC
100
AcDbEntity
  8
GR1-1
  6
細い実線
 62
     2
100
AcDbLine
 10
679.083387
 20
187.848702
 30
0.0
 11
679.083387
 21
187.588702
 31
0.0
  0
LINE
  5
E6
330
DC
100
AcDbEntity
  8
GR1-1
  6
細い実線
 62
     2
100
AcDbLine
 10
679.083387
 20
187.588702
 30
0.0
 11
679.863387
 21
187.718702
 31
0.0
  0
LINE
  5
E7
330
DC
100
AcDbEntity
  8
GR1-1
  6
細い実線
 62
     2
100
AcDbLine
 10
679.863387
 20
187.718702
 30
0.0
 11
679.083387
 21
187.848702
 31
0.0
  0
LINE
  5
E8
330
DC
100
AcDbEntity
  8
GR1-1
  6
細い実線
 62
     2
100
AcDbLine
 10
682.443387
 20
187.848702
 30
0.0
 11
682.443387
 21
187.588702
 31
0.0
  0
LINE
  5
E9
330
DC
100
AcDbEntity
  8
GR1-1
  6
細い実線
 62
     2
100
AcDbLine
 10
682.443387
 20
187.588702
 30
0.0
 11
681.663387
 21
187.718702
 31
0.0
  0
LINE
  5
EA
330
DC
100
AcDbEntity
  8
GR1-1
  6
細い実線
 62
     2
100
AcDbLine
 10
681.663387
 20
187.718702
 30
0.0
 11
682.443387
 21
187.848702
 31
0.0
  0
ENDBLK
  5
DE
330
DC
100
AcDbEntity
  8
0
100
AcDbBlockEnd
  0
BLOCK
  5
EC
330
EB
100
AcDbEntity
  8
0
100
AcDbBlockBegin
  2
BLKF022
 70
     0
 71
     0
 10
0.0
 20
0.0
 30
0.0
  3
BLKF022
  1

  0
LINE
  5
EF
330
EB
100
AcDbEntity
  8
GR1-1
  6
細い実線
 62
     2
100
AcDbLine
 10
680.388387
 20
178.703677
 30
0.0
 11
680.388387
 21
176.140071
 31
0.0
  0
LINE
  5
F0
330
EB
100
AcDbEntity
  8
GR1-1
  6
細い実線
 62
     2
100
AcDbLine
 10
681.138387
 20
178.703677
 30
0.0
 11
681.138387
 21
176.140071
 31
0.0
  0
LINE
  5
F1
330
EB
100
AcDbEntity
  8
GR1-1
  6
細い実線
 62
     2
100
AcDbLine
 10
679.608387
 20
176.740071
 30
0.0
 11
678.828387
 21
176.740071
 31
0.0
  0
LINE
  5
F2
330
EB
100
AcDbEntity
  8
GR1-1
  6
細い実線
 62
     2
100
AcDbLine
 10
681.918387
 20
176.740071
 30
0.0
 11
682.698387
 21
176.740071
 31
0.0
  0
TEXT
  5
F3
330
EB
100
AcDbEntity
  8
GR1-1
  6
細い実線
 62
     4
100
AcDbText
 10
681.239453
 20
177.285684
 30
0.0
 40
1.5
  1
%%c12.5
 41
0.7
  7
FX_VECTOR
 72
     5
 11
686.489453
 21
177.285684
 31
0.0
100
AcDbText
  0
LINE
  5
F4
330
EB
100
AcDbEntity
  8
GR1-1
  6
細い実線
 62
     2
100
AcDbLine
 10
679.608387
 20
176.870071
 30
0.0
 11
679.608387
 21
176.610071
 31
0.0
  0
LINE
  5
F5
330
EB
100
AcDbEntity
  8
GR1-1
  6
細い実線
 62
     2
100
AcDbLine
 10
679.608387
 20
176.610071
 30
0.0
 11
680.388387
 21
176.740071
 31
0.0
  0
LINE
  5
F6
330
EB
100
AcDbEntity
  8
GR1-1
  6
細い実線
 62
     2
100
AcDbLine
 10
680.388387
 20
176.740071
 30
0.0
 11
679.608387
 21
176.870071
 31
0.0
  0
LINE
  5
F7
330
EB
100
AcDbEntity
  8
GR1-1
  6
細い実線
 62
     2
100
AcDbLine
 10
681.918387
 20
176.870071
 30
0.0
 11
681.918387
 21
176.610071
 31
0.0
  0
LINE
  5
F8
330
EB
100
AcDbEntity
  8
GR1-1
  6
細い実線
 62
     2
100
AcDbLine
 10
681.918387
 20
176.610071
 30
0.0
 11
681.138387
 21
176.740071
 31
0.0
  0
LINE
  5
F9
330
EB
100
AcDbEntity
  8
GR1-1
  6
細い実線
 62
     2
100
AcDbLine
 10
681.138387
 20
176.740071
 30
0.0
 11
681.918387
 21
176.870071
 31
0.0
  0
ENDBLK
  5
ED
330
EB
100
AcDbEntity
  8
0
100
AcDbBlockEnd
  0
BLOCK
  5
FF
330
FE
100
AcDbEntity
  8
0
100
AcDbBlockBegin
  2
BLKF023
 70
     0
 71
     0
 10
0.0
 20
0.0
 30
0.0
  3
BLKF023
  1

  0
LINE
  5
102
330
FE
100
AcDbEntity
  8
GR1-1
  6
細い実線
 62
     2
100
AcDbLine
 10
697.592263
 20
186.718822
 30
0.0
 11
697.592263
 21
188.85793
 31
0.0
  0
LINE
  5
103
330
FE
100
AcDbEntity
  8
GR1-1
  6
細い実線
 62
     2
100
AcDbLine
 10
698.342263
 20
186.718822
 30
0.0
 11
698.342263
 21
188.85793
 31
0.0
  0
LINE
  5
104
330
FE
100
AcDbEntity
  8
GR1-1
  6
細い実線
 62
     2
100
AcDbLine
 10
696.812263
 20
188.25793
 30
0.0
 11
696.032263
 21
188.25793
 31
0.0
  0
LINE
  5
105
330
FE
100
AcDbEntity
  8
GR1-1
  6
細い実線
 62
     2
100
AcDbLine
 10
699.122263
 20
188.25793
 30
0.0
 11
699.902263
 21
188.25793
 31
0.0
  0
TEXT
  5
106
330
FE
100
AcDbEntity
  8
GR1-1
  6
細い実線
 62
     4
100
AcDbText
 10
695.867266
 20
189.75793
 30
0.0
 40
1.5
  1
12.5
 41
0.7
  7
FX_VECTOR
 72
     5
 11
700.067266
 21
189.75793
 31
0.0
100
AcDbText
  0
LINE
  5
107
330
FE
100
AcDbEntity
  8
GR1-1
  6
細い実線
 62
     2
100
AcDbLine
 10
696.812263
 20
188.38793
 30
0.0
 11
696.812263
 21
188.12793
 31
0.0
  0
LINE
  5
108
330
FE
100
AcDbEntity
  8
GR1-1
  6
細い実線
 62
     2
100
AcDbLine
 10
696.812263
 20
188.12793
 30
0.0
 11
697.592263
 21
188.25793
 31
0.0
  0
LINE
  5
109
330
FE
100
AcDbEntity
  8
GR1-1
  6
細い実線
 62
     2
100
AcDbLine
 10
697.592263
 20
188.25793
 30
0.0
 11
696.812263
 21
188.38793
 31
0.0
  0
LINE
  5
10A
330
FE
100
AcDbEntity
  8
GR1-1
  6
細い実線
 62
     2
100
AcDbLine
 10
699.122263
 20
188.38793
 30
0.0
 11
699.122263
 21
188.12793
 31
0.0
  0
LINE
  5
10B
330
FE
100
AcDbEntity
  8
GR1-1
  6
細い実線
 62
     2
100
AcDbLine
 10
699.122263
 20
188.12793
 30
0.0
 11
698.342263
 21
188.25793
 31
0.0
  0
LINE
  5
10C
330
FE
100
AcDbEntity
  8
GR1-1
  6
細い実線
 62
     2
100
AcDbLine
 10
698.342263
 20
188.25793
 30
0.0
 11
699.122263
 21
188.38793
 31
0.0
  0
ENDBLK
  5
100
330
FE
100
AcDbEntity
  8
0
100
AcDbBlockEnd
  0
BLOCK
  5
10E
330
10D
100
AcDbEntity
  8
0
100
AcDbBlockBegin
  2
BLKF024
 70
     0
 71
     0
 10
0.0
 20
0.0
 30
0.0
  3
BLKF024
  1

  0
LINE
  5
111
330
10D
100
AcDbEntity
  8
GR1-1
  6
細い実線
 62
     4
100
AcDbLine
 10
697.067263
 20
181.261561
 30
0.0
 11
698.867263
 21
181.261561
 31
0.0
  0
LINE
  5
112
330
10D
100
AcDbEntity
  8
GR1-1
  6
細い実線
 62
     4
100
AcDbLine
 10
698.867263
 20
181.261561
 30
0.0
 11
698.867263
 21
177.961561
 31
0.0
  0
LINE
  5
113
330
10D
100
AcDbEntity
  8
GR1-1
  6
細い実線
 62
     4
100
AcDbLine
 10
698.867263
 20
177.961561
 30
0.0
 11
697.067263
 21
177.961561
 31
0.0
  0
LINE
  5
114
330
10D
100
AcDbEntity
  8
GR1-1
  6
細い実線
 62
     4
100
AcDbLine
 10
697.067263
 20
177.961561
 30
0.0
 11
697.067263
 21
181.261561
 31
0.0
  0
ENDBLK
  5
10F
330
10D
100
AcDbEntity
  8
0
100
AcDbBlockEnd
  0
BLOCK
  5
116
330
115
100
AcDbEntity
  8
0
100
AcDbBlockBegin
  2
BLKF025
 70
     0
 71
     0
 10
0.0
 20
0.0
 30
0.0
  3
BLKF025
  1

  0
LINE
  5
119
330
115
100
AcDbEntity
  8
GR1-1
  6
細い実線
 62
     4
100
AcDbLine
 10
697.592263
 20
180.661561
 30
0.0
 11
698.342263
 21
180.661561
 31
0.0
  0
LINE
  5
11A
330
115
100
AcDbEntity
  8
GR1-1
  6
細い実線
 62
     4
100
AcDbLine
 10
698.342263
 20
180.661561
 30
0.0
 11
698.342263
 21
178.561561
 31
0.0
  0
LINE
  5
11B
330
115
100
AcDbEntity
  8
GR1-1
  6
細い実線
 62
     4
100
AcDbLine
 10
698.342263
 20
178.561561
 30
0.0
 11
697.592263
 21
178.561561
 31
0.0
  0
LINE
  5
11C
330
115
100
AcDbEntity
  8
GR1-1
  6
細い実線
 62
     4
100
AcDbLine
 10
697.592263
 20
178.561561
 30
0.0
 11
697.592263
 21
180.661561
 31
0.0
  0
ENDBLK
  5
117
330
115
100
AcDbEntity
  8
0
100
AcDbBlockEnd
  0
BLOCK
  5
122
330
121
100
AcDbEntity
  8
0
100
AcDbBlockBegin
  2
BLKF026
 70
     0
 71
     0
 10
0.0
 20
0.0
 30
0.0
  3
BLKF026
  1

  0
LINE
  5
125
330
121
100
AcDbEntity
  8
GR1-1
  6
細い実線
 62
     2
100
AcDbLine
 10
698.342263
 20
177.661561
 30
0.0
 11
698.342263
 21
172.945628
 31
0.0
  0
LINE
  5
126
330
121
100
AcDbEntity
  8
GR1-1
  6
細い実線
 62
     2
100
AcDbLine
 10
698.867263
 20
177.061561
 30
0.0
 11
698.867263
 21
172.945628
 31
0.0
  0
LINE
  5
127
330
121
100
AcDbEntity
  8
GR1-1
  6
細い実線
 62
     2
100
AcDbLine
 10
697.562263
 20
173.545628
 30
0.0
 11
696.782263
 21
173.545628
 31
0.0
  0
LINE
  5
128
330
121
100
AcDbEntity
  8
GR1-1
  6
細い実線
 62
     2
100
AcDbLine
 10
699.647263
 20
173.545628
 30
0.0
 11
700.427263
 21
173.545628
 31
0.0
  0
TEXT
  5
129
330
121
100
AcDbEntity
  8
GR1-1
  6
細い実線
 62
     4
100
AcDbText
 10
698.848438
 20
173.98041
 30
0.0
 40
1.5
  1
8.75
 41
0.7
  7
FX_VECTOR
 72
     5
 11
703.048438
 21
173.98041
 31
0.0
100
AcDbText
  0
LINE
  5
12A
330
121
100
AcDbEntity
  8
GR1-1
  6
細い実線
 62
     2
100
AcDbLine
 10
697.562263
 20
173.675628
 30
0.0
 11
697.562263
 21
173.415628
 31
0.0
  0
LINE
  5
12B
330
121
100
AcDbEntity
  8
GR1-1
  6
細い実線
 62
     2
100
AcDbLine
 10
697.562263
 20
173.415628
 30
0.0
 11
698.342263
 21
173.545628
 31
0.0
  0
LINE
  5
12C
330
121
100
AcDbEntity
  8
GR1-1
  6
細い実線
 62
     2
100
AcDbLine
 10
698.342263
 20
173.545628
 30
0.0
 11
697.562263
 21
173.675628
 31
0.0
  0
LINE
  5
12D
330
121
100
AcDbEntity
  8
GR1-1
  6
細い実線
 62
     2
100
AcDbLine
 10
699.647263
 20
173.675628
 30
0.0
 11
699.647263
 21
173.415628
 31
0.0
  0
LINE
  5
12E
330
121
100
AcDbEntity
  8
GR1-1
  6
細い実線
 62
     2
100
AcDbLine
 10
699.647263
 20
173.415628
 30
0.0
 11
698.867263
 21
173.545628
 31
0.0
  0
LINE
  5
12F
330
121
100
AcDbEntity
  8
GR1-1
  6
細い実線
 62
     2
100
AcDbLine
 10
698.867263
 20
173.545628
 30
0.0
 11
699.647263
 21
173.675628
 31
0.0
  0
ENDBLK
  5
123
330
121
100
AcDbEntity
  8
0
100
AcDbBlockEnd
  0
BLOCK
  5
131
330
130
100
AcDbEntity
  8
0
100
AcDbBlockBegin
  2
BLKF027
 70
     0
 71
     0
 10
0.0
 20
0.0
 30
0.0
  3
BLKF027
  1

  0
LINE
  5
134
330
130
100
AcDbEntity
  8
GR1-1
  6
細い実線
 62
     2
100
AcDbLine
 10
698.342263
 20
177.661561
 30
0.0
 11
698.342263
 21
172.945628
 31
0.0
  0
LINE
  5
135
330
130
100
AcDbEntity
  8
GR1-1
  6
細い実線
 62
     2
100
AcDbLine
 10
697.592263
 20
177.661561
 30
0.0
 11
697.592263
 21
172.945628
 31
0.0
  0
LINE
  5
136
330
130
100
AcDbEntity
  8
GR1-1
  6
細い実線
 62
     2
100
AcDbLine
 10
699.122263
 20
173.545628
 30
0.0
 11
699.902263
 21
173.545628
 31
0.0
  0
LINE
  5
137
330
130
100
AcDbEntity
  8
GR1-1
  6
細い実線
 62
     2
100
AcDbLine
 10
696.812263
 20
173.545628
 30
0.0
 11
696.032263
 21
173.545628
 31
0.0
  0
TEXT
  5
138
330
130
100
AcDbEntity
  8
GR1-1
  6
細い実線
 62
     4
100
AcDbText
 10
695.750313
 20
171.241387
 30
0.0
 40
1.5
  1
12.5
 41
0.7
  7
FX_VECTOR
 72
     5
 11
699.950313
 21
171.241387
 31
0.0
100
AcDbText
  0
LINE
  5
139
330
130
100
AcDbEntity
  8
GR1-1
  6
細い実線
 62
     2
100
AcDbLine
 10
699.122263
 20
173.675628
 30
0.0
 11
699.122263
 21
173.415628
 31
0.0
  0
LINE
  5
13A
330
130
100
AcDbEntity
  8
GR1-1
  6
細い実線
 62
     2
100
AcDbLine
 10
699.122263
 20
173.415628
 30
0.0
 11
698.342263
 21
173.545628
 31
0.0
  0
LINE
  5
13B
330
130
100
AcDbEntity
  8
GR1-1
  6
細い実線
 62
     2
100
AcDbLine
 10
698.342263
 20
173.545628
 30
0.0
 11
699.122263
 21
173.675628
 31
0.0
  0
LINE
  5
13C
330
130
100
AcDbEntity
  8
GR1-1
  6
細い実線
 62
     2
100
AcDbLine
 10
696.812263
 20
173.675628
 30
0.0
 11
696.812263
 21
173.415628
 31
0.0
  0
LINE
  5
13D
330
130
100
AcDbEntity
  8
GR1-1
  6
細い実線
 62
     2
100
AcDbLine
 10
696.812263
 20
173.415628
 30
0.0
 11
697.592263
 21
173.545628
 31
0.0
  0
LINE
  5
13E
330
130
100
AcDbEntity
  8
GR1-1
  6
細い実線
 62
     2
100
AcDbLine
 10
697.592263
 20
173.545628
 30
0.0
 11
696.812263
 21
173.675628
 31
0.0
  0
ENDBLK
  5
132
330
130
100
AcDbEntity
  8
0
100
AcDbBlockEnd
  0
BLOCK
  5
140
330
13F
100
AcDbEntity
  8
0
100
AcDbBlockBegin
  2
BLKF028
 70
     0
 71
     0
 10
0.0
 20
0.0
 30
0.0
  3
BLKF028
  1

  0
LINE
  5
143
330
13F
100
AcDbEntity
  8
GR1-1
  6
細い実線
 62
     2
100
AcDbLine
 10
697.592263
 20
177.661561
 30
0.0
 11
697.592263
 21
172.945628
 31
0.0
  0
LINE
  5
144
330
13F
100
AcDbEntity
  8
GR1-1
  6
細い実線
 62
     2
100
AcDbLine
 10
697.067263
 20
177.061561
 30
0.0
 11
697.067263
 21
172.945628
 31
0.0
  0
LINE
  5
145
330
13F
100
AcDbEntity
  8
GR1-1
  6
細い実線
 62
     2
100
AcDbLine
 10
698.372263
 20
173.545628
 30
0.0
 11
699.152263
 21
173.545628
 31
0.0
  0
LINE
  5
146
330
13F
100
AcDbEntity
  8
GR1-1
  6
細い実線
 62
     2
100
AcDbLine
 10
696.287263
 20
173.545628
 30
0.0
 11
695.507263
 21
173.545628
 31
0.0
  0
TEXT
  5
147
330
13F
100
AcDbEntity
  8
GR1-1
  6
細い実線
 62
     4
100
AcDbText
 10
692.964219
 20
173.869063
 30
0.0
 40
1.5
  1
8.75
 41
0.7
  7
FX_VECTOR
 72
     5
 11
697.164219
 21
173.869063
 31
0.0
100
AcDbText
  0
LINE
  5
148
330
13F
100
AcDbEntity
  8
GR1-1
  6
細い実線
 62
     2
100
AcDbLine
 10
698.372263
 20
173.675628
 30
0.0
 11
698.372263
 21
173.415628
 31
0.0
  0
LINE
  5
149
330
13F
100
AcDbEntity
  8
GR1-1
  6
細い実線
 62
     2
100
AcDbLine
 10
698.372263
 20
173.415628
 30
0.0
 11
697.592263
 21
173.545628
 31
0.0
  0
LINE
  5
14A
330
13F
100
AcDbEntity
  8
GR1-1
  6
細い実線
 62
     2
100
AcDbLine
 10
697.592263
 20
173.545628
 30
0.0
 11
698.372263
 21
173.675628
 31
0.0
  0
LINE
  5
14B
330
13F
100
AcDbEntity
  8
GR1-1
  6
細い実線
 62
     2
100
AcDbLine
 10
696.287263
 20
173.675628
 30
0.0
 11
696.287263
 21
173.415628
 31
0.0
  0
LINE
  5
14C
330
13F
100
AcDbEntity
  8
GR1-1
  6
細い実線
 62
     2
100
AcDbLine
 10
696.287263
 20
173.415628
 30
0.0
 11
697.067263
 21
173.545628
 31
0.0
  0
LINE
  5
14D
330
13F
100
AcDbEntity
  8
GR1-1
  6
細い実線
 62
     2
100
AcDbLine
 10
697.067263
 20
173.545628
 30
0.0
 11
696.287263
 21
173.675628
 31
0.0
  0
ENDBLK
  5
141
330
13F
100
AcDbEntity
  8
0
100
AcDbBlockEnd
  0
BLOCK
  5
14F
330
14E
100
AcDbEntity
  8
0
100
AcDbBlockBegin
  2
BLKF029
 70
     0
 71
     0
 10
0.0
 20
0.0
 30
0.0
  3
BLKF029
  1

  0
LINE
  5
152
330
14E
100
AcDbEntity
  8
GR1-1
  6
細い実線
 62
     2
100
AcDbLine
 10
697.067263
 20
177.061561
 30
0.0
 11
697.067263
 21
167.862866
 31
0.0
  0
LINE
  5
153
330
14E
100
AcDbEntity
  8
GR1-1
  6
細い実線
 62
     2
100
AcDbLine
 10
698.867263
 20
177.061561
 30
0.0
 11
698.867263
 21
167.862866
 31
0.0
  0
LINE
  5
154
330
14E
100
AcDbEntity
  8
GR1-1
  6
細い実線
 62
     2
100
AcDbLine
 10
696.287263
 20
168.462866
 30
0.0
 11
695.507263
 21
168.462866
 31
0.0
  0
LINE
  5
155
330
14E
100
AcDbEntity
  8
GR1-1
  6
細い実線
 62
     2
100
AcDbLine
 10
699.647263
 20
168.462866
 30
0.0
 11
700.427263
 21
168.462866
 31
0.0
  0
TEXT
  5
156
330
14E
100
AcDbEntity
  8
GR1-1
  6
細い実線
 62
     4
100
AcDbText
 10
696.917266
 20
168.975996
 30
0.0
 40
1.5
  1
30
 41
0.7
  7
FX_VECTOR
 72
     5
 11
699.017266
 21
168.975996
 31
0.0
100
AcDbText
  0
LINE
  5
157
330
14E
100
AcDbEntity
  8
GR1-1
  6
細い実線
 62
     2
100
AcDbLine
 10
696.287263
 20
168.592866
 30
0.0
 11
696.287263
 21
168.332866
 31
0.0
  0
LINE
  5
158
330
14E
100
AcDbEntity
  8
GR1-1
  6
細い実線
 62
     2
100
AcDbLine
 10
696.287263
 20
168.332866
 30
0.0
 11
697.067263
 21
168.462866
 31
0.0
  0
LINE
  5
159
330
14E
100
AcDbEntity
  8
GR1-1
  6
細い実線
 62
     2
100
AcDbLine
 10
697.067263
 20
168.462866
 30
0.0
 11
696.287263
 21
168.592866
 31
0.0
  0
LINE
  5
15A
330
14E
100
AcDbEntity
  8
GR1-1
  6
細い実線
 62
     2
100
AcDbLine
 10
699.647263
 20
168.592866
 30
0.0
 11
699.647263
 21
168.332866
 31
0.0
  0
LINE
  5
15B
330
14E
100
AcDbEntity
  8
GR1-1
  6
細い実線
 62
     2
100
AcDbLine
 10
699.647263
 20
168.332866
 30
0.0
 11
698.867263
 21
168.462866
 31
0.0
  0
LINE
  5
15C
330
14E
100
AcDbEntity
  8
GR1-1
  6
細い実線
 62
     2
100
AcDbLine
 10
698.867263
 20
168.462866
 30
0.0
 11
699.647263
 21
168.592866
 31
0.0
  0
ENDBLK
  5
150
330
14E
100
AcDbEntity
  8
0
100
AcDbBlockEnd
  0
BLOCK
  5
15E
330
15D
100
AcDbEntity
  8
0
100
AcDbBlockBegin
  2
BLKF030
 70
     0
 71
     0
 10
0.0
 20
0.0
 30
0.0
  3
BLKF030
  1

  0
LINE
  5
161
330
15D
100
AcDbEntity
  8
GR1-1
  6
細い実線
 62
     2
100
AcDbLine
 10
699.242263
 20
180.661561
 30
0.0
 11
703.673689
 21
180.661561
 31
0.0
  0
LINE
  5
162
330
15D
100
AcDbEntity
  8
GR1-1
  6
細い実線
 62
     2
100
AcDbLine
 10
699.767263
 20
181.261561
 30
0.0
 11
703.673689
 21
181.261561
 31
0.0
  0
LINE
  5
163
330
15D
100
AcDbEntity
  8
GR1-1
  6
細い実線
 62
     2
100
AcDbLine
 10
703.073689
 20
179.881561
 30
0.0
 11
703.073689
 21
179.101561
 31
0.0
  0
LINE
  5
164
330
15D
100
AcDbEntity
  8
GR1-1
  6
細い実線
 62
     2
100
AcDbLine
 10
703.073689
 20
182.041561
 30
0.0
 11
703.073689
 21
182.821561
 31
0.0
  0
TEXT
  5
165
330
15D
100
AcDbEntity
  8
GR1-1
  6
細い実線
 62
     4
100
AcDbText
 10
702.512109
 20
181.246934
 30
0.0
 40
1.5
  1
10
 50
90.0
 41
0.7
  7
FX_VECTOR
 72
     5
 11
702.512109
 21
183.346934
 31
0.0
100
AcDbText
  0
LINE
  5
166
330
15D
100
AcDbEntity
  8
GR1-1
  6
細い実線
 62
     2
100
AcDbLine
 10
702.943689
 20
179.881561
 30
0.0
 11
703.203689
 21
179.881561
 31
0.0
  0
LINE
  5
167
330
15D
100
AcDbEntity
  8
GR1-1
  6
細い実線
 62
     2
100
AcDbLine
 10
703.203689
 20
179.881561
 30
0.0
 11
703.073689
 21
180.661561
 31
0.0
  0
LINE
  5
168
330
15D
100
AcDbEntity
  8
GR1-1
  6
細い実線
 62
     2
100
AcDbLine
 10
703.073689
 20
180.661561
 30
0.0
 11
702.943689
 21
179.881561
 31
0.0
  0
LINE
  5
169
330
15D
100
AcDbEntity
  8
GR1-1
  6
細い実線
 62
     2
100
AcDbLine
 10
702.943689
 20
182.041561
 30
0.0
 11
703.203689
 21
182.041561
 31
0.0
  0
LINE
  5
16A
330
15D
100
AcDbEntity
  8
GR1-1
  6
細い実線
 62
     2
100
AcDbLine
 10
703.203689
 20
182.041561
 30
0.0
 11
703.073689
 21
181.261561
 31
0.0
  0
LINE
  5
16B
330
15D
100
AcDbEntity
  8
GR1-1
  6
細い実線
 62
     2
100
AcDbLine
 10
703.073689
 20
181.261561
 30
0.0
 11
702.943689
 21
182.041561
 31
0.0
  0
ENDBLK
  5
15F
330
15D
100
AcDbEntity
  8
0
100
AcDbBlockEnd
  0
BLOCK
  5
16D
330
16C
100
AcDbEntity
  8
0
100
AcDbBlockBegin
  2
BLKF031
 70
     0
 71
     0
 10
0.0
 20
0.0
 30
0.0
  3
BLKF031
  1

  0
LINE
  5
170
330
16C
100
AcDbEntity
  8
GR1-1
  6
細い実線
 62
     2
100
AcDbLine
 10
699.242263
 20
180.661561
 30
0.0
 11
703.673689
 21
180.661561
 31
0.0
  0
LINE
  5
171
330
16C
100
AcDbEntity
  8
GR1-1
  6
細い実線
 62
     2
100
AcDbLine
 10
699.242263
 20
178.561561
 30
0.0
 11
703.673689
 21
178.561561
 31
0.0
  0
LINE
  5
172
330
16C
100
AcDbEntity
  8
GR1-1
  6
細い実線
 62
     2
100
AcDbLine
 10
703.073689
 20
181.441561
 30
0.0
 11
703.073689
 21
182.221561
 31
0.0
  0
LINE
  5
173
330
16C
100
AcDbEntity
  8
GR1-1
  6
細い実線
 62
     2
100
AcDbLine
 10
703.073689
 20
177.781561
 30
0.0
 11
703.073689
 21
177.001561
 31
0.0
  0
TEXT
  5
174
330
16C
100
AcDbEntity
  8
GR1-1
  6
細い実線
 62
     4
100
AcDbText
 10
702.628516
 20
178.501523
 30
0.0
 40
1.5
  1
35
 50
90.0
 41
0.7
  7
FX_VECTOR
 72
     5
 11
702.628516
 21
180.601523
 31
0.0
100
AcDbText
  0
LINE
  5
175
330
16C
100
AcDbEntity
  8
GR1-1
  6
細い実線
 62
     2
100
AcDbLine
 10
702.943689
 20
181.441561
 30
0.0
 11
703.203689
 21
181.441561
 31
0.0
  0
LINE
  5
176
330
16C
100
AcDbEntity
  8
GR1-1
  6
細い実線
 62
     2
100
AcDbLine
 10
703.203689
 20
181.441561
 30
0.0
 11
703.073689
 21
180.661561
 31
0.0
  0
LINE
  5
177
330
16C
100
AcDbEntity
  8
GR1-1
  6
細い実線
 62
     2
100
AcDbLine
 10
703.073689
 20
180.661561
 30
0.0
 11
702.943689
 21
181.441561
 31
0.0
  0
LINE
  5
178
330
16C
100
AcDbEntity
  8
GR1-1
  6
細い実線
 62
     2
100
AcDbLine
 10
702.943689
 20
177.781561
 30
0.0
 11
703.203689
 21
177.781561
 31
0.0
  0
LINE
  5
179
330
16C
100
AcDbEntity
  8
GR1-1
  6
細い実線
 62
     2
100
AcDbLine
 10
703.203689
 20
177.781561
 30
0.0
 11
703.073689
 21
178.561561
 31
0.0
  0
LINE
  5
17A
330
16C
100
AcDbEntity
  8
GR1-1
  6
細い実線
 62
     2
100
AcDbLine
 10
703.073689
 20
178.561561
 30
0.0
 11
702.943689
 21
177.781561
 31
0.0
  0
ENDBLK
  5
16E
330
16C
100
AcDbEntity
  8
0
100
AcDbBlockEnd
  0
BLOCK
  5
17C
330
17B
100
AcDbEntity
  8
0
100
AcDbBlockBegin
  2
BLKF032
 70
     0
 71
     0
 10
0.0
 20
0.0
 30
0.0
  3
BLKF032
  1

  0
LINE
  5
17F
330
17B
100
AcDbEntity
  8
GR1-1
  6
細い実線
 62
     2
100
AcDbLine
 10
699.242263
 20
178.561561
 30
0.0
 11
703.673689
 21
178.561561
 31
0.0
  0
LINE
  5
180
330
17B
100
AcDbEntity
  8
GR1-1
  6
細い実線
 62
     2
100
AcDbLine
 10
699.767263
 20
177.961561
 30
0.0
 11
703.673689
 21
177.961561
 31
0.0
  0
LINE
  5
181
330
17B
100
AcDbEntity
  8
GR1-1
  6
細い実線
 62
     2
100
AcDbLine
 10
703.073689
 20
179.341561
 30
0.0
 11
703.073689
 21
180.121561
 31
0.0
  0
LINE
  5
182
330
17B
100
AcDbEntity
  8
GR1-1
  6
細い実線
 62
     2
100
AcDbLine
 10
703.073689
 20
177.181561
 30
0.0
 11
703.073689
 21
176.401561
 31
0.0
  0
TEXT
  5
183
330
17B
100
AcDbEntity
  8
GR1-1
  6
細い実線
 62
     4
100
AcDbText
 10
702.605234
 20
175.942246
 30
0.0
 40
1.5
  1
10
 50
90.0
 41
0.7
  7
FX_VECTOR
 72
     5
 11
702.605234
 21
178.042246
 31
0.0
100
AcDbText
  0
LINE
  5
184
330
17B
100
AcDbEntity
  8
GR1-1
  6
細い実線
 62
     2
100
AcDbLine
 10
702.943689
 20
179.341561
 30
0.0
 11
703.203689
 21
179.341561
 31
0.0
  0
LINE
  5
185
330
17B
100
AcDbEntity
  8
GR1-1
  6
細い実線
 62
     2
100
AcDbLine
 10
703.203689
 20
179.341561
 30
0.0
 11
703.073689
 21
178.561561
 31
0.0
  0
LINE
  5
186
330
17B
100
AcDbEntity
  8
GR1-1
  6
細い実線
 62
     2
100
AcDbLine
 10
703.073689
 20
178.561561
 30
0.0
 11
702.943689
 21
179.341561
 31
0.0
  0
LINE
  5
187
330
17B
100
AcDbEntity
  8
GR1-1
  6
細い実線
 62
     2
100
AcDbLine
 10
702.943689
 20
177.181561
 30
0.0
 11
703.203689
 21
177.181561
 31
0.0
  0
LINE
  5
188
330
17B
100
AcDbEntity
  8
GR1-1
  6
細い実線
 62
     2
100
AcDbLine
 10
703.203689
 20
177.181561
 30
0.0
 11
703.073689
 21
177.961561
 31
0.0
  0
LINE
  5
189
330
17B
100
AcDbEntity
  8
GR1-1
  6
細い実線
 62
     2
100
AcDbLine
 10
703.073689
 20
177.961561
 30
0.0
 11
702.943689
 21
177.181561
 31
0.0
  0
ENDBLK
  5
17D
330
17B
100
AcDbEntity
  8
0
100
AcDbBlockEnd
  0
BLOCK
  5
18B
330
18A
100
AcDbEntity
  8
0
100
AcDbBlockBegin
  2
BLKF033
 70
     0
 71
     0
 10
0.0
 20
0.0
 30
0.0
  3
BLKF033
  1

  0
LINE
  5
18E
330
18A
100
AcDbEntity
  8
GR1-1
  6
細い実線
 62
     2
100
AcDbLine
 10
699.767263
 20
181.261561
 30
0.0
 11
706.836621
 21
181.261561
 31
0.0
  0
LINE
  5
18F
330
18A
100
AcDbEntity
  8
GR1-1
  6
細い実線
 62
     2
100
AcDbLine
 10
699.767263
 20
177.961561
 30
0.0
 11
706.836621
 21
177.961561
 31
0.0
  0
LINE
  5
190
330
18A
100
AcDbEntity
  8
GR1-1
  6
細い実線
 62
     2
100
AcDbLine
 10
706.236621
 20
180.481561
 30
0.0
 11
706.236621
 21
178.741561
 31
0.0
  0
LINE
  5
191
330
18A
100
AcDbEntity
  8
GR1-1
  6
細い実線
 62
     2
100
AcDbLine
 10
706.106621
 20
180.481561
 30
0.0
 11
706.366621
 21
180.481561
 31
0.0
  0
LINE
  5
192
330
18A
100
AcDbEntity
  8
GR1-1
  6
細い実線
 62
     2
100
AcDbLine
 10
706.366621
 20
180.481561
 30
0.0
 11
706.236621
 21
181.261561
 31
0.0
  0
LINE
  5
193
330
18A
100
AcDbEntity
  8
GR1-1
  6
細い実線
 62
     2
100
AcDbLine
 10
706.236621
 20
181.261561
 30
0.0
 11
706.106621
 21
180.481561
 31
0.0
  0
LINE
  5
194
330
18A
100
AcDbEntity
  8
GR1-1
  6
細い実線
 62
     2
100
AcDbLine
 10
706.106621
 20
178.741561
 30
0.0
 11
706.366621
 21
178.741561
 31
0.0
  0
LINE
  5
195
330
18A
100
AcDbEntity
  8
GR1-1
  6
細い実線
 62
     2
100
AcDbLine
 10
706.366621
 20
178.741561
 30
0.0
 11
706.236621
 21
177.961561
 31
0.0
  0
LINE
  5
196
330
18A
100
AcDbEntity
  8
GR1-1
  6
細い実線
 62
     2
100
AcDbLine
 10
706.236621
 20
177.961561
 30
0.0
 11
706.106621
 21
178.741561
 31
0.0
  0
TEXT
  5
197
330
18A
100
AcDbEntity
  8
GR1-1
  6
細い実線
 62
     4
100
AcDbText
 10
705.636562
 20
178.561563
 30
0.0
 40
1.5
  1
55
 50
90.0
 41
0.7
  7
FX_VECTOR
 72
     5
 11
705.636562
 21
180.661563
 31
0.0
100
AcDbText
  0
ENDBLK
  5
18C
330
18A
100
AcDbEntity
  8
0
100
AcDbBlockEnd
  0
BLOCK
  5
199
330
198
100
AcDbEntity
  8
0
100
AcDbBlockBegin
  2
BLKF034
 70
     0
 71
     0
 10
0.0
 20
0.0
 30
0.0
  3
BLKF034
  1

  0
LINE
  5
19C
330
198
100
AcDbEntity
  8
GR1-1
  6
細い実線
 62
     2
100
AcDbLine
 10
696.692263
 20
185.818822
 30
0.0
 11
693.055547
 21
185.818822
 31
0.0
  0
LINE
  5
19D
330
198
100
AcDbEntity
  8
GR1-1
  6
細い実線
 62
     2
100
AcDbLine
 10
695.277937
 20
182.818822
 30
0.0
 11
693.055547
 21
182.818822
 31
0.0
  0
LINE
  5
19E
330
198
100
AcDbEntity
  8
GR1-1
  6
細い実線
 62
     2
100
AcDbLine
 10
693.655547
 20
185.038822
 30
0.0
 11
693.655547
 21
183.598822
 31
0.0
  0
LINE
  5
19F
330
198
100
AcDbEntity
  8
GR1-1
  6
細い実線
 62
     2
100
AcDbLine
 10
693.525547
 20
185.038822
 30
0.0
 11
693.785547
 21
185.038822
 31
0.0
  0
LINE
  5
1A0
330
198
100
AcDbEntity
  8
GR1-1
  6
細い実線
 62
     2
100
AcDbLine
 10
693.785547
 20
185.038822
 30
0.0
 11
693.655547
 21
185.818822
 31
0.0
  0
LINE
  5
1A1
330
198
100
AcDbEntity
  8
GR1-1
  6
細い実線
 62
     2
100
AcDbLine
 10
693.655547
 20
185.818822
 30
0.0
 11
693.525547
 21
185.038822
 31
0.0
  0
LINE
  5
1A2
330
198
100
AcDbEntity
  8
GR1-1
  6
細い実線
 62
     2
100
AcDbLine
 10
693.525547
 20
183.598822
 30
0.0
 11
693.785547
 21
183.598822
 31
0.0
  0
LINE
  5
1A3
330
198
100
AcDbEntity
  8
GR1-1
  6
細い実線
 62
     2
100
AcDbLine
 10
693.785547
 20
183.598822
 30
0.0
 11
693.655547
 21
182.818822
 31
0.0
  0
LINE
  5
1A4
330
198
100
AcDbEntity
  8
GR1-1
  6
細い実線
 62
     2
100
AcDbLine
 10
693.655547
 20
182.818822
 30
0.0
 11
693.525547
 21
183.598822
 31
0.0
  0
TEXT
  5
1A5
330
198
100
AcDbEntity
  8
GR1-1
  6
細い実線
 62
     4
100
AcDbText
 10
693.055547
 20
183.268828
 30
0.0
 40
1.5
  1
50
 50
90.0
 41
0.7
  7
FX_VECTOR
 72
     5
 11
693.055547
 21
185.368828
 31
0.0
100
AcDbText
  0
ENDBLK
  5
19A
330
198
100
AcDbEntity
  8
0
100
AcDbBlockEnd
  0
BLOCK
  5
1A9
330
1A8
100
AcDbEntity
  8
0
100
AcDbBlockBegin
  2
BLKF035
 70
     0
 71
     0
 10
0.0
 20
0.0
 30
0.0
  3
BLKF035
  1

  0
LINE
  5
1AC
330
1A8
100
AcDbEntity
  8
GR1-1
  6
細い実線
 62
     2
100
AcDbLine
 10
683.452713
 20
182.603677
 30
0.0
 11
686.427091
 21
182.603677
 31
0.0
  0
LINE
  5
1AD
330
1A8
100
AcDbEntity
  8
GR1-1
  6
細い実線
 62
     2
100
AcDbLine
 10
682.038387
 20
179.603677
 30
0.0
 11
686.427091
 21
179.603677
 31
0.0
  0
LINE
  5
1AE
330
1A8
100
AcDbEntity
  8
GR1-1
  6
細い実線
 62
     2
100
AcDbLine
 10
685.827091
 20
181.823677
 30
0.0
 11
685.827091
 21
180.383677
 31
0.0
  0
LINE
  5
1AF
330
1A8
100
AcDbEntity
  8
GR1-1
  6
細い実線
 62
     2
100
AcDbLine
 10
685.697091
 20
181.823677
 30
0.0
 11
685.957091
 21
181.823677
 31
0.0
  0
LINE
  5
1B0
330
1A8
100
AcDbEntity
  8
GR1-1
  6
細い実線
 62
     2
100
AcDbLine
 10
685.957091
 20
181.823677
 30
0.0
 11
685.827091
 21
182.603677
 31
0.0
  0
LINE
  5
1B1
330
1A8
100
AcDbEntity
  8
GR1-1
  6
細い実線
 62
     2
100
AcDbLine
 10
685.827091
 20
182.603677
 30
0.0
 11
685.697091
 21
181.823677
 31
0.0
  0
LINE
  5
1B2
330
1A8
100
AcDbEntity
  8
GR1-1
  6
細い実線
 62
     2
100
AcDbLine
 10
685.697091
 20
180.383677
 30
0.0
 11
685.957091
 21
180.383677
 31
0.0
  0
LINE
  5
1B3
330
1A8
100
AcDbEntity
  8
GR1-1
  6
細い実線
 62
     2
100
AcDbLine
 10
685.957091
 20
180.383677
 30
0.0
 11
685.827091
 21
179.603677
 31
0.0
  0
LINE
  5
1B4
330
1A8
100
AcDbEntity
  8
GR1-1
  6
細い実線
 62
     2
100
AcDbLine
 10
685.827091
 20
179.603677
 30
0.0
 11
685.697091
 21
180.383677
 31
0.0
  0
TEXT
  5
1B5
330
1A8
100
AcDbEntity
  8
GR1-1
  6
細い実線
 62
     4
100
AcDbText
 10
685.227031
 20
180.053672
 30
0.0
 40
1.5
  1
50
 50
90.0
 41
0.7
  7
FX_VECTOR
 72
     5
 11
685.227031
 21
182.153672
 31
0.0
100
AcDbText
  0
ENDBLK
  5
1AA
330
1A8
100
AcDbEntity
  8
0
100
AcDbBlockEnd
  0
BLOCK
  5
1B7
330
1B6
100
AcDbEntity
  8
0
100
AcDbBlockBegin
  2
BLKF036
 70
     0
 71
     0
 10
0.0
 20
0.0
 30
0.0
  3
BLKF036
  1

  0
LINE
  5
1BA
330
1B6
100
AcDbEntity
  8
GR1-1
  6
細い実線
 62
     2
100
AcDbLine
 10
693.501493
 20
212.140298
 30
0.0
 11
693.501493
 21
208.171677
 31
0.0
  0
LINE
  5
1BB
330
1B6
100
AcDbEntity
  8
GR1-1
  6
細い実線
 62
     2
100
AcDbLine
 10
693.201493
 20
211.420298
 30
0.0
 11
693.201493
 21
208.171677
 31
0.0
  0
LINE
  5
1BC
330
1B6
100
AcDbEntity
  8
GR1-1
  6
細い実線
 62
     2
100
AcDbLine
 10
694.281493
 20
208.771677
 30
0.0
 11
695.061493
 21
208.771677
 31
0.0
  0
LINE
  5
1BD
330
1B6
100
AcDbEntity
  8
GR1-1
  6
細い実線
 62
     2
100
AcDbLine
 10
692.421493
 20
208.771677
 30
0.0
 11
691.641493
 21
208.771677
 31
0.0
  0
TEXT
  5
1BE
330
1B6
100
AcDbEntity
  8
GR1-1
  6
細い実線
 62
     4
100
AcDbText
 10
691.75
 20
209.1375
 30
0.0
 40
1.5
  1
5
 41
0.7
  7
FX_VECTOR
 72
     5
 11
692.8
 21
209.1375
 31
0.0
100
AcDbText
  0
LINE
  5
1BF
330
1B6
100
AcDbEntity
  8
GR1-1
  6
細い実線
 62
     2
100
AcDbLine
 10
694.281493
 20
208.901677
 30
0.0
 11
694.281493
 21
208.641677
 31
0.0
  0
LINE
  5
1C0
330
1B6
100
AcDbEntity
  8
GR1-1
  6
細い実線
 62
     2
100
AcDbLine
 10
694.281493
 20
208.641677
 30
0.0
 11
693.501493
 21
208.771677
 31
0.0
  0
LINE
  5
1C1
330
1B6
100
AcDbEntity
  8
GR1-1
  6
細い実線
 62
     2
100
AcDbLine
 10
693.501493
 20
208.771677
 30
0.0
 11
694.281493
 21
208.901677
 31
0.0
  0
LINE
  5
1C2
330
1B6
100
AcDbEntity
  8
GR1-1
  6
細い実線
 62
     2
100
AcDbLine
 10
692.421493
 20
208.901677
 30
0.0
 11
692.421493
 21
208.641677
 31
0.0
  0
LINE
  5
1C3
330
1B6
100
AcDbEntity
  8
GR1-1
  6
細い実線
 62
     2
100
AcDbLine
 10
692.421493
 20
208.641677
 30
0.0
 11
693.201493
 21
208.771677
 31
0.0
  0
LINE
  5
1C4
330
1B6
100
AcDbEntity
  8
GR1-1
  6
細い実線
 62
     2
100
AcDbLine
 10
693.201493
 20
208.771677
 30
0.0
 11
692.421493
 21
208.901677
 31
0.0
  0
ENDBLK
  5
1B8
330
1B6
100
AcDbEntity
  8
0
100
AcDbBlockEnd
  0
BLOCK
  5
1C6
330
1C5
100
AcDbEntity
  8
0
100
AcDbBlockBegin
  2
BLKF037
 70
     0
 71
     0
 10
0.0
 20
0.0
 30
0.0
  3
BLKF037
  1

  0
LINE
  5
1C9
330
1C5
100
AcDbEntity
  8
GR1-1
  6
細い実線
 62
     2
100
AcDbLine
 10
693.501493
 20
212.140298
 30
0.0
 11
693.501493
 21
208.171677
 31
0.0
  0
LINE
  5
1CA
330
1C5
100
AcDbEntity
  8
GR1-1
  6
細い実線
 62
     2
100
AcDbLine
 10
695.901493
 20
212.140298
 30
0.0
 11
695.901493
 21
208.171677
 31
0.0
  0
LINE
  5
1CB
330
1C5
100
AcDbEntity
  8
GR1-1
  6
細い実線
 62
     2
100
AcDbLine
 10
692.721493
 20
208.771677
 30
0.0
 11
691.941493
 21
208.771677
 31
0.0
  0
LINE
  5
1CC
330
1C5
100
AcDbEntity
  8
GR1-1
  6
細い実線
 62
     2
100
AcDbLine
 10
696.681493
 20
208.771677
 30
0.0
 11
697.461493
 21
208.771677
 31
0.0
  0
TEXT
  5
1CD
330
1C5
100
AcDbEntity
  8
GR1-1
  6
細い実線
 62
     4
100
AcDbText
 10
693.536563
 20
209.215352
 30
0.0
 40
1.5
  1
40
 41
0.7
  7
FX_VECTOR
 72
     5
 11
695.636563
 21
209.215352
 31
0.0
100
AcDbText
  0
LINE
  5
1CE
330
1C5
100
AcDbEntity
  8
GR1-1
  6
細い実線
 62
     2
100
AcDbLine
 10
692.721493
 20
208.901677
 30
0.0
 11
692.721493
 21
208.641677
 31
0.0
  0
LINE
  5
1CF
330
1C5
100
AcDbEntity
  8
GR1-1
  6
細い実線
 62
     2
100
AcDbLine
 10
692.721493
 20
208.641677
 30
0.0
 11
693.501493
 21
208.771677
 31
0.0
  0
LINE
  5
1D0
330
1C5
100
AcDbEntity
  8
GR1-1
  6
細い実線
 62
     2
100
AcDbLine
 10
693.501493
 20
208.771677
 30
0.0
 11
692.721493
 21
208.901677
 31
0.0
  0
LINE
  5
1D1
330
1C5
100
AcDbEntity
  8
GR1-1
  6
細い実線
 62
     2
100
AcDbLine
 10
696.681493
 20
208.901677
 30
0.0
 11
696.681493
 21
208.641677
 31
0.0
  0
LINE
  5
1D2
330
1C5
100
AcDbEntity
  8
GR1-1
  6
細い実線
 62
     2
100
AcDbLine
 10
696.681493
 20
208.641677
 30
0.0
 11
695.901493
 21
208.771677
 31
0.0
  0
LINE
  5
1D3
330
1C5
100
AcDbEntity
  8
GR1-1
  6
細い実線
 62
     2
100
AcDbLine
 10
695.901493
 20
208.771677
 30
0.0
 11
696.681493
 21
208.901677
 31
0.0
  0
ENDBLK
  5
1C7
330
1C5
100
AcDbEntity
  8
0
100
AcDbBlockEnd
  0
BLOCK
  5
1D5
330
1D4
100
AcDbEntity
  8
0
100
AcDbBlockBegin
  2
BLKF038
 70
     0
 71
     0
 10
0.0
 20
0.0
 30
0.0
  3
BLKF038
  1

  0
LINE
  5
1D8
330
1D4
100
AcDbEntity
  8
GR1-1
  6
細い実線
 62
     2
100
AcDbLine
 10
693.201493
 20
211.420298
 30
0.0
 11
693.201493
 21
204.528202
 31
0.0
  0
LINE
  5
1D9
330
1D4
100
AcDbEntity
  8
GR1-1
  6
細い実線
 62
     2
100
AcDbLine
 10
695.901493
 20
212.140298
 30
0.0
 11
695.901493
 21
204.528202
 31
0.0
  0
LINE
  5
1DA
330
1D4
100
AcDbEntity
  8
GR1-1
  6
細い実線
 62
     2
100
AcDbLine
 10
692.421493
 20
205.128202
 30
0.0
 11
691.641493
 21
205.128202
 31
0.0
  0
LINE
  5
1DB
330
1D4
100
AcDbEntity
  8
GR1-1
  6
細い実線
 62
     2
100
AcDbLine
 10
696.681493
 20
205.128202
 30
0.0
 11
697.461493
 21
205.128202
 31
0.0
  0
TEXT
  5
1DC
330
1D4
100
AcDbEntity
  8
GR1-1
  6
細い実線
 62
     4
100
AcDbText
 10
693.458594
 20
205.596563
 30
0.0
 40
1.5
  1
45
 41
0.7
  7
FX_VECTOR
 72
     5
 11
695.558594
 21
205.596563
 31
0.0
100
AcDbText
  0
LINE
  5
1DD
330
1D4
100
AcDbEntity
  8
GR1-1
  6
細い実線
 62
     2
100
AcDbLine
 10
692.421493
 20
205.258202
 30
0.0
 11
692.421493
 21
204.998202
 31
0.0
  0
LINE
  5
1DE
330
1D4
100
AcDbEntity
  8
GR1-1
  6
細い実線
 62
     2
100
AcDbLine
 10
692.421493
 20
204.998202
 30
0.0
 11
693.201493
 21
205.128202
 31
0.0
  0
LINE
  5
1DF
330
1D4
100
AcDbEntity
  8
GR1-1
  6
細い実線
 62
     2
100
AcDbLine
 10
693.201493
 20
205.128202
 30
0.0
 11
692.421493
 21
205.258202
 31
0.0
  0
LINE
  5
1E0
330
1D4
100
AcDbEntity
  8
GR1-1
  6
細い実線
 62
     2
100
AcDbLine
 10
696.681493
 20
205.258202
 30
0.0
 11
696.681493
 21
204.998202
 31
0.0
  0
LINE
  5
1E1
330
1D4
100
AcDbEntity
  8
GR1-1
  6
細い実線
 62
     2
100
AcDbLine
 10
696.681493
 20
204.998202
 30
0.0
 11
695.901493
 21
205.128202
 31
0.0
  0
LINE
  5
1E2
330
1D4
100
AcDbEntity
  8
GR1-1
  6
細い実線
 62
     2
100
AcDbLine
 10
695.901493
 20
205.128202
 30
0.0
 11
696.681493
 21
205.258202
 31
0.0
  0
ENDBLK
  5
1D6
330
1D4
100
AcDbEntity
  8
0
100
AcDbBlockEnd
  0
BLOCK
  5
1E4
330
1E3
100
AcDbEntity
  8
0
100
AcDbBlockBegin
  2
BLKF039
 70
     0
 71
     0
 10
0.0
 20
0.0
 30
0.0
  3
BLKF039
  1

  0
LINE
  5
1E7
330
1E3
100
AcDbEntity
  8
GR1-1
  6
細い実線
 62
     2
100
AcDbLine
 10
683.35119
 20
212.140298
 30
0.0
 11
683.35119
 21
208.171677
 31
0.0
  0
LINE
  5
1E8
330
1E3
100
AcDbEntity
  8
GR1-1
  6
細い実線
 62
     2
100
AcDbLine
 10
683.05119
 20
211.420298
 30
0.0
 11
683.05119
 21
208.171677
 31
0.0
  0
LINE
  5
1E9
330
1E3
100
AcDbEntity
  8
GR1-1
  6
細い実線
 62
     2
100
AcDbLine
 10
684.13119
 20
208.771677
 30
0.0
 11
684.91119
 21
208.771677
 31
0.0
  0
LINE
  5
1EA
330
1E3
100
AcDbEntity
  8
GR1-1
  6
細い実線
 62
     2
100
AcDbLine
 10
682.27119
 20
208.771677
 30
0.0
 11
681.49119
 21
208.771677
 31
0.0
  0
TEXT
  5
1EB
330
1E3
100
AcDbEntity
  8
GR1-1
  6
細い実線
 62
     4
100
AcDbText
 10
681.620625
 20
209.189395
 30
0.0
 40
1.5
  1
5
 41
0.7
  7
FX_VECTOR
 72
     5
 11
682.670625
 21
209.189395
 31
0.0
100
AcDbText
  0
LINE
  5
1EC
330
1E3
100
AcDbEntity
  8
GR1-1
  6
細い実線
 62
     2
100
AcDbLine
 10
684.13119
 20
208.901677
 30
0.0
 11
684.13119
 21
208.641677
 31
0.0
  0
LINE
  5
1ED
330
1E3
100
AcDbEntity
  8
GR1-1
  6
細い実線
 62
     2
100
AcDbLine
 10
684.13119
 20
208.641677
 30
0.0
 11
683.35119
 21
208.771677
 31
0.0
  0
LINE
  5
1EE
330
1E3
100
AcDbEntity
  8
GR1-1
  6
細い実線
 62
     2
100
AcDbLine
 10
683.35119
 20
208.771677
 30
0.0
 11
684.13119
 21
208.901677
 31
0.0
  0
LINE
  5
1EF
330
1E3
100
AcDbEntity
  8
GR1-1
  6
細い実線
 62
     2
100
AcDbLine
 10
682.27119
 20
208.901677
 30
0.0
 11
682.27119
 21
208.641677
 31
0.0
  0
LINE
  5
1F0
330
1E3
100
AcDbEntity
  8
GR1-1
  6
細い実線
 62
     2
100
AcDbLine
 10
682.27119
 20
208.641677
 30
0.0
 11
683.05119
 21
208.771677
 31
0.0
  0
LINE
  5
1F1
330
1E3
100
AcDbEntity
  8
GR1-1
  6
細い実線
 62
     2
100
AcDbLine
 10
683.05119
 20
208.771677
 30
0.0
 11
682.27119
 21
208.901677
 31
0.0
  0
ENDBLK
  5
1E5
330
1E3
100
AcDbEntity
  8
0
100
AcDbBlockEnd
  0
BLOCK
  5
1F3
330
1F2
100
AcDbEntity
  8
0
100
AcDbBlockBegin
  2
BLKF040
 70
     0
 71
     0
 10
0.0
 20
0.0
 30
0.0
  3
BLKF040
  1

  0
LINE
  5
1F6
330
1F2
100
AcDbEntity
  8
GR1-1
  6
細い実線
 62
     2
100
AcDbLine
 10
683.35119
 20
212.140298
 30
0.0
 11
683.35119
 21
208.171677
 31
0.0
  0
LINE
  5
1F7
330
1F2
100
AcDbEntity
  8
GR1-1
  6
細い実線
 62
     2
100
AcDbLine
 10
685.75119
 20
212.140298
 30
0.0
 11
685.75119
 21
208.171677
 31
0.0
  0
LINE
  5
1F8
330
1F2
100
AcDbEntity
  8
GR1-1
  6
細い実線
 62
     2
100
AcDbLine
 10
682.57119
 20
208.771677
 30
0.0
 11
681.79119
 21
208.771677
 31
0.0
  0
LINE
  5
1F9
330
1F2
100
AcDbEntity
  8
GR1-1
  6
細い実線
 62
     2
100
AcDbLine
 10
686.53119
 20
208.771677
 30
0.0
 11
687.31119
 21
208.771677
 31
0.0
  0
TEXT
  5
1FA
330
1F2
100
AcDbEntity
  8
GR1-1
  6
細い実線
 62
     4
100
AcDbText
 10
683.277344
 20
209.215352
 30
0.0
 40
1.5
  1
40
 41
0.7
  7
FX_VECTOR
 72
     5
 11
685.377344
 21
209.215352
 31
0.0
100
AcDbText
  0
LINE
  5
1FB
330
1F2
100
AcDbEntity
  8
GR1-1
  6
細い実線
 62
     2
100
AcDbLine
 10
682.57119
 20
208.901677
 30
0.0
 11
682.57119
 21
208.641677
 31
0.0
  0
LINE
  5
1FC
330
1F2
100
AcDbEntity
  8
GR1-1
  6
細い実線
 62
     2
100
AcDbLine
 10
682.57119
 20
208.641677
 30
0.0
 11
683.35119
 21
208.771677
 31
0.0
  0
LINE
  5
1FD
330
1F2
100
AcDbEntity
  8
GR1-1
  6
細い実線
 62
     2
100
AcDbLine
 10
683.35119
 20
208.771677
 30
0.0
 11
682.57119
 21
208.901677
 31
0.0
  0
LINE
  5
1FE
330
1F2
100
AcDbEntity
  8
GR1-1
  6
細い実線
 62
     2
100
AcDbLine
 10
686.53119
 20
208.901677
 30
0.0
 11
686.53119
 21
208.641677
 31
0.0
  0
LINE
  5
1FF
330
1F2
100
AcDbEntity
  8
GR1-1
  6
細い実線
 62
     2
100
AcDbLine
 10
686.53119
 20
208.641677
 30
0.0
 11
685.75119
 21
208.771677
 31
0.0
  0
LINE
  5
200
330
1F2
100
AcDbEntity
  8
GR1-1
  6
細い実線
 62
     2
100
AcDbLine
 10
685.75119
 20
208.771677
 30
0.0
 11
686.53119
 21
208.901677
 31
0.0
  0
ENDBLK
  5
1F4
330
1F2
100
AcDbEntity
  8
0
100
AcDbBlockEnd
  0
BLOCK
  5
202
330
201
100
AcDbEntity
  8
0
100
AcDbBlockBegin
  2
BLKF041
 70
     0
 71
     0
 10
0.0
 20
0.0
 30
0.0
  3
BLKF041
  1

  0
LINE
  5
205
330
201
100
AcDbEntity
  8
GR1-1
  6
細い実線
 62
     2
100
AcDbLine
 10
685.75119
 20
212.140298
 30
0.0
 11
685.75119
 21
208.171677
 31
0.0
  0
LINE
  5
206
330
201
100
AcDbEntity
  8
GR1-1
  6
細い実線
 62
     2
100
AcDbLine
 10
686.05119
 20
211.420298
 30
0.0
 11
686.05119
 21
208.171677
 31
0.0
  0
LINE
  5
207
330
201
100
AcDbEntity
  8
GR1-1
  6
細い実線
 62
     2
100
AcDbLine
 10
684.97119
 20
208.771677
 30
0.0
 11
684.19119
 21
208.771677
 31
0.0
  0
LINE
  5
208
330
201
100
AcDbEntity
  8
GR1-1
  6
細い実線
 62
     2
100
AcDbLine
 10
686.83119
 20
208.771677
 30
0.0
 11
687.61119
 21
208.771677
 31
0.0
  0
TEXT
  5
209
330
201
100
AcDbEntity
  8
GR1-1
  6
細い実線
 62
     4
100
AcDbText
 10
686.217813
 20
209.215352
 30
0.0
 40
1.5
  1
5
 41
0.7
  7
FX_VECTOR
 72
     5
 11
687.267812
 21
209.215352
 31
0.0
100
AcDbText
  0
LINE
  5
20A
330
201
100
AcDbEntity
  8
GR1-1
  6
細い実線
 62
     2
100
AcDbLine
 10
684.97119
 20
208.901677
 30
0.0
 11
684.97119
 21
208.641677
 31
0.0
  0
LINE
  5
20B
330
201
100
AcDbEntity
  8
GR1-1
  6
細い実線
 62
     2
100
AcDbLine
 10
684.97119
 20
208.641677
 30
0.0
 11
685.75119
 21
208.771677
 31
0.0
  0
LINE
  5
20C
330
201
100
AcDbEntity
  8
GR1-1
  6
細い実線
 62
     2
100
AcDbLine
 10
685.75119
 20
208.771677
 30
0.0
 11
684.97119
 21
208.901677
 31
0.0
  0
LINE
  5
20D
330
201
100
AcDbEntity
  8
GR1-1
  6
細い実線
 62
     2
100
AcDbLine
 10
686.83119
 20
208.901677
 30
0.0
 11
686.83119
 21
208.641677
 31
0.0
  0
LINE
  5
20E
330
201
100
AcDbEntity
  8
GR1-1
  6
細い実線
 62
     2
100
AcDbLine
 10
686.83119
 20
208.641677
 30
0.0
 11
686.05119
 21
208.771677
 31
0.0
  0
LINE
  5
20F
330
201
100
AcDbEntity
  8
GR1-1
  6
細い実線
 62
     2
100
AcDbLine
 10
686.05119
 20
208.771677
 30
0.0
 11
686.83119
 21
208.901677
 31
0.0
  0
ENDBLK
  5
203
330
201
100
AcDbEntity
  8
0
100
AcDbBlockEnd
  0
BLOCK
  5
211
330
210
100
AcDbEntity
  8
0
100
AcDbBlockBegin
  2
BLKF042
 70
     0
 71
     0
 10
0.0
 20
0.0
 30
0.0
  3
BLKF042
  1

  0
LINE
  5
214
330
210
100
AcDbEntity
  8
GR1-1
  6
細い実線
 62
     2
100
AcDbLine
 10
683.05119
 20
211.420298
 30
0.0
 11
683.05119
 21
204.528202
 31
0.0
  0
LINE
  5
215
330
210
100
AcDbEntity
  8
GR1-1
  6
細い実線
 62
     2
100
AcDbLine
 10
686.05119
 20
211.420298
 30
0.0
 11
686.05119
 21
204.528202
 31
0.0
  0
LINE
  5
216
330
210
100
AcDbEntity
  8
GR1-1
  6
細い実線
 62
     2
100
AcDbLine
 10
683.83119
 20
205.128202
 30
0.0
 11
685.27119
 21
205.128202
 31
0.0
  0
LINE
  5
217
330
210
100
AcDbEntity
  8
GR1-1
  6
細い実線
 62
     2
100
AcDbLine
 10
683.83119
 20
205.258202
 30
0.0
 11
683.83119
 21
204.998202
 31
0.0
  0
LINE
  5
218
330
210
100
AcDbEntity
  8
GR1-1
  6
細い実線
 62
     2
100
AcDbLine
 10
683.83119
 20
204.998202
 30
0.0
 11
683.05119
 21
205.128202
 31
0.0
  0
LINE
  5
219
330
210
100
AcDbEntity
  8
GR1-1
  6
細い実線
 62
     2
100
AcDbLine
 10
683.05119
 20
205.128202
 30
0.0
 11
683.83119
 21
205.258202
 31
0.0
  0
LINE
  5
21A
330
210
100
AcDbEntity
  8
GR1-1
  6
細い実線
 62
     2
100
AcDbLine
 10
685.27119
 20
205.258202
 30
0.0
 11
685.27119
 21
204.998202
 31
0.0
  0
LINE
  5
21B
330
210
100
AcDbEntity
  8
GR1-1
  6
細い実線
 62
     2
100
AcDbLine
 10
685.27119
 20
204.998202
 30
0.0
 11
686.05119
 21
205.128202
 31
0.0
  0
LINE
  5
21C
330
210
100
AcDbEntity
  8
GR1-1
  6
細い実線
 62
     2
100
AcDbLine
 10
686.05119
 20
205.128202
 30
0.0
 11
685.27119
 21
205.258202
 31
0.0
  0
TEXT
  5
21D
330
210
100
AcDbEntity
  8
GR1-1
  6
細い実線
 62
     4
100
AcDbText
 10
683.501172
 20
205.728203
 30
0.0
 40
1.5
  1
50
 41
0.7
  7
FX_VECTOR
 72
     5
 11
685.601172
 21
205.728203
 31
0.0
100
AcDbText
  0
ENDBLK
  5
212
330
210
100
AcDbEntity
  8
0
100
AcDbBlockEnd
  0
BLOCK
  5
21F
330
21E
100
AcDbEntity
  8
0
100
AcDbBlockBegin
  2
BLKF043
 70
     0
 71
     0
 10
0.0
 20
0.0
 30
0.0
  3
BLKF043
  1

  0
LINE
  5
222
330
21E
100
AcDbEntity
  8
GR1-1
  6
細い実線
 62
     2
100
AcDbLine
 10
692.301493
 20
212.320298
 30
0.0
 11
688.649178
 21
212.320298
 31
0.0
  0
LINE
  5
223
330
21E
100
AcDbEntity
  8
GR1-1
  6
細い実線
 62
     2
100
AcDbLine
 10
692.601493
 20
213.040298
 30
0.0
 11
688.649178
 21
213.040298
 31
0.0
  0
LINE
  5
224
330
21E
100
AcDbEntity
  8
GR1-1
  6
細い実線
 62
     2
100
AcDbLine
 10
689.249178
 20
211.540298
 30
0.0
 11
689.249178
 21
210.760298
 31
0.0
  0
LINE
  5
225
330
21E
100
AcDbEntity
  8
GR1-1
  6
細い実線
 62
     2
100
AcDbLine
 10
689.249178
 20
213.820298
 30
0.0
 11
689.249178
 21
214.600298
 31
0.0
  0
TEXT
  5
226
330
21E
100
AcDbEntity
  8
GR1-1
  6
細い実線
 62
     4
100
AcDbText
 10
688.700547
 20
213.391562
 30
0.0
 40
1.5
  1
12
 50
90.0
 41
0.7
  7
FX_VECTOR
 72
     5
 11
688.700547
 21
215.491563
 31
0.0
100
AcDbText
  0
LINE
  5
227
330
21E
100
AcDbEntity
  8
GR1-1
  6
細い実線
 62
     2
100
AcDbLine
 10
689.119178
 20
211.540298
 30
0.0
 11
689.379178
 21
211.540298
 31
0.0
  0
LINE
  5
228
330
21E
100
AcDbEntity
  8
GR1-1
  6
細い実線
 62
     2
100
AcDbLine
 10
689.379178
 20
211.540298
 30
0.0
 11
689.249178
 21
212.320298
 31
0.0
  0
LINE
  5
229
330
21E
100
AcDbEntity
  8
GR1-1
  6
細い実線
 62
     2
100
AcDbLine
 10
689.249178
 20
212.320298
 30
0.0
 11
689.119178
 21
211.540298
 31
0.0
  0
LINE
  5
22A
330
21E
100
AcDbEntity
  8
GR1-1
  6
細い実線
 62
     2
100
AcDbLine
 10
689.119178
 20
213.820298
 30
0.0
 11
689.379178
 21
213.820298
 31
0.0
  0
LINE
  5
22B
330
21E
100
AcDbEntity
  8
GR1-1
  6
細い実線
 62
     2
100
AcDbLine
 10
689.379178
 20
213.820298
 30
0.0
 11
689.249178
 21
213.040298
 31
0.0
  0
LINE
  5
22C
330
21E
100
AcDbEntity
  8
GR1-1
  6
細い実線
 62
     2
100
AcDbLine
 10
689.249178
 20
213.040298
 30
0.0
 11
689.119178
 21
213.820298
 31
0.0
  0
ENDBLK
  5
220
330
21E
100
AcDbEntity
  8
0
100
AcDbBlockEnd
  0
BLOCK
  5
230
330
22F
100
AcDbEntity
  8
0
100
AcDbBlockBegin
  2
BLKF044
 70
     0
 71
     0
 10
0.0
 20
0.0
 30
0.0
  3
BLKF044
  1

  0
LINE
  5
233
330
22F
100
AcDbEntity
  8
GR1-1
  6
CONTINUOUS
 62
     2
100
AcDbLine
 10
782.250126
 20
119.200652
 30
0.0
 11
779.73853
 21
114.17746
 31
0.0
  0
LINE
  5
234
330
22F
100
AcDbEntity
  8
GR1-1
  6
CONTINUOUS
 62
     2
100
AcDbLine
 10
782.607896
 20
119.021766
 30
0.0
 11
780.096301
 21
113.998575
 31
0.0
  0
LINE
  5
235
330
22F
100
AcDbEntity
  8
GR1-1
  6
CONTINUOUS
 62
     2
100
AcDbLine
 10
779.309205
 20
115.062943
 30
0.0
 11
778.611552
 21
115.41177
 31
0.0
  0
LINE
  5
236
330
22F
100
AcDbEntity
  8
GR1-1
  6
CONTINUOUS
 62
     2
100
AcDbLine
 10
781.062282
 20
114.186405
 30
0.0
 11
781.759935
 21
113.837578
 31
0.0
  0
TEXT
  5
237
330
22F
100
AcDbEntity
  8
GR1-1
  6
CONTINUOUS
 62
     4
100
AcDbText
 10
780.861172
 20
114.94498
 30
0.0
 40
1.5
  1
20
 50
333.434937
 41
0.7
  7
FX_VECTOR
 72
     5
 11
782.739469
 21
114.005832
 31
0.0
100
AcDbText
  0
LINE
  5
238
330
22F
100
AcDbEntity
  8
GR1-1
  6
CONTINUOUS
 62
     2
100
AcDbLine
 10
779.367343
 20
115.179219
 30
0.0
 11
779.251067
 21
114.946668
 31
0.0
  0
LINE
  5
239
330
22F
100
AcDbEntity
  8
GR1-1
  6
CONTINUOUS
 62
     2
100
AcDbLine
 10
779.251067
 20
114.946668
 30
0.0
 11
780.006858
 21
114.714117
 31
0.0
  0
LINE
  5
23A
330
22F
100
AcDbEntity
  8
GR1-1
  6
CONTINUOUS
 62
     2
100
AcDbLine
 10
780.006858
 20
114.714117
 30
0.0
 11
779.367343
 21
115.179219
 31
0.0
  0
LINE
  5
23B
330
22F
100
AcDbEntity
  8
GR1-1
  6
CONTINUOUS
 62
     2
100
AcDbLine
 10
781.12042
 20
114.30268
 30
0.0
 11
781.004144
 21
114.070129
 31
0.0
  0
LINE
  5
23C
330
22F
100
AcDbEntity
  8
GR1-1
  6
CONTINUOUS
 62
     2
100
AcDbLine
 10
781.004144
 20
114.070129
 30
0.0
 11
780.364629
 21
114.535231
 31
0.0
  0
LINE
  5
23D
330
22F
100
AcDbEntity
  8
GR1-1
  6
CONTINUOUS
 62
     2
100
AcDbLine
 10
780.364629
 20
114.535231
 30
0.0
 11
781.12042
 21
114.30268
 31
0.0
  0
ENDBLK
  5
231
330
22F
100
AcDbEntity
  8
0
100
AcDbBlockEnd
  0
BLOCK
  5
23F
330
23E
100
AcDbEntity
  8
0
100
AcDbBlockBegin
  2
BLKF045
 70
     0
 71
     0
 10
0.0
 20
0.0
 30
0.0
  3
BLKF045
  1

  0
LINE
  5
242
330
23E
100
AcDbEntity
  8
GR1-1
  6
CONTINUOUS
 62
     2
100
AcDbLine
 10
782.250126
 20
119.200652
 30
0.0
 11
779.73853
 21
114.17746
 31
0.0
  0
LINE
  5
243
330
23E
100
AcDbEntity
  8
GR1-1
  6
CONTINUOUS
 62
     2
100
AcDbLine
 10
781.355698
 20
119.647865
 30
0.0
 11
778.844103
 21
114.624674
 31
0.0
  0
LINE
  5
244
330
23E
100
AcDbEntity
  8
GR1-1
  6
CONTINUOUS
 62
     2
100
AcDbLine
 10
780.704511
 20
114.36529
 30
0.0
 11
781.402164
 21
114.016463
 31
0.0
  0
LINE
  5
245
330
23E
100
AcDbEntity
  8
GR1-1
  6
CONTINUOUS
 62
     2
100
AcDbLine
 10
778.414778
 20
115.510157
 30
0.0
 11
777.717124
 21
115.858983
 31
0.0
  0
TEXT
  5
246
330
23E
100
AcDbEntity
  8
GR1-1
  6
CONTINUOUS
 62
     4
100
AcDbText
 10
778.768203
 20
115.969941
 30
0.0
 40
1.5
  1
50
 50
333.434937
 41
0.7
  7
FX_VECTOR
 72
     5
 11
780.6465
 21
115.030792
 31
0.0
100
AcDbText
  0
LINE
  5
247
330
23E
100
AcDbEntity
  8
GR1-1
  6
CONTINUOUS
 62
     2
100
AcDbLine
 10
780.762649
 20
114.481566
 30
0.0
 11
780.646373
 21
114.249015
 31
0.0
  0
LINE
  5
248
330
23E
100
AcDbEntity
  8
GR1-1
  6
CONTINUOUS
 62
     2
100
AcDbLine
 10
780.646373
 20
114.249015
 30
0.0
 11
780.006858
 21
114.714117
 31
0.0
  0
LINE
  5
249
330
23E
100
AcDbEntity
  8
GR1-1
  6
CONTINUOUS
 62
     2
100
AcDbLine
 10
780.006858
 20
114.714117
 30
0.0
 11
780.762649
 21
114.481566
 31
0.0
  0
LINE
  5
24A
330
23E
100
AcDbEntity
  8
GR1-1
  6
CONTINUOUS
 62
     2
100
AcDbLine
 10
778.472915
 20
115.626432
 30
0.0
 11
778.35664
 21
115.393881
 31
0.0
  0
LINE
  5
24B
330
23E
100
AcDbEntity
  8
GR1-1
  6
CONTINUOUS
 62
     2
100
AcDbLine
 10
778.35664
 20
115.393881
 30
0.0
 11
779.112431
 21
115.16133
 31
0.0
  0
LINE
  5
24C
330
23E
100
AcDbEntity
  8
GR1-1
  6
CONTINUOUS
 62
     2
100
AcDbLine
 10
779.112431
 20
115.16133
 30
0.0
 11
778.472915
 21
115.626432
 31
0.0
  0
ENDBLK
  5
240
330
23E
100
AcDbEntity
  8
0
100
AcDbBlockEnd
  0
BLOCK
  5
24E
330
24D
100
AcDbEntity
  8
0
100
AcDbBlockBegin
  2
BLKF046
 70
     0
 71
     0
 10
0.0
 20
0.0
 30
0.0
  3
BLKF046
  1

  0
LINE
  5
251
330
24D
100
AcDbEntity
  8
GR1-1
  6
CONTINUOUS
 62
     2
100
AcDbLine
 10
827.459592
 20
119.225776
 30
0.0
 11
824.947996
 21
114.202585
 31
0.0
  0
LINE
  5
252
330
24D
100
AcDbEntity
  8
GR1-1
  6
CONTINUOUS
 62
     2
100
AcDbLine
 10
827.101821
 20
119.404662
 30
0.0
 11
824.590225
 21
114.38147
 31
0.0
  0
LINE
  5
253
330
24D
100
AcDbEntity
  8
GR1-1
  6
CONTINUOUS
 62
     2
100
AcDbLine
 10
825.913978
 20
114.390415
 30
0.0
 11
826.611631
 21
114.041588
 31
0.0
  0
LINE
  5
254
330
24D
100
AcDbEntity
  8
GR1-1
  6
CONTINUOUS
 62
     2
100
AcDbLine
 10
824.1609
 20
115.266953
 30
0.0
 11
823.463247
 21
115.61578
 31
0.0
  0
TEXT
  5
255
330
24D
100
AcDbEntity
  8
GR1-1
  6
CONTINUOUS
 62
     4
100
AcDbText
 10
823.010234
 20
116.500313
 30
0.0
 40
1.5
  1
20
 50
333.434937
 41
0.7
  7
FX_VECTOR
 72
     5
 11
824.888531
 21
115.561164
 31
0.0
100
AcDbText
  0
LINE
  5
256
330
24D
100
AcDbEntity
  8
GR1-1
  6
CONTINUOUS
 62
     2
100
AcDbLine
 10
825.972115
 20
114.50669
 30
0.0
 11
825.85584
 21
114.274139
 31
0.0
  0
LINE
  5
257
330
24D
100
AcDbEntity
  8
GR1-1
  6
CONTINUOUS
 62
     2
100
AcDbLine
 10
825.85584
 20
114.274139
 30
0.0
 11
825.216324
 21
114.739241
 31
0.0
  0
LINE
  5
258
330
24D
100
AcDbEntity
  8
GR1-1
  6
CONTINUOUS
 62
     2
100
AcDbLine
 10
825.216324
 20
114.739241
 30
0.0
 11
825.972115
 21
114.50669
 31
0.0
  0
LINE
  5
259
330
24D
100
AcDbEntity
  8
GR1-1
  6
CONTINUOUS
 62
     2
100
AcDbLine
 10
824.219038
 20
115.383229
 30
0.0
 11
824.102763
 21
115.150678
 31
0.0
  0
LINE
  5
25A
330
24D
100
AcDbEntity
  8
GR1-1
  6
CONTINUOUS
 62
     2
100
AcDbLine
 10
824.102763
 20
115.150678
 30
0.0
 11
824.858554
 21
114.918127
 31
0.0
  0
LINE
  5
25B
330
24D
100
AcDbEntity
  8
GR1-1
  6
CONTINUOUS
 62
     2
100
AcDbLine
 10
824.858554
 20
114.918127
 30
0.0
 11
824.219038
 21
115.383229
 31
0.0
  0
ENDBLK
  5
24F
330
24D
100
AcDbEntity
  8
0
100
AcDbBlockEnd
  0
BLOCK
  5
25D
330
25C
100
AcDbEntity
  8
0
100
AcDbBlockBegin
  2
BLKF047
 70
     0
 71
     0
 10
0.0
 20
0.0
 30
0.0
  3
BLKF047
  1

  0
LINE
  5
260
330
25C
100
AcDbEntity
  8
GR1-1
  6
CONTINUOUS
 62
     2
100
AcDbLine
 10
827.459592
 20
119.225776
 30
0.0
 11
824.947996
 21
114.202585
 31
0.0
  0
LINE
  5
261
330
25C
100
AcDbEntity
  8
GR1-1
  6
CONTINUOUS
 62
     2
100
AcDbLine
 10
828.354019
 20
118.778563
 30
0.0
 11
825.842423
 21
113.755371
 31
0.0
  0
LINE
  5
262
330
25C
100
AcDbEntity
  8
GR1-1
  6
CONTINUOUS
 62
     2
100
AcDbLine
 10
824.518671
 20
115.088068
 30
0.0
 11
823.821018
 21
115.436895
 31
0.0
  0
LINE
  5
263
330
25C
100
AcDbEntity
  8
GR1-1
  6
CONTINUOUS
 62
     2
100
AcDbLine
 10
826.808405
 20
113.943201
 30
0.0
 11
827.506058
 21
113.594375
 31
0.0
  0
TEXT
  5
264
330
25C
100
AcDbEntity
  8
GR1-1
  6
CONTINUOUS
 62
     4
100
AcDbText
 10
825.085938
 20
115.440957
 30
0.0
 40
1.5
  1
50
 50
333.434937
 41
0.7
  7
FX_VECTOR
 72
     5
 11
826.964234
 21
114.501808
 31
0.0
100
AcDbText
  0
LINE
  5
265
330
25C
100
AcDbEntity
  8
GR1-1
  6
CONTINUOUS
 62
     2
100
AcDbLine
 10
824.576809
 20
115.204343
 30
0.0
 11
824.460533
 21
114.971792
 31
0.0
  0
LINE
  5
266
330
25C
100
AcDbEntity
  8
GR1-1
  6
CONTINUOUS
 62
     2
100
AcDbLine
 10
824.460533
 20
114.971792
 30
0.0
 11
825.216324
 21
114.739241
 31
0.0
  0
LINE
  5
267
330
25C
100
AcDbEntity
  8
GR1-1
  6
CONTINUOUS
 62
     2
100
AcDbLine
 10
825.216324
 20
114.739241
 30
0.0
 11
824.576809
 21
115.204343
 31
0.0
  0
LINE
  5
268
330
25C
100
AcDbEntity
  8
GR1-1
  6
CONTINUOUS
 62
     2
100
AcDbLine
 10
826.866543
 20
114.059477
 30
0.0
 11
826.750267
 21
113.826926
 31
0.0
  0
LINE
  5
269
330
25C
100
AcDbEntity
  8
GR1-1
  6
CONTINUOUS
 62
     2
100
AcDbLine
 10
826.750267
 20
113.826926
 30
0.0
 11
826.110752
 21
114.292028
 31
0.0
  0
LINE
  5
26A
330
25C
100
AcDbEntity
  8
GR1-1
  6
CONTINUOUS
 62
     2
100
AcDbLine
 10
826.110752
 20
114.292028
 30
0.0
 11
826.866543
 21
114.059477
 31
0.0
  0
ENDBLK
  5
25E
330
25C
100
AcDbEntity
  8
0
100
AcDbBlockEnd
  0
BLOCK
  5
26C
330
26B
100
AcDbEntity
  8
0
100
AcDbBlockBegin
  2
BLKF048
 70
     0
 71
     0
 10
0.0
 20
0.0
 30
0.0
  3
BLKF048
  1

  0
LINE
  5
26F
330
26B
100
AcDbEntity
  8
GR1-1
  6
CONTINUOUS
 62
     2
100
AcDbLine
 10
713.479413
 20
133.519286
 30
0.0
 11
715.667138
 21
129.143837
 31
0.0
  0
LINE
  5
270
330
26B
100
AcDbEntity
  8
GR1-1
  6
CONTINUOUS
 62
     2
100
AcDbLine
 10
714.105512
 20
133.832335
 30
0.0
 11
716.293237
 21
129.456886
 31
0.0
  0
LINE
  5
271
330
26B
100
AcDbEntity
  8
GR1-1
  6
CONTINUOUS
 62
     2
100
AcDbLine
 10
714.701157
 20
129.331666
 30
0.0
 11
714.003503
 21
128.98284
 31
0.0
  0
LINE
  5
272
330
26B
100
AcDbEntity
  8
GR1-1
  6
CONTINUOUS
 62
     2
100
AcDbLine
 10
716.722562
 20
130.342369
 30
0.0
 11
717.420215
 21
130.691196
 31
0.0
  0
TEXT
  5
273
330
26B
100
AcDbEntity
  8
GR1-1
  6
CONTINUOUS
 62
     4
100
AcDbText
 10
716.927656
 20
131.071602
 30
0.0
 40
1.5
  1
35
 50
26.565052
 41
0.7
  7
FX_VECTOR
 72
     5
 11
718.805953
 21
132.01075
 31
0.0
100
AcDbText
  0
LINE
  5
274
330
26B
100
AcDbEntity
  8
GR1-1
  6
CONTINUOUS
 62
     2
100
AcDbLine
 10
714.643019
 20
129.447942
 30
0.0
 11
714.759294
 21
129.215391
 31
0.0
  0
LINE
  5
275
330
26B
100
AcDbEntity
  8
GR1-1
  6
CONTINUOUS
 62
     2
100
AcDbLine
 10
714.759294
 20
129.215391
 30
0.0
 11
715.39881
 21
129.680493
 31
0.0
  0
LINE
  5
276
330
26B
100
AcDbEntity
  8
GR1-1
  6
CONTINUOUS
 62
     2
100
AcDbLine
 10
715.39881
 20
129.680493
 30
0.0
 11
714.643019
 21
129.447942
 31
0.0
  0
LINE
  5
277
330
26B
100
AcDbEntity
  8
GR1-1
  6
CONTINUOUS
 62
     2
100
AcDbLine
 10
716.664424
 20
130.458645
 30
0.0
 11
716.7807
 21
130.226094
 31
0.0
  0
LINE
  5
278
330
26B
100
AcDbEntity
  8
GR1-1
  6
CONTINUOUS
 62
     2
100
AcDbLine
 10
716.7807
 20
130.226094
 30
0.0
 11
716.024909
 21
129.993543
 31
0.0
  0
LINE
  5
279
330
26B
100
AcDbEntity
  8
GR1-1
  6
CONTINUOUS
 62
     2
100
AcDbLine
 10
716.024909
 20
129.993543
 30
0.0
 11
716.664424
 21
130.458645
 31
0.0
  0
ENDBLK
  5
26D
330
26B
100
AcDbEntity
  8
0
100
AcDbBlockEnd
  0
BLOCK
  5
27B
330
27A
100
AcDbEntity
  8
0
100
AcDbBlockBegin
  2
BLKF049
 70
     0
 71
     0
 10
0.0
 20
0.0
 30
0.0
  3
BLKF049
  1

  0
LINE
  5
27E
330
27A
100
AcDbEntity
  8
GR1-1
  6
CONTINUOUS
 62
     2
100
AcDbLine
 10
721.019953
 20
120.229243
 30
0.0
 11
726.102141
 21
120.229243
 31
0.0
  0
LINE
  5
27F
330
27A
100
AcDbEntity
  8
GR1-1
  6
CONTINUOUS
 62
     2
100
AcDbLine
 10
713.864535
 20
134.540078
 30
0.0
 11
726.102141
 21
134.540078
 31
0.0
  0
LINE
  5
280
330
27A
100
AcDbEntity
  8
GR1-1
  6
CONTINUOUS
 62
     2
100
AcDbLine
 10
725.502141
 20
121.009243
 30
0.0
 11
725.502141
 21
133.760078
 31
0.0
  0
LINE
  5
281
330
27A
100
AcDbEntity
  8
GR1-1
  6
CONTINUOUS
 62
     2
100
AcDbLine
 10
725.372141
 20
121.009243
 30
0.0
 11
725.632141
 21
121.009243
 31
0.0
  0
LINE
  5
282
330
27A
100
AcDbEntity
  8
GR1-1
  6
CONTINUOUS
 62
     2
100
AcDbLine
 10
725.632141
 20
121.009243
 30
0.0
 11
725.502141
 21
120.229243
 31
0.0
  0
LINE
  5
283
330
27A
100
AcDbEntity
  8
GR1-1
  6
CONTINUOUS
 62
     2
100
AcDbLine
 10
725.502141
 20
120.229243
 30
0.0
 11
725.372141
 21
121.009243
 31
0.0
  0
LINE
  5
284
330
27A
100
AcDbEntity
  8
GR1-1
  6
CONTINUOUS
 62
     2
100
AcDbLine
 10
725.372141
 20
133.760078
 30
0.0
 11
725.632141
 21
133.760078
 31
0.0
  0
LINE
  5
285
330
27A
100
AcDbEntity
  8
GR1-1
  6
CONTINUOUS
 62
     2
100
AcDbLine
 10
725.632141
 20
133.760078
 30
0.0
 11
725.502141
 21
134.540078
 31
0.0
  0
LINE
  5
286
330
27A
100
AcDbEntity
  8
GR1-1
  6
CONTINUOUS
 62
     2
100
AcDbLine
 10
725.502141
 20
134.540078
 30
0.0
 11
725.372141
 21
133.760078
 31
0.0
  0
TEXT
  5
287
330
27A
100
AcDbEntity
  8
GR1-1
  6
CONTINUOUS
 62
     4
100
AcDbText
 10
724.902187
 20
124.759668
 30
0.0
 40
1.5
  1
715.5
 50
90.0
 41
0.7
  7
FX_VECTOR
 72
     5
 11
724.902187
 21
130.009668
 31
0.0
100
AcDbText
  0
ENDBLK
  5
27C
330
27A
100
AcDbEntity
  8
0
100
AcDbBlockEnd
  0
BLOCK
  5
28B
330
28A
100
AcDbEntity
  8
0
100
AcDbBlockBegin
  2
BLKF050
 70
     0
 71
     0
 10
0.0
 20
0.0
 30
0.0
  3
BLKF050
  1

  0
LINE
  5
28E
330
28A
100
AcDbEntity
  8
GR1-1
  6
CONTINUOUS
 62
     2
100
AcDbLine
 10
781.199174
 20
124.701379
 30
0.0
 11
775.947967
 21
127.326982
 31
0.0
  0
LINE
  5
28F
330
28A
100
AcDbEntity
  8
GR1-1
  6
CONTINUOUS
 62
     2
100
AcDbLine
 10
779.209073
 20
120.721178
 30
0.0
 11
773.957867
 21
123.346781
 31
0.0
  0
LINE
  5
290
330
28A
100
AcDbEntity
  8
GR1-1
  6
CONTINUOUS
 62
     2
100
AcDbLine
 10
776.135797
 20
126.361001
 30
0.0
 11
774.84335
 21
123.776106
 31
0.0
  0
TEXT
  5
291
330
28A
100
AcDbEntity
  8
GR1-1
  6
CONTINUOUS
 62
     4
100
AcDbText
 10
773.668047
 20
123.100215
 30
0.0
 40
1.5
  1
222.5
 50
63.434948
 41
0.7
  7
FX_VECTOR
 72
     5
 11
776.015918
 21
127.795958
 31
0.0
100
AcDbText
  0
LINE
  5
292
330
28A
100
AcDbEntity
  8
GR1-1
  6
CONTINUOUS
 62
     2
100
AcDbLine
 10
776.019522
 20
126.419139
 30
0.0
 11
776.252073
 21
126.302863
 31
0.0
  0
LINE
  5
293
330
28A
100
AcDbEntity
  8
GR1-1
  6
CONTINUOUS
 62
     2
100
AcDbLine
 10
776.252073
 20
126.302863
 30
0.0
 11
776.484624
 21
127.058654
 31
0.0
  0
LINE
  5
294
330
28A
100
AcDbEntity
  8
GR1-1
  6
CONTINUOUS
 62
     2
100
AcDbLine
 10
776.484624
 20
127.058654
 30
0.0
 11
776.019522
 21
126.419139
 31
0.0
  0
LINE
  5
295
330
28A
100
AcDbEntity
  8
GR1-1
  6
CONTINUOUS
 62
     2
100
AcDbLine
 10
774.727074
 20
123.834244
 30
0.0
 11
774.959625
 21
123.717968
 31
0.0
  0
LINE
  5
296
330
28A
100
AcDbEntity
  8
GR1-1
  6
CONTINUOUS
 62
     2
100
AcDbLine
 10
774.959625
 20
123.717968
 30
0.0
 11
774.494523
 21
123.078453
 31
0.0
  0
LINE
  5
297
330
28A
100
AcDbEntity
  8
GR1-1
  6
CONTINUOUS
 62
     2
100
AcDbLine
 10
774.494523
 20
123.078453
 30
0.0
 11
774.727074
 21
123.834244
 31
0.0
  0
ENDBLK
  5
28C
330
28A
100
AcDbEntity
  8
0
100
AcDbBlockEnd
  0
BLOCK
  5
299
330
298
100
AcDbEntity
  8
0
100
AcDbBlockBegin
  2
BLKF051
 70
     0
 71
     0
 10
0.0
 20
0.0
 30
0.0
  3
BLKF051
  1

  0
LINE
  5
29C
330
298
100
AcDbEntity
  8
GR1-1
  6
CONTINUOUS
 62
     2
100
AcDbLine
 10
781.959437
 20
126.221905
 30
0.0
 11
779.508426
 21
127.44741
 31
0.0
  0
LINE
  5
29D
330
298
100
AcDbEntity
  8
GR1-1
  6
CONTINUOUS
 62
     2
100
AcDbLine
 10
780.43891
 20
123.180853
 30
0.0
 11
777.9879
 21
124.406358
 31
0.0
  0
LINE
  5
29E
330
298
100
AcDbEntity
  8
GR1-1
  6
CONTINUOUS
 62
     2
100
AcDbLine
 10
779.696256
 20
126.481429
 30
0.0
 11
778.873383
 21
124.835683
 31
0.0
  0
TEXT
  5
29F
330
298
100
AcDbEntity
  8
GR1-1
  6
CONTINUOUS
 62
     4
100
AcDbText
 10
777.988125
 20
124.532539
 30
0.0
 40
1.5
  1
170
 50
63.434948
 41
0.7
  7
FX_VECTOR
 72
     5
 11
779.396848
 21
127.349985
 31
0.0
100
AcDbText
  0
LINE
  5
2A0
330
298
100
AcDbEntity
  8
GR1-1
  6
CONTINUOUS
 62
     2
100
AcDbLine
 10
779.579981
 20
126.539567
 30
0.0
 11
779.812532
 21
126.423291
 31
0.0
  0
LINE
  5
2A1
330
298
100
AcDbEntity
  8
GR1-1
  6
CONTINUOUS
 62
     2
100
AcDbLine
 10
779.812532
 20
126.423291
 30
0.0
 11
780.045083
 21
127.179082
 31
0.0
  0
LINE
  5
2A2
330
298
100
AcDbEntity
  8
GR1-1
  6
CONTINUOUS
 62
     2
100
AcDbLine
 10
780.045083
 20
127.179082
 30
0.0
 11
779.579981
 21
126.539567
 31
0.0
  0
LINE
  5
2A3
330
298
100
AcDbEntity
  8
GR1-1
  6
CONTINUOUS
 62
     2
100
AcDbLine
 10
778.757108
 20
124.893821
 30
0.0
 11
778.989659
 21
124.777545
 31
0.0
  0
LINE
  5
2A4
330
298
100
AcDbEntity
  8
GR1-1
  6
CONTINUOUS
 62
     2
100
AcDbLine
 10
778.989659
 20
124.777545
 30
0.0
 11
778.524556
 21
124.13803
 31
0.0
  0
LINE
  5
2A5
330
298
100
AcDbEntity
  8
GR1-1
  6
CONTINUOUS
 62
     2
100
AcDbLine
 10
778.524556
 20
124.13803
 30
0.0
 11
778.757108
 21
124.893821
 31
0.0
  0
ENDBLK
  5
29A
330
298
100
AcDbEntity
  8
0
100
AcDbBlockEnd
  0
BLOCK
  5
2F7
330
2F6
100
AcDbEntity
  8
0
100
AcDbBlockBegin
  2
BLKF052
 70
     0
 71
     0
 10
0.0
 20
0.0
 30
0.0
  3
BLKF052
  1

  0
LINE
  5
2FA
330
2F6
100
AcDbEntity
  8
GR1-1
  6
CONTINUOUS
 62
     2
100
AcDbLine
 10
712.964535
 20
135.440078
 30
0.0
 11
712.964535
 21
137.106327
 31
0.0
  0
LINE
  5
2FB
330
2F6
100
AcDbEntity
  8
GR1-1
  6
CONTINUOUS
 62
     2
100
AcDbLine
 10
710.964535
 20
133.874663
 30
0.0
 11
710.964535
 21
137.106327
 31
0.0
  0
LINE
  5
2FC
330
2F6
100
AcDbEntity
  8
GR1-1
  6
CONTINUOUS
 62
     2
100
AcDbLine
 10
713.744535
 20
136.506327
 30
0.0
 11
714.524535
 21
136.506327
 31
0.0
  0
LINE
  5
2FD
330
2F6
100
AcDbEntity
  8
GR1-1
  6
CONTINUOUS
 62
     2
100
AcDbLine
 10
710.184535
 20
136.506327
 30
0.0
 11
709.404535
 21
136.506327
 31
0.0
  0
TEXT
  5
2FE
330
2F6
100
AcDbEntity
  8
GR1-1
  6
CONTINUOUS
 62
     4
100
AcDbText
 10
710.389531
 20
138.006328
 30
0.0
 40
1.5
  1
100
 41
0.7
  7
FX_VECTOR
 72
     5
 11
713.539531
 21
138.006328
 31
0.0
100
AcDbText
  0
LINE
  5
2FF
330
2F6
100
AcDbEntity
  8
GR1-1
  6
CONTINUOUS
 62
     2
100
AcDbLine
 10
713.744535
 20
136.636327
 30
0.0
 11
713.744535
 21
136.376327
 31
0.0
  0
LINE
  5
300
330
2F6
100
AcDbEntity
  8
GR1-1
  6
CONTINUOUS
 62
     2
100
AcDbLine
 10
713.744535
 20
136.376327
 30
0.0
 11
712.964535
 21
136.506327
 31
0.0
  0
LINE
  5
301
330
2F6
100
AcDbEntity
  8
GR1-1
  6
CONTINUOUS
 62
     2
100
AcDbLine
 10
712.964535
 20
136.506327
 30
0.0
 11
713.744535
 21
136.636327
 31
0.0
  0
LINE
  5
302
330
2F6
100
AcDbEntity
  8
GR1-1
  6
CONTINUOUS
 62
     2
100
AcDbLine
 10
710.184535
 20
136.636327
 30
0.0
 11
710.184535
 21
136.376327
 31
0.0
  0
LINE
  5
303
330
2F6
100
AcDbEntity
  8
GR1-1
  6
CONTINUOUS
 62
     2
100
AcDbLine
 10
710.184535
 20
136.376327
 30
0.0
 11
710.964535
 21
136.506327
 31
0.0
  0
LINE
  5
304
330
2F6
100
AcDbEntity
  8
GR1-1
  6
CONTINUOUS
 62
     2
100
AcDbLine
 10
710.964535
 20
136.506327
 30
0.0
 11
710.184535
 21
136.636327
 31
0.0
  0
ENDBLK
  5
2F8
330
2F6
100
AcDbEntity
  8
0
100
AcDbBlockEnd
  0
BLOCK
  5
306
330
305
100
AcDbEntity
  8
0
100
AcDbBlockBegin
  2
BLKF053
 70
     0
 71
     0
 10
0.0
 20
0.0
 30
0.0
  3
BLKF053
  1

  0
LINE
  5
309
330
305
100
AcDbEntity
  8
GR1-1
  6
CONTINUOUS
 62
     2
100
AcDbLine
 10
718.119953
 20
120.800907
 30
0.0
 11
718.119953
 21
116.382824
 31
0.0
  0
LINE
  5
30A
330
305
100
AcDbEntity
  8
GR1-1
  6
CONTINUOUS
 62
     2
100
AcDbLine
 10
720.119953
 20
119.329243
 30
0.0
 11
720.119953
 21
116.382824
 31
0.0
  0
LINE
  5
30B
330
305
100
AcDbEntity
  8
GR1-1
  6
CONTINUOUS
 62
     2
100
AcDbLine
 10
717.339953
 20
116.982824
 30
0.0
 11
716.559953
 21
116.982824
 31
0.0
  0
LINE
  5
30C
330
305
100
AcDbEntity
  8
GR1-1
  6
CONTINUOUS
 62
     2
100
AcDbLine
 10
720.899953
 20
116.982824
 30
0.0
 11
721.679953
 21
116.982824
 31
0.0
  0
TEXT
  5
30D
330
305
100
AcDbEntity
  8
GR1-1
  6
CONTINUOUS
 62
     4
100
AcDbText
 10
717.545
 20
117.467266
 30
0.0
 40
1.5
  1
100
 41
0.7
  7
FX_VECTOR
 72
     5
 11
720.695
 21
117.467266
 31
0.0
100
AcDbText
  0
LINE
  5
30E
330
305
100
AcDbEntity
  8
GR1-1
  6
CONTINUOUS
 62
     2
100
AcDbLine
 10
717.339953
 20
117.112824
 30
0.0
 11
717.339953
 21
116.852824
 31
0.0
  0
LINE
  5
30F
330
305
100
AcDbEntity
  8
GR1-1
  6
CONTINUOUS
 62
     2
100
AcDbLine
 10
717.339953
 20
116.852824
 30
0.0
 11
718.119953
 21
116.982824
 31
0.0
  0
LINE
  5
310
330
305
100
AcDbEntity
  8
GR1-1
  6
CONTINUOUS
 62
     2
100
AcDbLine
 10
718.119953
 20
116.982824
 30
0.0
 11
717.339953
 21
117.112824
 31
0.0
  0
LINE
  5
311
330
305
100
AcDbEntity
  8
GR1-1
  6
CONTINUOUS
 62
     2
100
AcDbLine
 10
720.899953
 20
117.112824
 30
0.0
 11
720.899953
 21
116.852824
 31
0.0
  0
LINE
  5
312
330
305
100
AcDbEntity
  8
GR1-1
  6
CONTINUOUS
 62
     2
100
AcDbLine
 10
720.899953
 20
116.852824
 30
0.0
 11
720.119953
 21
116.982824
 31
0.0
  0
LINE
  5
313
330
305
100
AcDbEntity
  8
GR1-1
  6
CONTINUOUS
 62
     2
100
AcDbLine
 10
720.119953
 20
116.982824
 30
0.0
 11
720.899953
 21
117.112824
 31
0.0
  0
ENDBLK
  5
307
330
305
100
AcDbEntity
  8
0
100
AcDbBlockEnd
  0
BLOCK
  5
315
330
314
100
AcDbEntity
  8
0
100
AcDbBlockBegin
  2
BLKF054
 70
     0
 71
     0
 10
0.0
 20
0.0
 30
0.0
  3
BLKF054
  1

  0
LINE
  5
318
330
314
100
AcDbEntity
  8
GR1-1
  6
CONTINUOUS
 62
     2
100
AcDbLine
 10
720.119953
 20
119.329243
 30
0.0
 11
720.119953
 21
109.552037
 31
0.0
  0
LINE
  5
319
330
314
100
AcDbEntity
  8
GR1-1
  6
CONTINUOUS
 62
     2
100
AcDbLine
 10
714.719953
 20
119.329243
 30
0.0
 11
714.719953
 21
109.552037
 31
0.0
  0
LINE
  5
31A
330
314
100
AcDbEntity
  8
GR1-1
  6
CONTINUOUS
 62
     2
100
AcDbLine
 10
719.339953
 20
110.152037
 30
0.0
 11
715.499953
 21
110.152037
 31
0.0
  0
LINE
  5
31B
330
314
100
AcDbEntity
  8
GR1-1
  6
CONTINUOUS
 62
     2
100
AcDbLine
 10
719.339953
 20
110.282037
 30
0.0
 11
719.339953
 21
110.022037
 31
0.0
  0
LINE
  5
31C
330
314
100
AcDbEntity
  8
GR1-1
  6
CONTINUOUS
 62
     2
100
AcDbLine
 10
719.339953
 20
110.022037
 30
0.0
 11
720.119953
 21
110.152037
 31
0.0
  0
LINE
  5
31D
330
314
100
AcDbEntity
  8
GR1-1
  6
CONTINUOUS
 62
     2
100
AcDbLine
 10
720.119953
 20
110.152037
 30
0.0
 11
719.339953
 21
110.282037
 31
0.0
  0
LINE
  5
31E
330
314
100
AcDbEntity
  8
GR1-1
  6
CONTINUOUS
 62
     2
100
AcDbLine
 10
715.499953
 20
110.282037
 30
0.0
 11
715.499953
 21
110.022037
 31
0.0
  0
LINE
  5
31F
330
314
100
AcDbEntity
  8
GR1-1
  6
CONTINUOUS
 62
     2
100
AcDbLine
 10
715.499953
 20
110.022037
 30
0.0
 11
714.719953
 21
110.152037
 31
0.0
  0
LINE
  5
320
330
314
100
AcDbEntity
  8
GR1-1
  6
CONTINUOUS
 62
     2
100
AcDbLine
 10
714.719953
 20
110.152037
 30
0.0
 11
715.499953
 21
110.282037
 31
0.0
  0
TEXT
  5
321
330
314
100
AcDbEntity
  8
GR1-1
  6
CONTINUOUS
 62
     4
100
AcDbText
 10
715.845
 20
110.752031
 30
0.0
 40
1.5
  1
270
 41
0.7
  7
FX_VECTOR
 72
     5
 11
718.995
 21
110.752031
 31
0.0
100
AcDbText
  0
ENDBLK
  5
316
330
314
100
AcDbEntity
  8
0
100
AcDbBlockEnd
  0
BLOCK
  5
323
330
322
100
AcDbEntity
  8
0
100
AcDbBlockBegin
  2
BLKF055
 70
     0
 71
     0
 10
0.0
 20
0.0
 30
0.0
  3
BLKF055
  1

  0
LINE
  5
326
330
322
100
AcDbEntity
  8
GR1-1
  6
CONTINUOUS
 62
     2
100
AcDbLine
 10
674.008423
 20
119.329243
 30
0.0
 11
674.008423
 21
109.552037
 31
0.0
  0
LINE
  5
327
330
322
100
AcDbEntity
  8
GR1-1
  6
CONTINUOUS
 62
     2
100
AcDbLine
 10
669.808423
 20
119.329243
 30
0.0
 11
669.808423
 21
109.552037
 31
0.0
  0
LINE
  5
328
330
322
100
AcDbEntity
  8
GR1-1
  6
CONTINUOUS
 62
     2
100
AcDbLine
 10
673.228423
 20
110.152037
 30
0.0
 11
670.588423
 21
110.152037
 31
0.0
  0
LINE
  5
329
330
322
100
AcDbEntity
  8
GR1-1
  6
CONTINUOUS
 62
     2
100
AcDbLine
 10
673.228423
 20
110.282037
 30
0.0
 11
673.228423
 21
110.022037
 31
0.0
  0
LINE
  5
32A
330
322
100
AcDbEntity
  8
GR1-1
  6
CONTINUOUS
 62
     2
100
AcDbLine
 10
673.228423
 20
110.022037
 30
0.0
 11
674.008423
 21
110.152037
 31
0.0
  0
LINE
  5
32B
330
322
100
AcDbEntity
  8
GR1-1
  6
CONTINUOUS
 62
     2
100
AcDbLine
 10
674.008423
 20
110.152037
 30
0.0
 11
673.228423
 21
110.282037
 31
0.0
  0
LINE
  5
32C
330
322
100
AcDbEntity
  8
GR1-1
  6
CONTINUOUS
 62
     2
100
AcDbLine
 10
670.588423
 20
110.282037
 30
0.0
 11
670.588423
 21
110.022037
 31
0.0
  0
LINE
  5
32D
330
322
100
AcDbEntity
  8
GR1-1
  6
CONTINUOUS
 62
     2
100
AcDbLine
 10
670.588423
 20
110.022037
 30
0.0
 11
669.808423
 21
110.152037
 31
0.0
  0
LINE
  5
32E
330
322
100
AcDbEntity
  8
GR1-1
  6
CONTINUOUS
 62
     2
100
AcDbLine
 10
669.808423
 20
110.152037
 30
0.0
 11
670.588423
 21
110.282037
 31
0.0
  0
TEXT
  5
32F
330
322
100
AcDbEntity
  8
GR1-1
  6
CONTINUOUS
 62
     4
100
AcDbText
 10
670.333438
 20
110.752031
 30
0.0
 40
1.5
  1
210
 41
0.7
  7
FX_VECTOR
 72
     5
 11
673.483438
 21
110.752031
 31
0.0
100
AcDbText
  0
ENDBLK
  5
324
330
322
100
AcDbEntity
  8
0
100
AcDbBlockEnd
  0
BLOCK
  5
331
330
330
100
AcDbEntity
  8
0
100
AcDbBlockBegin
  2
BLKF056
 70
     0
 71
     0
 10
0.0
 20
0.0
 30
0.0
  3
BLKF056
  1

  0
LINE
  5
334
330
330
100
AcDbEntity
  8
GR1-1
  6
CONTINUOUS
 62
     2
100
AcDbLine
 10
670.100973
 20
120.656259
 30
0.0
 11
671.269703
 21
126.385884
 31
0.0
  0
INSERT
  5
335
330
330
100
AcDbEntity
  8
GR1-1
  6
CONTINUOUS
 62
     2
100
AcDbBlockReference
  2
FXTIP_ARROW_S
 10
670.100973
 20
120.656259
 30
0.0
 41
2.0
 42
2.0
 50
258.47096
  0
LINE
  5
336
330
330
100
AcDbEntity
  8
GR1-1
  6
CONTINUOUS
 62
     2
100
AcDbLine
 10
671.269703
 20
126.385884
 30
0.0
 11
670.950537
 21
126.385884
 31
0.0
  0
LINE
  5
337
330
330
100
AcDbEntity
  8
GR1-1
  6
CONTINUOUS
 62
     2
100
AcDbLine
 10
670.950537
 20
126.385884
 30
0.0
 11
679.010537
 21
126.385884
 31
0.0
  0
TEXT
  5
338
330
330
100
AcDbEntity
  8
GR1-1
  6
CONTINUOUS
 62
     4
100
AcDbText
 10
672.330547
 20
126.985879
 30
0.0
 40
1.5
  1
バール挿入孔
 41
0.7
  7
FX_VECTOR
 72
     5
 11
678.630547
 21
126.985879
 31
0.0
100
AcDbText
  0
ENDBLK
  5
332
330
330
100
AcDbEntity
  8
0
100
AcDbBlockEnd
  0
BLOCK
  5
33E
330
33D
100
AcDbEntity
  8
0
100
AcDbBlockBegin
  2
BLKF057
 70
     0
 71
     0
 10
0.0
 20
0.0
 30
0.0
  3
BLKF057
  1

  0
LINE
  5
341
330
33D
100
AcDbEntity
  8
GR1-1
  6
CONTINUOUS
 62
     2
100
AcDbLine
 10
736.833661
 20
119.329243
 30
0.0
 11
736.833661
 21
111.336794
 31
0.0
  0
LINE
  5
342
330
33D
100
AcDbEntity
  8
GR1-1
  6
CONTINUOUS
 62
     2
100
AcDbLine
 10
749.333661
 20
119.329243
 30
0.0
 11
749.333661
 21
111.336794
 31
0.0
  0
LINE
  5
343
330
33D
100
AcDbEntity
  8
GR1-1
  6
CONTINUOUS
 62
     2
100
AcDbLine
 10
737.613661
 20
111.936794
 30
0.0
 11
748.553661
 21
111.936794
 31
0.0
  0
LINE
  5
344
330
33D
100
AcDbEntity
  8
GR1-1
  6
CONTINUOUS
 62
     2
100
AcDbLine
 10
737.613661
 20
112.066794
 30
0.0
 11
737.613661
 21
111.806794
 31
0.0
  0
LINE
  5
345
330
33D
100
AcDbEntity
  8
GR1-1
  6
CONTINUOUS
 62
     2
100
AcDbLine
 10
737.613661
 20
111.806794
 30
0.0
 11
736.833661
 21
111.936794
 31
0.0
  0
LINE
  5
346
330
33D
100
AcDbEntity
  8
GR1-1
  6
CONTINUOUS
 62
     2
100
AcDbLine
 10
736.833661
 20
111.936794
 30
0.0
 11
737.613661
 21
112.066794
 31
0.0
  0
LINE
  5
347
330
33D
100
AcDbEntity
  8
GR1-1
  6
CONTINUOUS
 62
     2
100
AcDbLine
 10
748.553661
 20
112.066794
 30
0.0
 11
748.553661
 21
111.806794
 31
0.0
  0
LINE
  5
348
330
33D
100
AcDbEntity
  8
GR1-1
  6
CONTINUOUS
 62
     2
100
AcDbLine
 10
748.553661
 20
111.806794
 30
0.0
 11
749.333661
 21
111.936794
 31
0.0
  0
LINE
  5
349
330
33D
100
AcDbEntity
  8
GR1-1
  6
CONTINUOUS
 62
     2
100
AcDbLine
 10
749.333661
 20
111.936794
 30
0.0
 11
748.553661
 21
112.066794
 31
0.0
  0
TEXT
  5
34A
330
33D
100
AcDbEntity
  8
GR1-1
  6
CONTINUOUS
 62
     4
100
AcDbText
 10
741.508672
 20
112.536797
 30
0.0
 40
1.5
  1
625
 41
0.7
  7
FX_VECTOR
 72
     5
 11
744.658672
 21
112.536797
 31
0.0
100
AcDbText
  0
ENDBLK
  5
33F
330
33D
100
AcDbEntity
  8
0
100
AcDbBlockEnd
  0
BLOCK
  5
350
330
34F
100
AcDbEntity
  8
0
100
AcDbBlockBegin
  2
BLKF058
 70
     0
 71
     0
 10
0.0
 20
0.0
 30
0.0
  3
BLKF058
  1

  0
LINE
  5
353
330
34F
100
AcDbEntity
  8
GR1-1
  6
CONTINUOUS
 62
     2
100
AcDbLine
 10
786.945868
 20
133.735094
 30
0.0
 11
784.687434
 21
129.218224
 31
0.0
  0
LINE
  5
354
330
34F
100
AcDbEntity
  8
GR1-1
  6
CONTINUOUS
 62
     2
100
AcDbLine
 10
827.195092
 20
113.610482
 30
0.0
 11
824.936657
 21
109.093612
 31
0.0
  0
LINE
  5
355
330
34F
100
AcDbEntity
  8
GR1-1
  6
CONTINUOUS
 62
     2
100
AcDbLine
 10
785.653415
 20
129.406054
 30
0.0
 11
824.507332
 21
109.979095
 31
0.0
  0
TEXT
  5
356
330
34F
100
AcDbEntity
  8
GR1-1
  6
CONTINUOUS
 62
     4
100
AcDbText
 10
809.598359
 20
118.107676
 30
0.0
 40
1.5
  1
2250
 50
333.434937
 41
0.7
  7
FX_VECTOR
 72
     5
 11
813.354953
 21
116.229378
 31
0.0
100
AcDbText
  0
LINE
  5
357
330
34F
100
AcDbEntity
  8
GR1-1
  6
CONTINUOUS
 62
     2
100
AcDbLine
 10
785.711553
 20
129.522329
 30
0.0
 11
785.595277
 21
129.289778
 31
0.0
  0
LINE
  5
358
330
34F
100
AcDbEntity
  8
GR1-1
  6
CONTINUOUS
 62
     2
100
AcDbLine
 10
785.595277
 20
129.289778
 30
0.0
 11
784.955762
 21
129.754881
 31
0.0
  0
LINE
  5
359
330
34F
100
AcDbEntity
  8
GR1-1
  6
CONTINUOUS
 62
     2
100
AcDbLine
 10
784.955762
 20
129.754881
 30
0.0
 11
785.711553
 21
129.522329
 31
0.0
  0
LINE
  5
35A
330
34F
100
AcDbEntity
  8
GR1-1
  6
CONTINUOUS
 62
     2
100
AcDbLine
 10
824.56547
 20
110.095371
 30
0.0
 11
824.449194
 21
109.86282
 31
0.0
  0
LINE
  5
35B
330
34F
100
AcDbEntity
  8
GR1-1
  6
CONTINUOUS
 62
     2
100
AcDbLine
 10
824.449194
 20
109.86282
 30
0.0
 11
825.204985
 21
109.630269
 31
0.0
  0
LINE
  5
35C
330
34F
100
AcDbEntity
  8
GR1-1
  6
CONTINUOUS
 62
     2
100
AcDbLine
 10
825.204985
 20
109.630269
 30
0.0
 11
824.56547
 21
110.095371
 31
0.0
  0
ENDBLK
  5
351
330
34F
100
AcDbEntity
  8
0
100
AcDbBlockEnd
  0
BLOCK
  5
35F
330
35E
100
AcDbEntity
  8
0
100
AcDbBlockBegin
  2
BLKF059
 70
     0
 71
     0
 10
0.0
 20
0.0
 30
0.0
  3
BLKF059
  1

  0
LINE
  5
362
330
35E
100
AcDbEntity
  8
GR1-1
  6
CONTINUOUS
 62
     2
100
AcDbLine
 10
787.348361
 20
135.440078
 30
0.0
 11
787.348361
 21
142.230312
 31
0.0
  0
LINE
  5
363
330
35E
100
AcDbEntity
  8
GR1-1
  6
CONTINUOUS
 62
     2
100
AcDbLine
 10
837.65989
 20
135.440078
 30
0.0
 11
837.65989
 21
142.230312
 31
0.0
  0
LINE
  5
364
330
35E
100
AcDbEntity
  8
GR1-1
  6
CONTINUOUS
 62
     2
100
AcDbLine
 10
788.128361
 20
141.630312
 30
0.0
 11
836.87989
 21
141.630312
 31
0.0
  0
LINE
  5
365
330
35E
100
AcDbEntity
  8
GR1-1
  6
CONTINUOUS
 62
     2
100
AcDbLine
 10
788.128361
 20
141.760312
 30
0.0
 11
788.128361
 21
141.500312
 31
0.0
  0
LINE
  5
366
330
35E
100
AcDbEntity
  8
GR1-1
  6
CONTINUOUS
 62
     2
100
AcDbLine
 10
788.128361
 20
141.500312
 30
0.0
 11
787.348361
 21
141.630312
 31
0.0
  0
LINE
  5
367
330
35E
100
AcDbEntity
  8
GR1-1
  6
CONTINUOUS
 62
     2
100
AcDbLine
 10
787.348361
 20
141.630312
 30
0.0
 11
788.128361
 21
141.760312
 31
0.0
  0
LINE
  5
368
330
35E
100
AcDbEntity
  8
GR1-1
  6
CONTINUOUS
 62
     2
100
AcDbLine
 10
836.87989
 20
141.760312
 30
0.0
 11
836.87989
 21
141.500312
 31
0.0
  0
LINE
  5
369
330
35E
100
AcDbEntity
  8
GR1-1
  6
CONTINUOUS
 62
     2
100
AcDbLine
 10
836.87989
 20
141.500312
 30
0.0
 11
837.65989
 21
141.630312
 31
0.0
  0
LINE
  5
36A
330
35E
100
AcDbEntity
  8
GR1-1
  6
CONTINUOUS
 62
     2
100
AcDbLine
 10
837.65989
 20
141.630312
 30
0.0
 11
836.87989
 21
141.760312
 31
0.0
  0
TEXT
  5
36B
330
35E
100
AcDbEntity
  8
GR1-1
  6
CONTINUOUS
 62
     4
100
AcDbText
 10
809.354141
 20
142.230313
 30
0.0
 40
1.5
  1
2515.5
 41
0.7
  7
FX_VECTOR
 72
     5
 11
815.654141
 21
142.230313
 31
0.0
100
AcDbText
  0
ENDBLK
  5
360
330
35E
100
AcDbEntity
  8
0
100
AcDbBlockEnd
  0
BLOCK
  5
372
330
371
100
AcDbEntity
  8
0
100
AcDbBlockBegin
  2
BLKF060
 70
     0
 71
     0
 10
0.0
 20
0.0
 30
0.0
  3
BLKF060
  1

  0
LINE
  5
375
330
371
100
AcDbEntity
  8
GR1-1
  6
CONTINUOUS
 62
     2
100
AcDbLine
 10
779.387959
 20
120.631735
 30
0.0
 11
770.98203
 21
124.8347
 31
0.0
  0
LINE
  5
376
330
371
100
AcDbEntity
  8
GR1-1
  6
CONTINUOUS
 62
     2
100
AcDbLine
 10
786.543376
 20
134.94257
 30
0.0
 11
778.137447
 21
139.145535
 31
0.0
  0
LINE
  5
377
330
371
100
AcDbEntity
  8
GR1-1
  6
CONTINUOUS
 62
     2
100
AcDbLine
 10
771.867513
 20
125.264025
 30
0.0
 11
778.325277
 21
138.179553
 31
0.0
  0
LINE
  5
378
330
371
100
AcDbEntity
  8
GR1-1
  6
CONTINUOUS
 62
     2
100
AcDbLine
 10
771.751237
 20
125.322162
 30
0.0
 11
771.983788
 21
125.205887
 31
0.0
  0
LINE
  5
379
330
371
100
AcDbEntity
  8
GR1-1
  6
CONTINUOUS
 62
     2
100
AcDbLine
 10
771.983788
 20
125.205887
 30
0.0
 11
771.518686
 21
124.566371
 31
0.0
  0
LINE
  5
37A
330
371
100
AcDbEntity
  8
GR1-1
  6
CONTINUOUS
 62
     2
100
AcDbLine
 10
771.518686
 20
124.566371
 30
0.0
 11
771.751237
 21
125.322162
 31
0.0
  0
LINE
  5
37B
330
371
100
AcDbEntity
  8
GR1-1
  6
CONTINUOUS
 62
     2
100
AcDbLine
 10
778.209002
 20
138.237691
 30
0.0
 11
778.441553
 21
138.121416
 31
0.0
  0
LINE
  5
37C
330
371
100
AcDbEntity
  8
GR1-1
  6
CONTINUOUS
 62
     2
100
AcDbLine
 10
778.441553
 20
138.121416
 30
0.0
 11
778.674104
 21
138.877206
 31
0.0
  0
LINE
  5
37D
330
371
100
AcDbEntity
  8
GR1-1
  6
CONTINUOUS
 62
     2
100
AcDbLine
 10
778.674104
 20
138.877206
 30
0.0
 11
778.209002
 21
138.237691
 31
0.0
  0
TEXT
  5
37E
330
371
100
AcDbEntity
  8
GR1-1
  6
CONTINUOUS
 62
     4
100
AcDbText
 10
773.855391
 20
130.581387
 30
0.0
 40
1.5
  1
800
 50
63.434948
 41
0.7
  7
FX_VECTOR
 72
     5
 11
775.264113
 21
133.398832
 31
0.0
100
AcDbText
  0
ENDBLK
  5
373
330
371
100
AcDbEntity
  8
0
100
AcDbBlockEnd
  0
BLOCK
  5
387
330
386
100
AcDbEntity
  8
0
100
AcDbBlockBegin
  2
BLKF061
 70
     0
 71
     0
 10
0.0
 20
0.0
 30
0.0
  3
BLKF061
  1

  0
LINE
  5
38A
330
386
100
AcDbEntity
  8
GR1-1
  6
CONTINUOUS
 62
     2
100
AcDbLine
 10
787.999823
 20
132.936115
 30
0.0
 11
787.425604
 21
131.787678
 31
0.0
  0
LINE
  5
38B
330
386
100
AcDbEntity
  8
GR1-1
  6
CONTINUOUS
 62
     2
100
AcDbLine
 10
786.837068
 20
133.517493
 30
0.0
 11
786.262849
 21
132.369055
 31
0.0
  0
LINE
  5
38C
330
386
100
AcDbEntity
  8
GR1-1
  6
CONTINUOUS
 62
     2
100
AcDbLine
 10
788.391586
 20
131.975507
 30
0.0
 11
789.089239
 21
131.626681
 31
0.0
  0
LINE
  5
38D
330
386
100
AcDbEntity
  8
GR1-1
  6
CONTINUOUS
 62
     2
100
AcDbLine
 10
785.833524
 20
133.254538
 30
0.0
 11
785.135871
 21
133.603365
 31
0.0
  0
TEXT
  5
38E
330
386
100
AcDbEntity
  8
GR1-1
  6
CONTINUOUS
 62
     4
100
AcDbText
 10
783.809688
 20
134.656016
 30
0.0
 40
1.5
  1
65
 50
333.434937
 41
0.7
  7
FX_VECTOR
 72
     5
 11
785.687984
 21
133.716867
 31
0.0
100
AcDbText
  0
LINE
  5
38F
330
386
100
AcDbEntity
  8
GR1-1
  6
CONTINUOUS
 62
     2
100
AcDbLine
 10
788.449724
 20
132.091783
 30
0.0
 11
788.333448
 21
131.859232
 31
0.0
  0
LINE
  5
390
330
386
100
AcDbEntity
  8
GR1-1
  6
CONTINUOUS
 62
     2
100
AcDbLine
 10
788.333448
 20
131.859232
 30
0.0
 11
787.693933
 21
132.324334
 31
0.0
  0
LINE
  5
391
330
386
100
AcDbEntity
  8
GR1-1
  6
CONTINUOUS
 62
     2
100
AcDbLine
 10
787.693933
 20
132.324334
 30
0.0
 11
788.449724
 21
132.091783
 31
0.0
  0
LINE
  5
392
330
386
100
AcDbEntity
  8
GR1-1
  6
CONTINUOUS
 62
     2
100
AcDbLine
 10
785.891662
 20
133.370814
 30
0.0
 11
785.775386
 21
133.138263
 31
0.0
  0
LINE
  5
393
330
386
100
AcDbEntity
  8
GR1-1
  6
CONTINUOUS
 62
     2
100
AcDbLine
 10
785.775386
 20
133.138263
 30
0.0
 11
786.531177
 21
132.905712
 31
0.0
  0
LINE
  5
394
330
386
100
AcDbEntity
  8
GR1-1
  6
CONTINUOUS
 62
     2
100
AcDbLine
 10
786.531177
 20
132.905712
 30
0.0
 11
785.891662
 21
133.370814
 31
0.0
  0
ENDBLK
  5
388
330
386
100
AcDbEntity
  8
0
100
AcDbBlockEnd
  0
BLOCK
  5
396
330
395
100
AcDbEntity
  8
0
100
AcDbBlockBegin
  2
BLKF062
 70
     0
 71
     0
 10
0.0
 20
0.0
 30
0.0
  3
BLKF062
  1

  0
LINE
  5
399
330
395
100
AcDbEntity
  8
GR1-1
  6
CONTINUOUS
 62
     2
100
AcDbLine
 10
786.439168
 20
132.721693
 30
0.0
 11
784.687434
 21
129.218224
 31
0.0
  0
LINE
  5
39A
330
395
100
AcDbEntity
  8
GR1-1
  6
CONTINUOUS
 62
     2
100
AcDbLine
 10
785.813069
 20
133.034742
 30
0.0
 11
784.061335
 21
129.531274
 31
0.0
  0
LINE
  5
39B
330
395
100
AcDbEntity
  8
GR1-1
  6
CONTINUOUS
 62
     2
100
AcDbLine
 10
785.653415
 20
129.406054
 30
0.0
 11
786.351068
 21
129.057227
 31
0.0
  0
LINE
  5
39C
330
395
100
AcDbEntity
  8
GR1-1
  6
CONTINUOUS
 62
     2
100
AcDbLine
 10
783.63201
 20
130.416757
 30
0.0
 11
782.934356
 21
130.765583
 31
0.0
  0
TEXT
  5
39D
330
395
100
AcDbEntity
  8
GR1-1
  6
CONTINUOUS
 62
     4
100
AcDbText
 10
781.840625
 20
132.187324
 30
0.0
 40
1.5
  1
35
 50
333.434937
 41
0.7
  7
FX_VECTOR
 72
     5
 11
783.718922
 21
131.248175
 31
0.0
100
AcDbText
  0
LINE
  5
39E
330
395
100
AcDbEntity
  8
GR1-1
  6
CONTINUOUS
 62
     2
100
AcDbLine
 10
785.711553
 20
129.522329
 30
0.0
 11
785.595277
 21
129.289778
 31
0.0
  0
LINE
  5
39F
330
395
100
AcDbEntity
  8
GR1-1
  6
CONTINUOUS
 62
     2
100
AcDbLine
 10
785.595277
 20
129.289778
 30
0.0
 11
784.955762
 21
129.754881
 31
0.0
  0
LINE
  5
3A0
330
395
100
AcDbEntity
  8
GR1-1
  6
CONTINUOUS
 62
     2
100
AcDbLine
 10
784.955762
 20
129.754881
 30
0.0
 11
785.711553
 21
129.522329
 31
0.0
  0
LINE
  5
3A1
330
395
100
AcDbEntity
  8
GR1-1
  6
CONTINUOUS
 62
     2
100
AcDbLine
 10
783.690147
 20
130.533032
 30
0.0
 11
783.573872
 21
130.300481
 31
0.0
  0
LINE
  5
3A2
330
395
100
AcDbEntity
  8
GR1-1
  6
CONTINUOUS
 62
     2
100
AcDbLine
 10
783.573872
 20
130.300481
 30
0.0
 11
784.329663
 21
130.06793
 31
0.0
  0
LINE
  5
3A3
330
395
100
AcDbEntity
  8
GR1-1
  6
CONTINUOUS
 62
     2
100
AcDbLine
 10
784.329663
 20
130.06793
 30
0.0
 11
783.690147
 21
130.533032
 31
0.0
  0
ENDBLK
  5
397
330
395
100
AcDbEntity
  8
0
100
AcDbBlockEnd
  0
BLOCK
  5
3C6
330
3C5
100
AcDbEntity
  8
0
100
AcDbBlockBegin
  2
BLKF063
 70
     0
 71
     0
 10
0.0
 20
0.0
 30
0.0
  3
BLKF063
  1

  0
LINE
  5
3C9
330
3C5
100
AcDbEntity
  8
GR1-1
  6
CONTINUOUS
 62
     2
100
AcDbLine
 10
826.393978
 20
114.915142
 30
0.0
 11
825.819759
 21
113.766704
 31
0.0
  0
LINE
  5
3CA
330
3C5
100
AcDbEntity
  8
GR1-1
  6
CONTINUOUS
 62
     2
100
AcDbLine
 10
827.556733
 20
114.333764
 30
0.0
 11
826.982514
 21
113.185326
 31
0.0
  0
LINE
  5
3CB
330
3C5
100
AcDbEntity
  8
GR1-1
  6
CONTINUOUS
 62
     2
100
AcDbLine
 10
825.390434
 20
114.652187
 30
0.0
 11
824.69278
 21
115.001013
 31
0.0
  0
LINE
  5
3CC
330
3C5
100
AcDbEntity
  8
GR1-1
  6
CONTINUOUS
 62
     2
100
AcDbLine
 10
827.948495
 20
113.373156
 30
0.0
 11
828.646149
 21
113.024329
 31
0.0
  0
TEXT
  5
3CD
330
3C5
100
AcDbEntity
  8
GR1-1
  6
CONTINUOUS
 62
     4
100
AcDbText
 10
827.851719
 20
113.909082
 30
0.0
 40
1.5
  1
65
 50
333.434937
 41
0.7
  7
FX_VECTOR
 72
     5
 11
829.730016
 21
112.969933
 31
0.0
100
AcDbText
  0
LINE
  5
3CE
330
3C5
100
AcDbEntity
  8
GR1-1
  6
CONTINUOUS
 62
     2
100
AcDbLine
 10
825.448571
 20
114.768462
 30
0.0
 11
825.332296
 21
114.535911
 31
0.0
  0
LINE
  5
3CF
330
3C5
100
AcDbEntity
  8
GR1-1
  6
CONTINUOUS
 62
     2
100
AcDbLine
 10
825.332296
 20
114.535911
 30
0.0
 11
826.088087
 21
114.30336
 31
0.0
  0
LINE
  5
3D0
330
3C5
100
AcDbEntity
  8
GR1-1
  6
CONTINUOUS
 62
     2
100
AcDbLine
 10
826.088087
 20
114.30336
 30
0.0
 11
825.448571
 21
114.768462
 31
0.0
  0
LINE
  5
3D1
330
3C5
100
AcDbEntity
  8
GR1-1
  6
CONTINUOUS
 62
     2
100
AcDbLine
 10
828.006633
 20
113.489431
 30
0.0
 11
827.890358
 21
113.25688
 31
0.0
  0
LINE
  5
3D2
330
3C5
100
AcDbEntity
  8
GR1-1
  6
CONTINUOUS
 62
     2
100
AcDbLine
 10
827.890358
 20
113.25688
 30
0.0
 11
827.250842
 21
113.721982
 31
0.0
  0
LINE
  5
3D3
330
3C5
100
AcDbEntity
  8
GR1-1
  6
CONTINUOUS
 62
     2
100
AcDbLine
 10
827.250842
 20
113.721982
 30
0.0
 11
828.006633
 21
113.489431
 31
0.0
  0
ENDBLK
  5
3C7
330
3C5
100
AcDbEntity
  8
0
100
AcDbBlockEnd
  0
BLOCK
  5
3D5
330
3D4
100
AcDbEntity
  8
0
100
AcDbBlockBegin
  2
BLKF064
 70
     0
 71
     0
 10
0.0
 20
0.0
 30
0.0
  3
BLKF064
  1

  0
LINE
  5
3D8
330
3D4
100
AcDbEntity
  8
GR1-1
  6
CONTINUOUS
 62
     2
100
AcDbLine
 10
836.482181
 20
130.384661
 30
0.0
 11
842.488247
 21
130.384661
 31
0.0
  0
LINE
  5
3D9
330
3D4
100
AcDbEntity
  8
GR1-1
  6
CONTINUOUS
 62
     2
100
AcDbLine
 10
836.782181
 20
130.984661
 30
0.0
 11
842.488247
 21
130.984661
 31
0.0
  0
LINE
  5
3DA
330
3D4
100
AcDbEntity
  8
GR1-1
  6
CONTINUOUS
 62
     2
100
AcDbLine
 10
841.888247
 20
129.604661
 30
0.0
 11
841.888247
 21
128.824661
 31
0.0
  0
LINE
  5
3DB
330
3D4
100
AcDbEntity
  8
GR1-1
  6
CONTINUOUS
 62
     2
100
AcDbLine
 10
841.888247
 20
131.764661
 30
0.0
 11
841.888247
 21
132.544661
 31
0.0
  0
TEXT
  5
3DC
330
3D4
100
AcDbEntity
  8
GR1-1
  6
CONTINUOUS
 62
     4
100
AcDbText
 10
844.449375
 20
129.634668
 30
0.0
 40
1.5
  1
30
 50
90.0
 41
0.7
  7
FX_VECTOR
 72
     5
 11
844.449375
 21
131.734668
 31
0.0
100
AcDbText
  0
LINE
  5
3DD
330
3D4
100
AcDbEntity
  8
GR1-1
  6
CONTINUOUS
 62
     2
100
AcDbLine
 10
841.758247
 20
129.604661
 30
0.0
 11
842.018247
 21
129.604661
 31
0.0
  0
LINE
  5
3DE
330
3D4
100
AcDbEntity
  8
GR1-1
  6
CONTINUOUS
 62
     2
100
AcDbLine
 10
842.018247
 20
129.604661
 30
0.0
 11
841.888247
 21
130.384661
 31
0.0
  0
LINE
  5
3DF
330
3D4
100
AcDbEntity
  8
GR1-1
  6
CONTINUOUS
 62
     2
100
AcDbLine
 10
841.888247
 20
130.384661
 30
0.0
 11
841.758247
 21
129.604661
 31
0.0
  0
LINE
  5
3E0
330
3D4
100
AcDbEntity
  8
GR1-1
  6
CONTINUOUS
 62
     2
100
AcDbLine
 10
841.758247
 20
131.764661
 30
0.0
 11
842.018247
 21
131.764661
 31
0.0
  0
LINE
  5
3E1
330
3D4
100
AcDbEntity
  8
GR1-1
  6
CONTINUOUS
 62
     2
100
AcDbLine
 10
842.018247
 20
131.764661
 30
0.0
 11
841.888247
 21
130.984661
 31
0.0
  0
LINE
  5
3E2
330
3D4
100
AcDbEntity
  8
GR1-1
  6
CONTINUOUS
 62
     2
100
AcDbLine
 10
841.888247
 20
130.984661
 30
0.0
 11
841.758247
 21
131.764661
 31
0.0
  0
ENDBLK
  5
3D6
330
3D4
100
AcDbEntity
  8
0
100
AcDbBlockEnd
  0
BLOCK
  5
3E4
330
3E3
100
AcDbEntity
  8
0
100
AcDbBlockBegin
  2
BLKF065
 70
     0
 71
     0
 10
0.0
 20
0.0
 30
0.0
  3
BLKF065
  1

  0
LINE
  5
3E7
330
3E3
100
AcDbEntity
  8
GR1-1
  6
CONTINUOUS
 62
     2
100
AcDbLine
 10
833.482181
 20
124.384661
 30
0.0
 11
842.488247
 21
124.384661
 31
0.0
  0
LINE
  5
3E8
330
3E3
100
AcDbEntity
  8
GR1-1
  6
CONTINUOUS
 62
     2
100
AcDbLine
 10
836.482181
 20
130.384661
 30
0.0
 11
842.488247
 21
130.384661
 31
0.0
  0
LINE
  5
3E9
330
3E3
100
AcDbEntity
  8
GR1-1
  6
CONTINUOUS
 62
     2
100
AcDbLine
 10
841.888247
 20
125.164661
 30
0.0
 11
841.888247
 21
129.604661
 31
0.0
  0
LINE
  5
3EA
330
3E3
100
AcDbEntity
  8
GR1-1
  6
CONTINUOUS
 62
     2
100
AcDbLine
 10
841.758247
 20
125.164661
 30
0.0
 11
842.018247
 21
125.164661
 31
0.0
  0
LINE
  5
3EB
330
3E3
100
AcDbEntity
  8
GR1-1
  6
CONTINUOUS
 62
     2
100
AcDbLine
 10
842.018247
 20
125.164661
 30
0.0
 11
841.888247
 21
124.384661
 31
0.0
  0
LINE
  5
3EC
330
3E3
100
AcDbEntity
  8
GR1-1
  6
CONTINUOUS
 62
     2
100
AcDbLine
 10
841.888247
 20
124.384661
 30
0.0
 11
841.758247
 21
125.164661
 31
0.0
  0
LINE
  5
3ED
330
3E3
100
AcDbEntity
  8
GR1-1
  6
CONTINUOUS
 62
     2
100
AcDbLine
 10
841.758247
 20
129.604661
 30
0.0
 11
842.018247
 21
129.604661
 31
0.0
  0
LINE
  5
3EE
330
3E3
100
AcDbEntity
  8
GR1-1
  6
CONTINUOUS
 62
     2
100
AcDbLine
 10
842.018247
 20
129.604661
 30
0.0
 11
841.888247
 21
130.384661
 31
0.0
  0
LINE
  5
3EF
330
3E3
100
AcDbEntity
  8
GR1-1
  6
CONTINUOUS
 62
     2
100
AcDbLine
 10
841.888247
 20
130.384661
 30
0.0
 11
841.758247
 21
129.604661
 31
0.0
  0
TEXT
  5
3F0
330
3E3
100
AcDbEntity
  8
GR1-1
  6
CONTINUOUS
 62
     4
100
AcDbText
 10
841.288281
 20
125.809668
 30
0.0
 40
1.5
  1
300
 50
90.0
 41
0.7
  7
FX_VECTOR
 72
     5
 11
841.288281
 21
128.959668
 31
0.0
100
AcDbText
  0
ENDBLK
  5
3E5
330
3E3
100
AcDbEntity
  8
0
100
AcDbBlockEnd
  0
BLOCK
  5
3F2
330
3F1
100
AcDbEntity
  8
0
100
AcDbBlockBegin
  2
BLKF066
 70
     0
 71
     0
 10
0.0
 20
0.0
 30
0.0
  3
BLKF066
  1

  0
LINE
  5
3F5
330
3F1
100
AcDbEntity
  8
GR1-1
  6
CONTINUOUS
 62
     2
100
AcDbLine
 10
831.404473
 20
120.229243
 30
0.0
 11
842.488247
 21
120.229243
 31
0.0
  0
LINE
  5
3F6
330
3F1
100
AcDbEntity
  8
GR1-1
  6
CONTINUOUS
 62
     2
100
AcDbLine
 10
833.182181
 20
123.784661
 30
0.0
 11
842.488247
 21
123.784661
 31
0.0
  0
LINE
  5
3F7
330
3F1
100
AcDbEntity
  8
GR1-1
  6
CONTINUOUS
 62
     2
100
AcDbLine
 10
841.888247
 20
121.009243
 30
0.0
 11
841.888247
 21
123.004661
 31
0.0
  0
TEXT
  5
3F8
330
3F1
100
AcDbEntity
  8
GR1-1
  6
CONTINUOUS
 62
     4
100
AcDbText
 10
841.344609
 20
119.381953
 30
0.0
 40
1.5
  1
177.8
 50
90.0
 41
0.7
  7
FX_VECTOR
 72
     5
 11
841.344609
 21
124.631953
 31
0.0
100
AcDbText
  0
LINE
  5
3F9
330
3F1
100
AcDbEntity
  8
GR1-1
  6
CONTINUOUS
 62
     2
100
AcDbLine
 10
841.758247
 20
121.009243
 30
0.0
 11
842.018247
 21
121.009243
 31
0.0
  0
LINE
  5
3FA
330
3F1
100
AcDbEntity
  8
GR1-1
  6
CONTINUOUS
 62
     2
100
AcDbLine
 10
842.018247
 20
121.009243
 30
0.0
 11
841.888247
 21
120.229243
 31
0.0
  0
LINE
  5
3FB
330
3F1
100
AcDbEntity
  8
GR1-1
  6
CONTINUOUS
 62
     2
100
AcDbLine
 10
841.888247
 20
120.229243
 30
0.0
 11
841.758247
 21
121.009243
 31
0.0
  0
LINE
  5
3FC
330
3F1
100
AcDbEntity
  8
GR1-1
  6
CONTINUOUS
 62
     2
100
AcDbLine
 10
841.758247
 20
123.004661
 30
0.0
 11
842.018247
 21
123.004661
 31
0.0
  0
LINE
  5
3FD
330
3F1
100
AcDbEntity
  8
GR1-1
  6
CONTINUOUS
 62
     2
100
AcDbLine
 10
842.018247
 20
123.004661
 30
0.0
 11
841.888247
 21
123.784661
 31
0.0
  0
LINE
  5
3FE
330
3F1
100
AcDbEntity
  8
GR1-1
  6
CONTINUOUS
 62
     2
100
AcDbLine
 10
841.888247
 20
123.784661
 30
0.0
 11
841.758247
 21
123.004661
 31
0.0
  0
ENDBLK
  5
3F3
330
3F1
100
AcDbEntity
  8
0
100
AcDbBlockEnd
  0
BLOCK
  5
400
330
3FF
100
AcDbEntity
  8
0
100
AcDbBlockBegin
  2
BLKF067
 70
     0
 71
     0
 10
0.0
 20
0.0
 30
0.0
  3
BLKF067
  1

  0
LINE
  5
403
330
3FF
100
AcDbEntity
  8
GR1-1
  6
CONTINUOUS
 62
     2
100
AcDbLine
 10
833.182181
 20
123.784661
 30
0.0
 11
842.488247
 21
123.784661
 31
0.0
  0
LINE
  5
404
330
3FF
100
AcDbEntity
  8
GR1-1
  6
CONTINUOUS
 62
     2
100
AcDbLine
 10
833.482181
 20
124.384661
 30
0.0
 11
842.488247
 21
124.384661
 31
0.0
  0
LINE
  5
405
330
3FF
100
AcDbEntity
  8
GR1-1
  6
CONTINUOUS
 62
     2
100
AcDbLine
 10
841.888247
 20
123.004661
 30
0.0
 11
841.888247
 21
122.224661
 31
0.0
  0
LINE
  5
406
330
3FF
100
AcDbEntity
  8
GR1-1
  6
CONTINUOUS
 62
     2
100
AcDbLine
 10
841.888247
 20
125.164661
 30
0.0
 11
841.888247
 21
125.944661
 31
0.0
  0
TEXT
  5
407
330
3FF
100
AcDbEntity
  8
GR1-1
  6
CONTINUOUS
 62
     4
100
AcDbText
 10
844.397656
 20
123.034668
 30
0.0
 40
1.5
  1
30
 50
90.0
 41
0.7
  7
FX_VECTOR
 72
     5
 11
844.397656
 21
125.134668
 31
0.0
100
AcDbText
  0
LINE
  5
408
330
3FF
100
AcDbEntity
  8
GR1-1
  6
CONTINUOUS
 62
     2
100
AcDbLine
 10
841.758247
 20
123.004661
 30
0.0
 11
842.018247
 21
123.004661
 31
0.0
  0
LINE
  5
409
330
3FF
100
AcDbEntity
  8
GR1-1
  6
CONTINUOUS
 62
     2
100
AcDbLine
 10
842.018247
 20
123.004661
 30
0.0
 11
841.888247
 21
123.784661
 31
0.0
  0
LINE
  5
40A
330
3FF
100
AcDbEntity
  8
GR1-1
  6
CONTINUOUS
 62
     2
100
AcDbLine
 10
841.888247
 20
123.784661
 30
0.0
 11
841.758247
 21
123.004661
 31
0.0
  0
LINE
  5
40B
330
3FF
100
AcDbEntity
  8
GR1-1
  6
CONTINUOUS
 62
     2
100
AcDbLine
 10
841.758247
 20
125.164661
 30
0.0
 11
842.018247
 21
125.164661
 31
0.0
  0
LINE
  5
40C
330
3FF
100
AcDbEntity
  8
GR1-1
  6
CONTINUOUS
 62
     2
100
AcDbLine
 10
842.018247
 20
125.164661
 30
0.0
 11
841.888247
 21
124.384661
 31
0.0
  0
LINE
  5
40D
330
3FF
100
AcDbEntity
  8
GR1-1
  6
CONTINUOUS
 62
     2
100
AcDbLine
 10
841.888247
 20
124.384661
 30
0.0
 11
841.758247
 21
125.164661
 31
0.0
  0
ENDBLK
  5
401
330
3FF
100
AcDbEntity
  8
0
100
AcDbBlockEnd
  0
BLOCK
  5
40F
330
40E
100
AcDbEntity
  8
0
100
AcDbBlockBegin
  2
BLKF068
 70
     0
 71
     0
 10
0.0
 20
0.0
 30
0.0
  3
BLKF068
  1

  0
LINE
  5
412
330
40E
100
AcDbEntity
  8
GR1-1
  6
CONTINUOUS
 62
     2
100
AcDbLine
 10
838.55989
 20
134.540078
 30
0.0
 11
848.025054
 21
134.540078
 31
0.0
  0
LINE
  5
413
330
40E
100
AcDbEntity
  8
GR1-1
  6
CONTINUOUS
 62
     2
100
AcDbLine
 10
831.404473
 20
120.229243
 30
0.0
 11
848.025054
 21
120.229243
 31
0.0
  0
LINE
  5
414
330
40E
100
AcDbEntity
  8
GR1-1
  6
CONTINUOUS
 62
     2
100
AcDbLine
 10
847.425054
 20
133.760078
 30
0.0
 11
847.425054
 21
121.009243
 31
0.0
  0
LINE
  5
415
330
40E
100
AcDbEntity
  8
GR1-1
  6
CONTINUOUS
 62
     2
100
AcDbLine
 10
847.295054
 20
133.760078
 30
0.0
 11
847.555054
 21
133.760078
 31
0.0
  0
LINE
  5
416
330
40E
100
AcDbEntity
  8
GR1-1
  6
CONTINUOUS
 62
     2
100
AcDbLine
 10
847.555054
 20
133.760078
 30
0.0
 11
847.425054
 21
134.540078
 31
0.0
  0
LINE
  5
417
330
40E
100
AcDbEntity
  8
GR1-1
  6
CONTINUOUS
 62
     2
100
AcDbLine
 10
847.425054
 20
134.540078
 30
0.0
 11
847.295054
 21
133.760078
 31
0.0
  0
LINE
  5
418
330
40E
100
AcDbEntity
  8
GR1-1
  6
CONTINUOUS
 62
     2
100
AcDbLine
 10
847.295054
 20
121.009243
 30
0.0
 11
847.555054
 21
121.009243
 31
0.0
  0
LINE
  5
419
330
40E
100
AcDbEntity
  8
GR1-1
  6
CONTINUOUS
 62
     2
100
AcDbLine
 10
847.555054
 20
121.009243
 30
0.0
 11
847.425054
 21
120.229243
 31
0.0
  0
LINE
  5
41A
330
40E
100
AcDbEntity
  8
GR1-1
  6
CONTINUOUS
 62
     2
100
AcDbLine
 10
847.425054
 20
120.229243
 30
0.0
 11
847.295054
 21
121.009243
 31
0.0
  0
TEXT
  5
41B
330
40E
100
AcDbEntity
  8
GR1-1
  6
CONTINUOUS
 62
     4
100
AcDbText
 10
846.825078
 20
124.759668
 30
0.0
 40
1.5
  1
715.5
 50
90.0
 41
0.7
  7
FX_VECTOR
 72
     5
 11
846.825078
 21
130.009668
 31
0.0
100
AcDbText
  0
ENDBLK
  5
410
330
40E
100
AcDbEntity
  8
0
100
AcDbBlockEnd
  0
BLOCK
  5
426
330
425
100
AcDbEntity
  8
0
100
AcDbBlockBegin
  2
BLKF069
 70
     0
 71
     0
 10
0.0
 20
0.0
 30
0.0
  3
BLKF069
  1

  0
LINE
  5
429
330
425
100
AcDbEntity
  8
GR1-1
  6
CONTINUOUS
 62
     2
100
AcDbLine
 10
836.782181
 20
130.984661
 30
0.0
 11
842.488247
 21
130.984661
 31
0.0
  0
LINE
  5
42A
330
425
100
AcDbEntity
  8
GR1-1
  6
CONTINUOUS
 62
     2
100
AcDbLine
 10
838.55989
 20
134.540078
 30
0.0
 11
842.488247
 21
134.540078
 31
0.0
  0
LINE
  5
42B
330
425
100
AcDbEntity
  8
GR1-1
  6
CONTINUOUS
 62
     2
100
AcDbLine
 10
841.888247
 20
131.764661
 30
0.0
 11
841.888247
 21
133.760078
 31
0.0
  0
TEXT
  5
42C
330
425
100
AcDbEntity
  8
GR1-1
  6
CONTINUOUS
 62
     4
100
AcDbText
 10
841.241172
 20
130.137363
 30
0.0
 40
1.5
  1
177.8
 50
90.0
 41
0.7
  7
FX_VECTOR
 72
     5
 11
841.241172
 21
135.387363
 31
0.0
100
AcDbText
  0
LINE
  5
42D
330
425
100
AcDbEntity
  8
GR1-1
  6
CONTINUOUS
 62
     2
100
AcDbLine
 10
841.758247
 20
131.764661
 30
0.0
 11
842.018247
 21
131.764661
 31
0.0
  0
LINE
  5
42E
330
425
100
AcDbEntity
  8
GR1-1
  6
CONTINUOUS
 62
     2
100
AcDbLine
 10
842.018247
 20
131.764661
 30
0.0
 11
841.888247
 21
130.984661
 31
0.0
  0
LINE
  5
42F
330
425
100
AcDbEntity
  8
GR1-1
  6
CONTINUOUS
 62
     2
100
AcDbLine
 10
841.888247
 20
130.984661
 30
0.0
 11
841.758247
 21
131.764661
 31
0.0
  0
LINE
  5
430
330
425
100
AcDbEntity
  8
GR1-1
  6
CONTINUOUS
 62
     2
100
AcDbLine
 10
841.758247
 20
133.760078
 30
0.0
 11
842.018247
 21
133.760078
 31
0.0
  0
LINE
  5
431
330
425
100
AcDbEntity
  8
GR1-1
  6
CONTINUOUS
 62
     2
100
AcDbLine
 10
842.018247
 20
133.760078
 30
0.0
 11
841.888247
 21
134.540078
 31
0.0
  0
LINE
  5
432
330
425
100
AcDbEntity
  8
GR1-1
  6
CONTINUOUS
 62
     2
100
AcDbLine
 10
841.888247
 20
134.540078
 30
0.0
 11
841.758247
 21
133.760078
 31
0.0
  0
ENDBLK
  5
427
330
425
100
AcDbEntity
  8
0
100
AcDbBlockEnd
  0
BLOCK
  5
434
330
433
100
AcDbEntity
  8
0
100
AcDbBlockBegin
  2
BLKF070
 70
     0
 71
     0
 10
0.0
 20
0.0
 30
0.0
  3
BLKF070
  1

  0
LINE
  5
437
330
433
100
AcDbEntity
  8
GR1-1
  6
CONTINUOUS
 62
     2
100
AcDbLine
 10
713.479413
 20
133.519286
 30
0.0
 11
714.472105
 21
131.533903
 31
0.0
  0
LINE
  5
438
330
433
100
AcDbEntity
  8
GR1-1
  6
CONTINUOUS
 62
     2
100
AcDbLine
 10
673.23019
 20
113.394674
 30
0.0
 11
674.222881
 21
111.409291
 31
0.0
  0
LINE
  5
439
330
433
100
AcDbEntity
  8
GR1-1
  6
CONTINUOUS
 62
     2
100
AcDbLine
 10
713.506124
 20
131.721732
 30
0.0
 11
674.652206
 21
112.294774
 31
0.0
  0
LINE
  5
43A
330
433
100
AcDbEntity
  8
GR1-1
  6
CONTINUOUS
 62
     2
100
AcDbLine
 10
713.447986
 20
131.838008
 30
0.0
 11
713.564261
 21
131.605457
 31
0.0
  0
LINE
  5
43B
330
433
100
AcDbEntity
  8
GR1-1
  6
CONTINUOUS
 62
     2
100
AcDbLine
 10
713.564261
 20
131.605457
 30
0.0
 11
714.203777
 21
132.070559
 31
0.0
  0
LINE
  5
43C
330
433
100
AcDbEntity
  8
GR1-1
  6
CONTINUOUS
 62
     2
100
AcDbLine
 10
714.203777
 20
132.070559
 30
0.0
 11
713.447986
 21
131.838008
 31
0.0
  0
LINE
  5
43D
330
433
100
AcDbEntity
  8
GR1-1
  6
CONTINUOUS
 62
     2
100
AcDbLine
 10
674.594069
 20
112.411049
 30
0.0
 11
674.710344
 21
112.178498
 31
0.0
  0
LINE
  5
43E
330
433
100
AcDbEntity
  8
GR1-1
  6
CONTINUOUS
 62
     2
100
AcDbLine
 10
674.710344
 20
112.178498
 30
0.0
 11
673.954553
 21
111.945947
 31
0.0
  0
LINE
  5
43F
330
433
100
AcDbEntity
  8
GR1-1
  6
CONTINUOUS
 62
     2
100
AcDbLine
 10
673.954553
 20
111.945947
 30
0.0
 11
674.594069
 21
112.411049
 31
0.0
  0
TEXT
  5
440
330
433
100
AcDbEntity
  8
GR1-1
  6
CONTINUOUS
 62
     4
100
AcDbText
 10
691.932578
 20
121.605762
 30
0.0
 40
1.5
  1
2250
 50
26.565052
 41
0.7
  7
FX_VECTOR
 72
     5
 11
695.689172
 21
123.484059
 31
0.0
100
AcDbText
  0
ENDBLK
  5
435
330
433
100
AcDbEntity
  8
0
100
AcDbBlockEnd
  0
BLOCK
  5
442
330
441
100
AcDbEntity
  8
0
100
AcDbBlockBegin
  2
BLKF071
 70
     0
 71
     0
 10
0.0
 20
0.0
 30
0.0
  3
BLKF071
  1

  0
LINE
  5
445
330
441
100
AcDbEntity
  8
GR1-1
  6
CONTINUOUS
 62
     2
100
AcDbLine
 10
831.309457
 20
119.826751
 30
0.0
 11
834.516104
 21
118.223427
 31
0.0
  0
LINE
  5
446
330
441
100
AcDbEntity
  8
GR1-1
  6
CONTINUOUS
 62
     2
100
AcDbLine
 10
833.545525
 20
124.298887
 30
0.0
 11
836.752172
 21
122.695563
 31
0.0
  0
LINE
  5
447
330
441
100
AcDbEntity
  8
GR1-1
  6
CONTINUOUS
 62
     2
100
AcDbLine
 10
834.328274
 20
119.189409
 30
0.0
 11
835.866689
 21
122.266238
 31
0.0
  0
LINE
  5
448
330
441
100
AcDbEntity
  8
GR1-1
  6
CONTINUOUS
 62
     2
100
AcDbLine
 10
834.211999
 20
119.247546
 30
0.0
 11
834.44455
 21
119.131271
 31
0.0
  0
LINE
  5
449
330
441
100
AcDbEntity
  8
GR1-1
  6
CONTINUOUS
 62
     2
100
AcDbLine
 10
834.44455
 20
119.131271
 30
0.0
 11
833.979448
 21
118.491755
 31
0.0
  0
LINE
  5
44A
330
441
100
AcDbEntity
  8
GR1-1
  6
CONTINUOUS
 62
     2
100
AcDbLine
 10
833.979448
 20
118.491755
 30
0.0
 11
834.211999
 21
119.247546
 31
0.0
  0
LINE
  5
44B
330
441
100
AcDbEntity
  8
GR1-1
  6
CONTINUOUS
 62
     2
100
AcDbLine
 10
835.750414
 20
122.324376
 30
0.0
 11
835.982965
 21
122.2081
 31
0.0
  0
LINE
  5
44C
330
441
100
AcDbEntity
  8
GR1-1
  6
CONTINUOUS
 62
     2
100
AcDbLine
 10
835.982965
 20
122.2081
 30
0.0
 11
836.215516
 21
122.963891
 31
0.0
  0
LINE
  5
44D
330
441
100
AcDbEntity
  8
GR1-1
  6
CONTINUOUS
 62
     2
100
AcDbLine
 10
836.215516
 20
122.963891
 30
0.0
 11
835.750414
 21
122.324376
 31
0.0
  0
TEXT
  5
44E
330
441
100
AcDbEntity
  8
GR1-1
  6
CONTINUOUS
 62
     4
100
AcDbText
 10
833.856484
 20
119.587422
 30
0.0
 40
1.5
  1
250
 50
63.434948
 41
0.7
  7
FX_VECTOR
 72
     5
 11
835.265207
 21
122.404868
 31
0.0
100
AcDbText
  0
ENDBLK
  5
443
330
441
100
AcDbEntity
  8
0
100
AcDbBlockEnd
  0
BLOCK
  5
450
330
44F
100
AcDbEntity
  8
0
100
AcDbBlockBegin
  2
BLKF072
 70
     0
 71
     0
 10
0.0
 20
0.0
 30
0.0
  3
BLKF072
  1

  0
LINE
  5
453
330
44F
100
AcDbEntity
  8
GR1-1
  6
CONTINUOUS
 62
     2
100
AcDbLine
 10
833.634968
 20
127.161054
 30
0.0
 11
834.001289
 21
127.893698
 31
0.0
  0
LINE
  5
454
330
44F
100
AcDbEntity
  8
GR1-1
  6
CONTINUOUS
 62
     2
100
AcDbLine
 10
833.903296
 20
127.02689
 30
0.0
 11
834.269618
 21
127.759533
 31
0.0
  0
LINE
  5
455
330
44F
100
AcDbEntity
  8
GR1-1
  6
CONTINUOUS
 62
     2
100
AcDbLine
 10
833.035308
 20
127.705868
 30
0.0
 11
832.337655
 21
128.054694
 31
0.0
  0
LINE
  5
456
330
44F
100
AcDbEntity
  8
GR1-1
  6
CONTINUOUS
 62
     2
100
AcDbLine
 10
834.698943
 20
126.874051
 30
0.0
 11
835.396596
 21
126.525224
 31
0.0
  0
TEXT
  5
457
330
44F
100
AcDbEntity
  8
GR1-1
  6
CONTINUOUS
 62
     4
100
AcDbText
 10
834.424375
 20
127.501113
 30
0.0
 40
1.5
  1
15
 50
333.434937
 41
0.7
  7
FX_VECTOR
 72
     5
 11
836.302672
 21
126.561964
 31
0.0
100
AcDbText
  0
LINE
  5
458
330
44F
100
AcDbEntity
  8
GR1-1
  6
CONTINUOUS
 62
     2
100
AcDbLine
 10
833.093446
 20
127.822143
 30
0.0
 11
832.97717
 21
127.589592
 31
0.0
  0
LINE
  5
459
330
44F
100
AcDbEntity
  8
GR1-1
  6
CONTINUOUS
 62
     2
100
AcDbLine
 10
832.97717
 20
127.589592
 30
0.0
 11
833.732961
 21
127.357041
 31
0.0
  0
LINE
  5
45A
330
44F
100
AcDbEntity
  8
GR1-1
  6
CONTINUOUS
 62
     2
100
AcDbLine
 10
833.732961
 20
127.357041
 30
0.0
 11
833.093446
 21
127.822143
 31
0.0
  0
LINE
  5
45B
330
44F
100
AcDbEntity
  8
GR1-1
  6
CONTINUOUS
 62
     2
100
AcDbLine
 10
834.75708
 20
126.990326
 30
0.0
 11
834.640805
 21
126.757775
 31
0.0
  0
LINE
  5
45C
330
44F
100
AcDbEntity
  8
GR1-1
  6
CONTINUOUS
 62
     2
100
AcDbLine
 10
834.640805
 20
126.757775
 30
0.0
 11
834.001289
 21
127.222877
 31
0.0
  0
LINE
  5
45D
330
44F
100
AcDbEntity
  8
GR1-1
  6
CONTINUOUS
 62
     2
100
AcDbLine
 10
834.001289
 20
127.222877
 30
0.0
 11
834.75708
 21
126.990326
 31
0.0
  0
ENDBLK
  5
451
330
44F
100
AcDbEntity
  8
0
100
AcDbBlockEnd
  0
BLOCK
  5
45F
330
45E
100
AcDbEntity
  8
0
100
AcDbBlockBegin
  2
BLKF073
 70
     0
 71
     0
 10
0.0
 20
0.0
 30
0.0
  3
BLKF073
  1

  0
LINE
  5
462
330
45E
100
AcDbEntity
  8
GR1-1
  6
CONTINUOUS
 62
     2
100
AcDbLine
 10
831.980277
 20
126.982168
 30
0.0
 11
829.288066
 21
128.328274
 31
0.0
  0
LINE
  5
463
330
45E
100
AcDbEntity
  8
GR1-1
  6
CONTINUOUS
 62
     2
100
AcDbLine
 10
830.459751
 20
123.941116
 30
0.0
 11
827.76754
 21
125.287222
 31
0.0
  0
LINE
  5
464
330
45E
100
AcDbEntity
  8
GR1-1
  6
CONTINUOUS
 62
     2
100
AcDbLine
 10
829.475896
 20
127.362293
 30
0.0
 11
828.653023
 21
125.716547
 31
0.0
  0
TEXT
  5
465
330
45E
100
AcDbEntity
  8
GR1-1
  6
CONTINUOUS
 62
     4
100
AcDbText
 10
827.018516
 20
125.801523
 30
0.0
 40
1.5
  1
170
 50
63.434952
 41
0.7
  7
FX_VECTOR
 72
     5
 11
828.427238
 21
128.618969
 31
0.0
100
AcDbText
  0
LINE
  5
466
330
45E
100
AcDbEntity
  8
GR1-1
  6
CONTINUOUS
 62
     2
100
AcDbLine
 10
829.35962
 20
127.42043
 30
0.0
 11
829.592171
 21
127.304155
 31
0.0
  0
LINE
  5
467
330
45E
100
AcDbEntity
  8
GR1-1
  6
CONTINUOUS
 62
     2
100
AcDbLine
 10
829.592171
 20
127.304155
 30
0.0
 11
829.824722
 21
128.059946
 31
0.0
  0
LINE
  5
468
330
45E
100
AcDbEntity
  8
GR1-1
  6
CONTINUOUS
 62
     2
100
AcDbLine
 10
829.824722
 20
128.059946
 30
0.0
 11
829.35962
 21
127.42043
 31
0.0
  0
LINE
  5
469
330
45E
100
AcDbEntity
  8
GR1-1
  6
CONTINUOUS
 62
     2
100
AcDbLine
 10
828.536747
 20
125.774684
 30
0.0
 11
828.769298
 21
125.658409
 31
0.0
  0
LINE
  5
46A
330
45E
100
AcDbEntity
  8
GR1-1
  6
CONTINUOUS
 62
     2
100
AcDbLine
 10
828.769298
 20
125.658409
 30
0.0
 11
828.304196
 21
125.018893
 31
0.0
  0
LINE
  5
46B
330
45E
100
AcDbEntity
  8
GR1-1
  6
CONTINUOUS
 62
     2
100
AcDbLine
 10
828.304196
 20
125.018893
 30
0.0
 11
828.536747
 21
125.774684
 31
0.0
  0
ENDBLK
  5
460
330
45E
100
AcDbEntity
  8
0
100
AcDbBlockEnd
  0
BLOCK
  5
475
330
474
100
AcDbEntity
  8
0
100
AcDbBlockBegin
  2
BLKF074
 70
     0
 71
     0
 10
0.0
 20
0.0
 30
0.0
  3
BLKF074
  1

  0
LINE
  5
478
330
474
100
AcDbEntity
  8
GR1-1
  6
CONTINUOUS
 62
     2
100
AcDbLine
 10
788.589344
 20
135.440078
 30
0.0
 11
788.589344
 21
138.152478
 31
0.0
  0
LINE
  5
479
330
474
100
AcDbEntity
  8
GR1-1
  6
CONTINUOUS
 62
     2
100
AcDbLine
 10
787.348361
 20
135.440078
 30
0.0
 11
787.348361
 21
138.152478
 31
0.0
  0
LINE
  5
47A
330
474
100
AcDbEntity
  8
GR1-1
  6
CONTINUOUS
 62
     2
100
AcDbLine
 10
789.369344
 20
137.552478
 30
0.0
 11
790.149344
 21
137.552478
 31
0.0
  0
LINE
  5
47B
330
474
100
AcDbEntity
  8
GR1-1
  6
CONTINUOUS
 62
     2
100
AcDbLine
 10
786.568361
 20
137.552478
 30
0.0
 11
785.788361
 21
137.552478
 31
0.0
  0
TEXT
  5
47C
330
474
100
AcDbEntity
  8
GR1-1
  6
CONTINUOUS
 62
     4
100
AcDbText
 10
784.397109
 20
138.145293
 30
0.0
 40
1.5
  1
62
 41
0.7
  7
FX_VECTOR
 72
     5
 11
786.497109
 21
138.145293
 31
0.0
100
AcDbText
  0
LINE
  5
47D
330
474
100
AcDbEntity
  8
GR1-1
  6
CONTINUOUS
 62
     2
100
AcDbLine
 10
789.369344
 20
137.682478
 30
0.0
 11
789.369344
 21
137.422478
 31
0.0
  0
LINE
  5
47E
330
474
100
AcDbEntity
  8
GR1-1
  6
CONTINUOUS
 62
     2
100
AcDbLine
 10
789.369344
 20
137.422478
 30
0.0
 11
788.589344
 21
137.552478
 31
0.0
  0
LINE
  5
47F
330
474
100
AcDbEntity
  8
GR1-1
  6
CONTINUOUS
 62
     2
100
AcDbLine
 10
788.589344
 20
137.552478
 30
0.0
 11
789.369344
 21
137.682478
 31
0.0
  0
LINE
  5
480
330
474
100
AcDbEntity
  8
GR1-1
  6
CONTINUOUS
 62
     2
100
AcDbLine
 10
786.568361
 20
137.682478
 30
0.0
 11
786.568361
 21
137.422478
 31
0.0
  0
LINE
  5
481
330
474
100
AcDbEntity
  8
GR1-1
  6
CONTINUOUS
 62
     2
100
AcDbLine
 10
786.568361
 20
137.422478
 30
0.0
 11
787.348361
 21
137.552478
 31
0.0
  0
LINE
  5
482
330
474
100
AcDbEntity
  8
GR1-1
  6
CONTINUOUS
 62
     2
100
AcDbLine
 10
787.348361
 20
137.552478
 30
0.0
 11
786.568361
 21
137.682478
 31
0.0
  0
ENDBLK
  5
476
330
474
100
AcDbEntity
  8
0
100
AcDbBlockEnd
  0
BLOCK
  5
484
330
483
100
AcDbEntity
  8
0
100
AcDbBlockBegin
  2
BLKF075
 70
     0
 71
     0
 10
0.0
 20
0.0
 30
0.0
  3
BLKF075
  1

  0
LINE
  5
487
330
483
100
AcDbEntity
  8
GR1-1
  6
CONTINUOUS
 62
     2
100
AcDbLine
 10
788.589344
 20
135.440078
 30
0.0
 11
788.589344
 21
138.152478
 31
0.0
  0
LINE
  5
488
330
483
100
AcDbEntity
  8
GR1-1
  6
CONTINUOUS
 62
     2
100
AcDbLine
 10
789.189344
 20
135.440078
 30
0.0
 11
789.189344
 21
138.152478
 31
0.0
  0
LINE
  5
489
330
483
100
AcDbEntity
  8
GR1-1
  6
CONTINUOUS
 62
     2
100
AcDbLine
 10
787.809344
 20
137.552478
 30
0.0
 11
787.029344
 21
137.552478
 31
0.0
  0
LINE
  5
48A
330
483
100
AcDbEntity
  8
GR1-1
  6
CONTINUOUS
 62
     2
100
AcDbLine
 10
789.969344
 20
137.552478
 30
0.0
 11
790.749344
 21
137.552478
 31
0.0
  0
TEXT
  5
48B
330
483
100
AcDbEntity
  8
GR1-1
  6
CONTINUOUS
 62
     4
100
AcDbText
 10
787.839375
 20
139.05248
 30
0.0
 40
1.5
  1
30
 41
0.7
  7
FX_VECTOR
 72
     5
 11
789.939375
 21
139.05248
 31
0.0
100
AcDbText
  0
LINE
  5
48C
330
483
100
AcDbEntity
  8
GR1-1
  6
CONTINUOUS
 62
     2
100
AcDbLine
 10
787.809344
 20
137.682478
 30
0.0
 11
787.809344
 21
137.422478
 31
0.0
  0
LINE
  5
48D
330
483
100
AcDbEntity
  8
GR1-1
  6
CONTINUOUS
 62
     2
100
AcDbLine
 10
787.809344
 20
137.422478
 30
0.0
 11
788.589344
 21
137.552478
 31
0.0
  0
LINE
  5
48E
330
483
100
AcDbEntity
  8
GR1-1
  6
CONTINUOUS
 62
     2
100
AcDbLine
 10
788.589344
 20
137.552478
 30
0.0
 11
787.809344
 21
137.682478
 31
0.0
  0
LINE
  5
48F
330
483
100
AcDbEntity
  8
GR1-1
  6
CONTINUOUS
 62
     2
100
AcDbLine
 10
789.969344
 20
137.682478
 30
0.0
 11
789.969344
 21
137.422478
 31
0.0
  0
LINE
  5
490
330
483
100
AcDbEntity
  8
GR1-1
  6
CONTINUOUS
 62
     2
100
AcDbLine
 10
789.969344
 20
137.422478
 30
0.0
 11
789.189344
 21
137.552478
 31
0.0
  0
LINE
  5
491
330
483
100
AcDbEntity
  8
GR1-1
  6
CONTINUOUS
 62
     2
100
AcDbLine
 10
789.189344
 20
137.552478
 30
0.0
 11
789.969344
 21
137.682478
 31
0.0
  0
ENDBLK
  5
485
330
483
100
AcDbEntity
  8
0
100
AcDbBlockEnd
  0
BLOCK
  5
493
330
492
100
AcDbEntity
  8
0
100
AcDbBlockBegin
  2
BLKF076
 70
     0
 71
     0
 10
0.0
 20
0.0
 30
0.0
  3
BLKF076
  1

  0
LINE
  5
496
330
492
100
AcDbEntity
  8
GR1-1
  6
CONTINUOUS
 62
     2
100
AcDbLine
 10
789.189344
 20
135.440078
 30
0.0
 11
789.189344
 21
138.152478
 31
0.0
  0
LINE
  5
497
330
492
100
AcDbEntity
  8
GR1-1
  6
CONTINUOUS
 62
     2
100
AcDbLine
 10
809.121501
 20
135.440078
 30
0.0
 11
809.121501
 21
138.152478
 31
0.0
  0
LINE
  5
498
330
492
100
AcDbEntity
  8
GR1-1
  6
CONTINUOUS
 62
     2
100
AcDbLine
 10
789.969344
 20
137.552478
 30
0.0
 11
808.341501
 21
137.552478
 31
0.0
  0
LINE
  5
499
330
492
100
AcDbEntity
  8
GR1-1
  6
CONTINUOUS
 62
     2
100
AcDbLine
 10
789.969344
 20
137.682478
 30
0.0
 11
789.969344
 21
137.422478
 31
0.0
  0
LINE
  5
49A
330
492
100
AcDbEntity
  8
GR1-1
  6
CONTINUOUS
 62
     2
100
AcDbLine
 10
789.969344
 20
137.422478
 30
0.0
 11
789.189344
 21
137.552478
 31
0.0
  0
LINE
  5
49B
330
492
100
AcDbEntity
  8
GR1-1
  6
CONTINUOUS
 62
     2
100
AcDbLine
 10
789.189344
 20
137.552478
 30
0.0
 11
789.969344
 21
137.682478
 31
0.0
  0
LINE
  5
49C
330
492
100
AcDbEntity
  8
GR1-1
  6
CONTINUOUS
 62
     2
100
AcDbLine
 10
808.341501
 20
137.682478
 30
0.0
 11
808.341501
 21
137.422478
 31
0.0
  0
LINE
  5
49D
330
492
100
AcDbEntity
  8
GR1-1
  6
CONTINUOUS
 62
     2
100
AcDbLine
 10
808.341501
 20
137.422478
 30
0.0
 11
809.121501
 21
137.552478
 31
0.0
  0
LINE
  5
49E
330
492
100
AcDbEntity
  8
GR1-1
  6
CONTINUOUS
 62
     2
100
AcDbLine
 10
809.121501
 20
137.552478
 30
0.0
 11
808.341501
 21
137.682478
 31
0.0
  0
TEXT
  5
49F
330
492
100
AcDbEntity
  8
GR1-1
  6
CONTINUOUS
 62
     4
100
AcDbText
 10
796.530469
 20
138.15248
 30
0.0
 40
1.5
  1
996.5
 41
0.7
  7
FX_VECTOR
 72
     5
 11
801.780469
 21
138.15248
 31
0.0
100
AcDbText
  0
ENDBLK
  5
494
330
492
100
AcDbEntity
  8
0
100
AcDbBlockEnd
  0
BLOCK
  5
4A1
330
4A0
100
AcDbEntity
  8
0
100
AcDbBlockBegin
  2
BLKF077
 70
     0
 71
     0
 10
0.0
 20
0.0
 30
0.0
  3
BLKF077
  1

  0
LINE
  5
4A4
330
4A0
100
AcDbEntity
  8
GR1-1
  6
CONTINUOUS
 62
     2
100
AcDbLine
 10
809.121501
 20
135.440078
 30
0.0
 11
809.121501
 21
138.152478
 31
0.0
  0
LINE
  5
4A5
330
4A0
100
AcDbEntity
  8
GR1-1
  6
CONTINUOUS
 62
     2
100
AcDbLine
 10
809.721501
 20
135.440078
 30
0.0
 11
809.721501
 21
138.152478
 31
0.0
  0
LINE
  5
4A6
330
4A0
100
AcDbEntity
  8
GR1-1
  6
CONTINUOUS
 62
     2
100
AcDbLine
 10
808.341501
 20
137.552478
 30
0.0
 11
807.561501
 21
137.552478
 31
0.0
  0
LINE
  5
4A7
330
4A0
100
AcDbEntity
  8
GR1-1
  6
CONTINUOUS
 62
     2
100
AcDbLine
 10
810.501501
 20
137.552478
 30
0.0
 11
811.281501
 21
137.552478
 31
0.0
  0
TEXT
  5
4A8
330
4A0
100
AcDbEntity
  8
GR1-1
  6
CONTINUOUS
 62
     4
100
AcDbText
 10
807.711016
 20
139.007988
 30
0.0
 40
1.5
  1
30
 41
0.7
  7
FX_VECTOR
 72
     5
 11
809.811016
 21
139.007988
 31
0.0
100
AcDbText
  0
LINE
  5
4A9
330
4A0
100
AcDbEntity
  8
GR1-1
  6
CONTINUOUS
 62
     2
100
AcDbLine
 10
808.341501
 20
137.682478
 30
0.0
 11
808.341501
 21
137.422478
 31
0.0
  0
LINE
  5
4AA
330
4A0
100
AcDbEntity
  8
GR1-1
  6
CONTINUOUS
 62
     2
100
AcDbLine
 10
808.341501
 20
137.422478
 30
0.0
 11
809.121501
 21
137.552478
 31
0.0
  0
LINE
  5
4AB
330
4A0
100
AcDbEntity
  8
GR1-1
  6
CONTINUOUS
 62
     2
100
AcDbLine
 10
809.121501
 20
137.552478
 30
0.0
 11
808.341501
 21
137.682478
 31
0.0
  0
LINE
  5
4AC
330
4A0
100
AcDbEntity
  8
GR1-1
  6
CONTINUOUS
 62
     2
100
AcDbLine
 10
810.501501
 20
137.682478
 30
0.0
 11
810.501501
 21
137.422478
 31
0.0
  0
LINE
  5
4AD
330
4A0
100
AcDbEntity
  8
GR1-1
  6
CONTINUOUS
 62
     2
100
AcDbLine
 10
810.501501
 20
137.422478
 30
0.0
 11
809.721501
 21
137.552478
 31
0.0
  0
LINE
  5
4AE
330
4A0
100
AcDbEntity
  8
GR1-1
  6
CONTINUOUS
 62
     2
100
AcDbLine
 10
809.721501
 20
137.552478
 30
0.0
 11
810.501501
 21
137.682478
 31
0.0
  0
ENDBLK
  5
4A2
330
4A0
100
AcDbEntity
  8
0
100
AcDbBlockEnd
  0
BLOCK
  5
4B0
330
4AF
100
AcDbEntity
  8
0
100
AcDbBlockBegin
  2
BLKF078
 70
     0
 71
     0
 10
0.0
 20
0.0
 30
0.0
  3
BLKF078
  1

  0
LINE
  5
4B3
330
4AF
100
AcDbEntity
  8
GR1-1
  6
CONTINUOUS
 62
     2
100
AcDbLine
 10
809.721501
 20
135.440078
 30
0.0
 11
809.721501
 21
138.152478
 31
0.0
  0
LINE
  5
4B4
330
4AF
100
AcDbEntity
  8
GR1-1
  6
CONTINUOUS
 62
     2
100
AcDbLine
 10
813.721501
 20
135.440078
 30
0.0
 11
813.721501
 21
138.152478
 31
0.0
  0
LINE
  5
4B5
330
4AF
100
AcDbEntity
  8
GR1-1
  6
CONTINUOUS
 62
     2
100
AcDbLine
 10
810.501501
 20
137.552478
 30
0.0
 11
812.941501
 21
137.552478
 31
0.0
  0
LINE
  5
4B6
330
4AF
100
AcDbEntity
  8
GR1-1
  6
CONTINUOUS
 62
     2
100
AcDbLine
 10
810.501501
 20
137.682478
 30
0.0
 11
810.501501
 21
137.422478
 31
0.0
  0
LINE
  5
4B7
330
4AF
100
AcDbEntity
  8
GR1-1
  6
CONTINUOUS
 62
     2
100
AcDbLine
 10
810.501501
 20
137.422478
 30
0.0
 11
809.721501
 21
137.552478
 31
0.0
  0
LINE
  5
4B8
330
4AF
100
AcDbEntity
  8
GR1-1
  6
CONTINUOUS
 62
     2
100
AcDbLine
 10
809.721501
 20
137.552478
 30
0.0
 11
810.501501
 21
137.682478
 31
0.0
  0
LINE
  5
4B9
330
4AF
100
AcDbEntity
  8
GR1-1
  6
CONTINUOUS
 62
     2
100
AcDbLine
 10
812.941501
 20
137.682478
 30
0.0
 11
812.941501
 21
137.422478
 31
0.0
  0
LINE
  5
4BA
330
4AF
100
AcDbEntity
  8
GR1-1
  6
CONTINUOUS
 62
     2
100
AcDbLine
 10
812.941501
 20
137.422478
 30
0.0
 11
813.721501
 21
137.552478
 31
0.0
  0
LINE
  5
4BB
330
4AF
100
AcDbEntity
  8
GR1-1
  6
CONTINUOUS
 62
     2
100
AcDbLine
 10
813.721501
 20
137.552478
 30
0.0
 11
812.941501
 21
137.682478
 31
0.0
  0
TEXT
  5
4BC
330
4AF
100
AcDbEntity
  8
GR1-1
  6
CONTINUOUS
 62
     4
100
AcDbText
 10
810.146563
 20
138.15248
 30
0.0
 40
1.5
  1
200
 41
0.7
  7
FX_VECTOR
 72
     5
 11
813.296563
 21
138.15248
 31
0.0
100
AcDbText
  0
ENDBLK
  5
4B1
330
4AF
100
AcDbEntity
  8
0
100
AcDbBlockEnd
  0
BLOCK
  5
4BE
330
4BD
100
AcDbEntity
  8
0
100
AcDbBlockBegin
  2
BLKF079
 70
     0
 71
     0
 10
0.0
 20
0.0
 30
0.0
  3
BLKF079
  1

  0
LINE
  5
4C1
330
4BD
100
AcDbEntity
  8
GR1-1
  6
CONTINUOUS
 62
     2
100
AcDbLine
 10
813.721501
 20
135.440078
 30
0.0
 11
813.721501
 21
138.152478
 31
0.0
  0
LINE
  5
4C2
330
4BD
100
AcDbEntity
  8
GR1-1
  6
CONTINUOUS
 62
     2
100
AcDbLine
 10
814.321501
 20
135.440078
 30
0.0
 11
814.321501
 21
138.152478
 31
0.0
  0
LINE
  5
4C3
330
4BD
100
AcDbEntity
  8
GR1-1
  6
CONTINUOUS
 62
     2
100
AcDbLine
 10
812.941501
 20
137.552478
 30
0.0
 11
812.161501
 21
137.552478
 31
0.0
  0
LINE
  5
4C4
330
4BD
100
AcDbEntity
  8
GR1-1
  6
CONTINUOUS
 62
     2
100
AcDbLine
 10
815.101501
 20
137.552478
 30
0.0
 11
815.881501
 21
137.552478
 31
0.0
  0
TEXT
  5
4C5
330
4BD
100
AcDbEntity
  8
GR1-1
  6
CONTINUOUS
 62
     4
100
AcDbText
 10
813.539531
 20
139.079883
 30
0.0
 40
1.5
  1
30
 41
0.7
  7
FX_VECTOR
 72
     5
 11
815.639531
 21
139.079883
 31
0.0
100
AcDbText
  0
LINE
  5
4C6
330
4BD
100
AcDbEntity
  8
GR1-1
  6
CONTINUOUS
 62
     2
100
AcDbLine
 10
812.941501
 20
137.682478
 30
0.0
 11
812.941501
 21
137.422478
 31
0.0
  0
LINE
  5
4C7
330
4BD
100
AcDbEntity
  8
GR1-1
  6
CONTINUOUS
 62
     2
100
AcDbLine
 10
812.941501
 20
137.422478
 30
0.0
 11
813.721501
 21
137.552478
 31
0.0
  0
LINE
  5
4C8
330
4BD
100
AcDbEntity
  8
GR1-1
  6
CONTINUOUS
 62
     2
100
AcDbLine
 10
813.721501
 20
137.552478
 30
0.0
 11
812.941501
 21
137.682478
 31
0.0
  0
LINE
  5
4C9
330
4BD
100
AcDbEntity
  8
GR1-1
  6
CONTINUOUS
 62
     2
100
AcDbLine
 10
815.101501
 20
137.682478
 30
0.0
 11
815.101501
 21
137.422478
 31
0.0
  0
LINE
  5
4CA
330
4BD
100
AcDbEntity
  8
GR1-1
  6
CONTINUOUS
 62
     2
100
AcDbLine
 10
815.101501
 20
137.422478
 30
0.0
 11
814.321501
 21
137.552478
 31
0.0
  0
LINE
  5
4CB
330
4BD
100
AcDbEntity
  8
GR1-1
  6
CONTINUOUS
 62
     2
100
AcDbLine
 10
814.321501
 20
137.552478
 30
0.0
 11
815.101501
 21
137.682478
 31
0.0
  0
ENDBLK
  5
4BF
330
4BD
100
AcDbEntity
  8
0
100
AcDbBlockEnd
  0
BLOCK
  5
4CD
330
4CC
100
AcDbEntity
  8
0
100
AcDbBlockBegin
  2
BLKF080
 70
     0
 71
     0
 10
0.0
 20
0.0
 30
0.0
  3
BLKF080
  1

  0
LINE
  5
4D0
330
4CC
100
AcDbEntity
  8
GR1-1
  6
CONTINUOUS
 62
     2
100
AcDbLine
 10
828.66349
 20
135.440078
 30
0.0
 11
828.66349
 21
138.152478
 31
0.0
  0
LINE
  5
4D1
330
4CC
100
AcDbEntity
  8
GR1-1
  6
CONTINUOUS
 62
     2
100
AcDbLine
 10
829.26349
 20
135.440078
 30
0.0
 11
829.26349
 21
138.152478
 31
0.0
  0
LINE
  5
4D2
330
4CC
100
AcDbEntity
  8
GR1-1
  6
CONTINUOUS
 62
     2
100
AcDbLine
 10
827.88349
 20
137.552478
 30
0.0
 11
827.10349
 21
137.552478
 31
0.0
  0
LINE
  5
4D3
330
4CC
100
AcDbEntity
  8
GR1-1
  6
CONTINUOUS
 62
     2
100
AcDbLine
 10
830.04349
 20
137.552478
 30
0.0
 11
830.82349
 21
137.552478
 31
0.0
  0
TEXT
  5
4D4
330
4CC
100
AcDbEntity
  8
GR1-1
  6
CONTINUOUS
 62
     4
100
AcDbText
 10
827.913516
 20
139.05248
 30
0.0
 40
1.5
  1
30
 41
0.7
  7
FX_VECTOR
 72
     5
 11
830.013516
 21
139.05248
 31
0.0
100
AcDbText
  0
LINE
  5
4D5
330
4CC
100
AcDbEntity
  8
GR1-1
  6
CONTINUOUS
 62
     2
100
AcDbLine
 10
827.88349
 20
137.682478
 30
0.0
 11
827.88349
 21
137.422478
 31
0.0
  0
LINE
  5
4D6
330
4CC
100
AcDbEntity
  8
GR1-1
  6
CONTINUOUS
 62
     2
100
AcDbLine
 10
827.88349
 20
137.422478
 30
0.0
 11
828.66349
 21
137.552478
 31
0.0
  0
LINE
  5
4D7
330
4CC
100
AcDbEntity
  8
GR1-1
  6
CONTINUOUS
 62
     2
100
AcDbLine
 10
828.66349
 20
137.552478
 30
0.0
 11
827.88349
 21
137.682478
 31
0.0
  0
LINE
  5
4D8
330
4CC
100
AcDbEntity
  8
GR1-1
  6
CONTINUOUS
 62
     2
100
AcDbLine
 10
830.04349
 20
137.682478
 30
0.0
 11
830.04349
 21
137.422478
 31
0.0
  0
LINE
  5
4D9
330
4CC
100
AcDbEntity
  8
GR1-1
  6
CONTINUOUS
 62
     2
100
AcDbLine
 10
830.04349
 20
137.422478
 30
0.0
 11
829.26349
 21
137.552478
 31
0.0
  0
LINE
  5
4DA
330
4CC
100
AcDbEntity
  8
GR1-1
  6
CONTINUOUS
 62
     2
100
AcDbLine
 10
829.26349
 20
137.552478
 30
0.0
 11
830.04349
 21
137.682478
 31
0.0
  0
ENDBLK
  5
4CE
330
4CC
100
AcDbEntity
  8
0
100
AcDbBlockEnd
  0
BLOCK
  5
4DC
330
4DB
100
AcDbEntity
  8
0
100
AcDbBlockBegin
  2
BLKF081
 70
     0
 71
     0
 10
0.0
 20
0.0
 30
0.0
  3
BLKF081
  1

  0
LINE
  5
4DF
330
4DB
100
AcDbEntity
  8
GR1-1
  6
CONTINUOUS
 62
     2
100
AcDbLine
 10
829.26349
 20
135.440078
 30
0.0
 11
829.26349
 21
138.152478
 31
0.0
  0
LINE
  5
4E0
330
4DB
100
AcDbEntity
  8
GR1-1
  6
CONTINUOUS
 62
     2
100
AcDbLine
 10
837.65989
 20
135.440078
 30
0.0
 11
837.65989
 21
138.152478
 31
0.0
  0
LINE
  5
4E1
330
4DB
100
AcDbEntity
  8
GR1-1
  6
CONTINUOUS
 62
     2
100
AcDbLine
 10
830.04349
 20
137.552478
 30
0.0
 11
836.87989
 21
137.552478
 31
0.0
  0
LINE
  5
4E2
330
4DB
100
AcDbEntity
  8
GR1-1
  6
CONTINUOUS
 62
     2
100
AcDbLine
 10
830.04349
 20
137.682478
 30
0.0
 11
830.04349
 21
137.422478
 31
0.0
  0
LINE
  5
4E3
330
4DB
100
AcDbEntity
  8
GR1-1
  6
CONTINUOUS
 62
     2
100
AcDbLine
 10
830.04349
 20
137.422478
 30
0.0
 11
829.26349
 21
137.552478
 31
0.0
  0
LINE
  5
4E4
330
4DB
100
AcDbEntity
  8
GR1-1
  6
CONTINUOUS
 62
     2
100
AcDbLine
 10
829.26349
 20
137.552478
 30
0.0
 11
830.04349
 21
137.682478
 31
0.0
  0
LINE
  5
4E5
330
4DB
100
AcDbEntity
  8
GR1-1
  6
CONTINUOUS
 62
     2
100
AcDbLine
 10
836.87989
 20
137.682478
 30
0.0
 11
836.87989
 21
137.422478
 31
0.0
  0
LINE
  5
4E6
330
4DB
100
AcDbEntity
  8
GR1-1
  6
CONTINUOUS
 62
     2
100
AcDbLine
 10
836.87989
 20
137.422478
 30
0.0
 11
837.65989
 21
137.552478
 31
0.0
  0
LINE
  5
4E7
330
4DB
100
AcDbEntity
  8
GR1-1
  6
CONTINUOUS
 62
     2
100
AcDbLine
 10
837.65989
 20
137.552478
 30
0.0
 11
836.87989
 21
137.682478
 31
0.0
  0
TEXT
  5
4E8
330
4DB
100
AcDbEntity
  8
GR1-1
  6
CONTINUOUS
 62
     4
100
AcDbText
 10
831.886719
 20
138.15248
 30
0.0
 40
1.5
  1
420
 41
0.7
  7
FX_VECTOR
 72
     5
 11
835.036719
 21
138.15248
 31
0.0
100
AcDbText
  0
ENDBLK
  5
4DD
330
4DB
100
AcDbEntity
  8
0
100
AcDbBlockEnd
  0
BLOCK
  5
4EA
330
4E9
100
AcDbEntity
  8
0
100
AcDbBlockBegin
  2
BLKF082
 70
     0
 71
     0
 10
0.0
 20
0.0
 30
0.0
  3
BLKF082
  1

  0
LINE
  5
4ED
330
4E9
100
AcDbEntity
  8
GR1-1
  6
CONTINUOUS
 62
     2
100
AcDbLine
 10
814.321501
 20
135.440078
 30
0.0
 11
814.321501
 21
138.152478
 31
0.0
  0
LINE
  5
4EE
330
4E9
100
AcDbEntity
  8
GR1-1
  6
CONTINUOUS
 62
     2
100
AcDbLine
 10
828.66349
 20
135.440078
 30
0.0
 11
828.66349
 21
138.152478
 31
0.0
  0
LINE
  5
4EF
330
4E9
100
AcDbEntity
  8
GR1-1
  6
CONTINUOUS
 62
     2
100
AcDbLine
 10
815.101501
 20
137.552478
 30
0.0
 11
827.88349
 21
137.552478
 31
0.0
  0
LINE
  5
4F0
330
4E9
100
AcDbEntity
  8
GR1-1
  6
CONTINUOUS
 62
     2
100
AcDbLine
 10
815.101501
 20
137.682478
 30
0.0
 11
815.101501
 21
137.422478
 31
0.0
  0
LINE
  5
4F1
330
4E9
100
AcDbEntity
  8
GR1-1
  6
CONTINUOUS
 62
     2
100
AcDbLine
 10
815.101501
 20
137.422478
 30
0.0
 11
814.321501
 21
137.552478
 31
0.0
  0
LINE
  5
4F2
330
4E9
100
AcDbEntity
  8
GR1-1
  6
CONTINUOUS
 62
     2
100
AcDbLine
 10
814.321501
 20
137.552478
 30
0.0
 11
815.101501
 21
137.682478
 31
0.0
  0
LINE
  5
4F3
330
4E9
100
AcDbEntity
  8
GR1-1
  6
CONTINUOUS
 62
     2
100
AcDbLine
 10
827.88349
 20
137.682478
 30
0.0
 11
827.88349
 21
137.422478
 31
0.0
  0
LINE
  5
4F4
330
4E9
100
AcDbEntity
  8
GR1-1
  6
CONTINUOUS
 62
     2
100
AcDbLine
 10
827.88349
 20
137.422478
 30
0.0
 11
828.66349
 21
137.552478
 31
0.0
  0
LINE
  5
4F5
330
4E9
100
AcDbEntity
  8
GR1-1
  6
CONTINUOUS
 62
     2
100
AcDbLine
 10
828.66349
 20
137.552478
 30
0.0
 11
827.88349
 21
137.682478
 31
0.0
  0
TEXT
  5
4F6
330
4E9
100
AcDbEntity
  8
GR1-1
  6
CONTINUOUS
 62
     4
100
AcDbText
 10
819.9175
 20
138.15248
 30
0.0
 40
1.5
  1
717
 41
0.7
  7
FX_VECTOR
 72
     5
 11
823.0675
 21
138.15248
 31
0.0
100
AcDbText
  0
ENDBLK
  5
4EB
330
4E9
100
AcDbEntity
  8
0
100
AcDbBlockEnd
  0
BLOCK
  5
4FA
330
4F9
100
AcDbEntity
  8
0
100
AcDbBlockBegin
  2
BLKF083
 70
     0
 71
     0
 10
0.0
 20
0.0
 30
0.0
  3
BLKF083
  1

  0
LINE
  5
4FD
330
4F9
100
AcDbEntity
  8
GR1-1
  6
CONTINUOUS
 62
     2
100
AcDbLine
 10
736.833661
 20
155.124523
 30
0.0
 11
736.833661
 21
148.074188
 31
0.0
  0
LINE
  5
4FE
330
4F9
100
AcDbEntity
  8
GR1-1
  6
CONTINUOUS
 62
     2
100
AcDbLine
 10
749.333661
 20
155.124523
 30
0.0
 11
749.333661
 21
148.074188
 31
0.0
  0
LINE
  5
4FF
330
4F9
100
AcDbEntity
  8
GR1-1
  6
CONTINUOUS
 62
     2
100
AcDbLine
 10
737.613661
 20
148.674188
 30
0.0
 11
748.553661
 21
148.674188
 31
0.0
  0
LINE
  5
500
330
4F9
100
AcDbEntity
  8
GR1-1
  6
CONTINUOUS
 62
     2
100
AcDbLine
 10
737.613661
 20
148.804188
 30
0.0
 11
737.613661
 21
148.544188
 31
0.0
  0
LINE
  5
501
330
4F9
100
AcDbEntity
  8
GR1-1
  6
CONTINUOUS
 62
     2
100
AcDbLine
 10
737.613661
 20
148.544188
 30
0.0
 11
736.833661
 21
148.674188
 31
0.0
  0
LINE
  5
502
330
4F9
100
AcDbEntity
  8
GR1-1
  6
CONTINUOUS
 62
     2
100
AcDbLine
 10
736.833661
 20
148.674188
 30
0.0
 11
737.613661
 21
148.804188
 31
0.0
  0
LINE
  5
503
330
4F9
100
AcDbEntity
  8
GR1-1
  6
CONTINUOUS
 62
     2
100
AcDbLine
 10
748.553661
 20
148.804188
 30
0.0
 11
748.553661
 21
148.544188
 31
0.0
  0
LINE
  5
504
330
4F9
100
AcDbEntity
  8
GR1-1
  6
CONTINUOUS
 62
     2
100
AcDbLine
 10
748.553661
 20
148.544188
 30
0.0
 11
749.333661
 21
148.674188
 31
0.0
  0
LINE
  5
505
330
4F9
100
AcDbEntity
  8
GR1-1
  6
CONTINUOUS
 62
     2
100
AcDbLine
 10
749.333661
 20
148.674188
 30
0.0
 11
748.553661
 21
148.804188
 31
0.0
  0
TEXT
  5
506
330
4F9
100
AcDbEntity
  8
GR1-1
  6
CONTINUOUS
 62
     4
100
AcDbText
 10
741.508672
 20
149.27418
 30
0.0
 40
1.5
  1
625
 41
0.7
  7
FX_VECTOR
 72
     5
 11
744.658672
 21
149.27418
 31
0.0
100
AcDbText
  0
ENDBLK
  5
4FB
330
4F9
100
AcDbEntity
  8
0
100
AcDbBlockEnd
  0
BLOCK
  5
50E
330
50D
100
AcDbEntity
  8
0
100
AcDbBlockBegin
  2
BLKF084
 70
     0
 71
     0
 10
0.0
 20
0.0
 30
0.0
  3
BLKF084
  1

  0
LINE
  5
511
330
50D
100
AcDbEntity
  8
GR1-1
  6
CONTINUOUS
 62
     2
100
AcDbLine
 10
736.883661
 20
214.380961
 30
0.0
 11
736.883661
 21
221.843498
 31
0.0
  0
LINE
  5
512
330
50D
100
AcDbEntity
  8
GR1-1
  6
CONTINUOUS
 62
     2
100
AcDbLine
 10
736.833661
 20
191.08912
 30
0.0
 11
736.833661
 21
221.843498
 31
0.0
  0
LINE
  5
513
330
50D
100
AcDbEntity
  8
GR1-1
  6
CONTINUOUS
 62
     2
100
AcDbLine
 10
737.663661
 20
221.243498
 30
0.0
 11
738.443661
 21
221.243498
 31
0.0
  0
LINE
  5
514
330
50D
100
AcDbEntity
  8
GR1-1
  6
CONTINUOUS
 62
     2
100
AcDbLine
 10
736.053661
 20
221.243498
 30
0.0
 11
735.273661
 21
221.243498
 31
0.0
  0
TEXT
  5
515
330
50D
100
AcDbEntity
  8
GR1-1
  6
CONTINUOUS
 62
     4
100
AcDbText
 10
733.600391
 20
221.753965
 30
0.0
 40
1.5
  1
2.5
 41
0.7
  7
FX_VECTOR
 72
     5
 11
736.750391
 21
221.753965
 31
0.0
100
AcDbText
  0
LINE
  5
516
330
50D
100
AcDbEntity
  8
GR1-1
  6
CONTINUOUS
 62
     2
100
AcDbLine
 10
737.663661
 20
221.373498
 30
0.0
 11
737.663661
 21
221.113498
 31
0.0
  0
LINE
  5
517
330
50D
100
AcDbEntity
  8
GR1-1
  6
CONTINUOUS
 62
     2
100
AcDbLine
 10
737.663661
 20
221.113498
 30
0.0
 11
736.883661
 21
221.243498
 31
0.0
  0
LINE
  5
518
330
50D
100
AcDbEntity
  8
GR1-1
  6
CONTINUOUS
 62
     2
100
AcDbLine
 10
736.883661
 20
221.243498
 30
0.0
 11
737.663661
 21
221.373498
 31
0.0
  0
LINE
  5
519
330
50D
100
AcDbEntity
  8
GR1-1
  6
CONTINUOUS
 62
     2
100
AcDbLine
 10
736.053661
 20
221.373498
 30
0.0
 11
736.053661
 21
221.113498
 31
0.0
  0
LINE
  5
51A
330
50D
100
AcDbEntity
  8
GR1-1
  6
CONTINUOUS
 62
     2
100
AcDbLine
 10
736.053661
 20
221.113498
 30
0.0
 11
736.833661
 21
221.243498
 31
0.0
  0
LINE
  5
51B
330
50D
100
AcDbEntity
  8
GR1-1
  6
CONTINUOUS
 62
     2
100
AcDbLine
 10
736.833661
 20
221.243498
 30
0.0
 11
736.053661
 21
221.373498
 31
0.0
  0
ENDBLK
  5
50F
330
50D
100
AcDbEntity
  8
0
100
AcDbBlockEnd
  0
BLOCK
  5
51D
330
51C
100
AcDbEntity
  8
0
100
AcDbBlockBegin
  2
BLKF085
 70
     0
 71
     0
 10
0.0
 20
0.0
 30
0.0
  3
BLKF085
  1

  0
LINE
  5
520
330
51C
100
AcDbEntity
  8
GR1-1
  6
CONTINUOUS
 62
     2
100
AcDbLine
 10
749.283661
 20
214.380961
 30
0.0
 11
749.283661
 21
221.843498
 31
0.0
  0
LINE
  5
521
330
51C
100
AcDbEntity
  8
GR1-1
  6
CONTINUOUS
 62
     2
100
AcDbLine
 10
749.333661
 20
191.08912
 30
0.0
 11
749.333661
 21
221.843498
 31
0.0
  0
LINE
  5
522
330
51C
100
AcDbEntity
  8
GR1-1
  6
CONTINUOUS
 62
     2
100
AcDbLine
 10
748.503661
 20
221.243498
 30
0.0
 11
747.723661
 21
221.243498
 31
0.0
  0
LINE
  5
523
330
51C
100
AcDbEntity
  8
GR1-1
  6
CONTINUOUS
 62
     2
100
AcDbLine
 10
750.113661
 20
221.243498
 30
0.0
 11
750.893661
 21
221.243498
 31
0.0
  0
TEXT
  5
524
330
51C
100
AcDbEntity
  8
GR1-1
  6
CONTINUOUS
 62
     4
100
AcDbText
 10
749.444141
 20
221.863105
 30
0.0
 40
1.5
  1
2.5
 41
0.7
  7
FX_VECTOR
 72
     5
 11
752.594141
 21
221.863105
 31
0.0
100
AcDbText
  0
LINE
  5
525
330
51C
100
AcDbEntity
  8
GR1-1
  6
CONTINUOUS
 62
     2
100
AcDbLine
 10
748.503661
 20
221.373498
 30
0.0
 11
748.503661
 21
221.113498
 31
0.0
  0
LINE
  5
526
330
51C
100
AcDbEntity
  8
GR1-1
  6
CONTINUOUS
 62
     2
100
AcDbLine
 10
748.503661
 20
221.113498
 30
0.0
 11
749.283661
 21
221.243498
 31
0.0
  0
LINE
  5
527
330
51C
100
AcDbEntity
  8
GR1-1
  6
CONTINUOUS
 62
     2
100
AcDbLine
 10
749.283661
 20
221.243498
 30
0.0
 11
748.503661
 21
221.373498
 31
0.0
  0
LINE
  5
528
330
51C
100
AcDbEntity
  8
GR1-1
  6
CONTINUOUS
 62
     2
100
AcDbLine
 10
750.113661
 20
221.373498
 30
0.0
 11
750.113661
 21
221.113498
 31
0.0
  0
LINE
  5
529
330
51C
100
AcDbEntity
  8
GR1-1
  6
CONTINUOUS
 62
     2
100
AcDbLine
 10
750.113661
 20
221.113498
 30
0.0
 11
749.333661
 21
221.243498
 31
0.0
  0
LINE
  5
52A
330
51C
100
AcDbEntity
  8
GR1-1
  6
CONTINUOUS
 62
     2
100
AcDbLine
 10
749.333661
 20
221.243498
 30
0.0
 11
750.113661
 21
221.373498
 31
0.0
  0
ENDBLK
  5
51E
330
51C
100
AcDbEntity
  8
0
100
AcDbBlockEnd
  0
BLOCK
  5
52E
330
52D
100
AcDbEntity
  8
0
100
AcDbBlockBegin
  2
BLKF086
 70
     0
 71
     0
 10
0.0
 20
0.0
 30
0.0
  3
BLKF086
  1

  0
LINE
  5
531
330
52D
100
AcDbEntity
  8
GR1-1
  6
CONTINUOUS
 62
     2
100
AcDbLine
 10
740.183661
 20
165.179941
 30
0.0
 11
733.334213
 21
165.179941
 31
0.0
  0
LINE
  5
532
330
52D
100
AcDbEntity
  8
GR1-1
  6
CONTINUOUS
 62
     2
100
AcDbLine
 10
740.183661
 20
167.179941
 30
0.0
 11
733.334213
 21
167.179941
 31
0.0
  0
LINE
  5
533
330
52D
100
AcDbEntity
  8
GR1-1
  6
CONTINUOUS
 62
     2
100
AcDbLine
 10
733.934213
 20
164.399941
 30
0.0
 11
733.934213
 21
163.619941
 31
0.0
  0
LINE
  5
534
330
52D
100
AcDbEntity
  8
GR1-1
  6
CONTINUOUS
 62
     2
100
AcDbLine
 10
733.934213
 20
167.959941
 30
0.0
 11
733.934213
 21
168.739941
 31
0.0
  0
TEXT
  5
535
330
52D
100
AcDbEntity
  8
GR1-1
  6
CONTINUOUS
 62
     4
100
AcDbText
 10
732.434219
 20
165.99873
 30
0.0
 40
1.5
  1
100
 50
90.0
 41
0.7
  7
FX_VECTOR
 72
     5
 11
732.434219
 21
169.14873
 31
0.0
100
AcDbText
  0
LINE
  5
536
330
52D
100
AcDbEntity
  8
GR1-1
  6
CONTINUOUS
 62
     2
100
AcDbLine
 10
733.804213
 20
164.399941
 30
0.0
 11
734.064213
 21
164.399941
 31
0.0
  0
LINE
  5
537
330
52D
100
AcDbEntity
  8
GR1-1
  6
CONTINUOUS
 62
     2
100
AcDbLine
 10
734.064213
 20
164.399941
 30
0.0
 11
733.934213
 21
165.179941
 31
0.0
  0
LINE
  5
538
330
52D
100
AcDbEntity
  8
GR1-1
  6
CONTINUOUS
 62
     2
100
AcDbLine
 10
733.934213
 20
165.179941
 30
0.0
 11
733.804213
 21
164.399941
 31
0.0
  0
LINE
  5
539
330
52D
100
AcDbEntity
  8
GR1-1
  6
CONTINUOUS
 62
     2
100
AcDbLine
 10
733.804213
 20
167.959941
 30
0.0
 11
734.064213
 21
167.959941
 31
0.0
  0
LINE
  5
53A
330
52D
100
AcDbEntity
  8
GR1-1
  6
CONTINUOUS
 62
     2
100
AcDbLine
 10
734.064213
 20
167.959941
 30
0.0
 11
733.934213
 21
167.179941
 31
0.0
  0
LINE
  5
53B
330
52D
100
AcDbEntity
  8
GR1-1
  6
CONTINUOUS
 62
     2
100
AcDbLine
 10
733.934213
 20
167.179941
 30
0.0
 11
733.804213
 21
167.959941
 31
0.0
  0
ENDBLK
  5
52F
330
52D
100
AcDbEntity
  8
0
100
AcDbBlockEnd
  0
BLOCK
  5
53D
330
53C
100
AcDbEntity
  8
0
100
AcDbBlockBegin
  2
BLKF087
 70
     0
 71
     0
 10
0.0
 20
0.0
 30
0.0
  3
BLKF087
  1

  0
LINE
  5
540
330
53C
100
AcDbEntity
  8
GR1-1
  6
CONTINUOUS
 62
     2
100
AcDbLine
 10
735.933661
 20
163.179941
 30
0.0
 11
733.334213
 21
163.179941
 31
0.0
  0
LINE
  5
541
330
53C
100
AcDbEntity
  8
GR1-1
  6
CONTINUOUS
 62
     2
100
AcDbLine
 10
740.183661
 20
165.179941
 30
0.0
 11
733.334213
 21
165.179941
 31
0.0
  0
LINE
  5
542
330
53C
100
AcDbEntity
  8
GR1-1
  6
CONTINUOUS
 62
     2
100
AcDbLine
 10
733.934213
 20
162.399941
 30
0.0
 11
733.934213
 21
161.619941
 31
0.0
  0
LINE
  5
543
330
53C
100
AcDbEntity
  8
GR1-1
  6
CONTINUOUS
 62
     2
100
AcDbLine
 10
733.934213
 20
165.959941
 30
0.0
 11
733.934213
 21
166.739941
 31
0.0
  0
TEXT
  5
544
330
53C
100
AcDbEntity
  8
GR1-1
  6
CONTINUOUS
 62
     4
100
AcDbText
 10
732.434219
 20
161.714043
 30
0.0
 40
1.5
  1
100
 50
90.0
 41
0.7
  7
FX_VECTOR
 72
     5
 11
732.434219
 21
164.864043
 31
0.0
100
AcDbText
  0
LINE
  5
545
330
53C
100
AcDbEntity
  8
GR1-1
  6
CONTINUOUS
 62
     2
100
AcDbLine
 10
733.804213
 20
162.399941
 30
0.0
 11
734.064213
 21
162.399941
 31
0.0
  0
LINE
  5
546
330
53C
100
AcDbEntity
  8
GR1-1
  6
CONTINUOUS
 62
     2
100
AcDbLine
 10
734.064213
 20
162.399941
 30
0.0
 11
733.934213
 21
163.179941
 31
0.0
  0
LINE
  5
547
330
53C
100
AcDbEntity
  8
GR1-1
  6
CONTINUOUS
 62
     2
100
AcDbLine
 10
733.934213
 20
163.179941
 30
0.0
 11
733.804213
 21
162.399941
 31
0.0
  0
LINE
  5
548
330
53C
100
AcDbEntity
  8
GR1-1
  6
CONTINUOUS
 62
     2
100
AcDbLine
 10
733.804213
 20
165.959941
 30
0.0
 11
734.064213
 21
165.959941
 31
0.0
  0
LINE
  5
549
330
53C
100
AcDbEntity
  8
GR1-1
  6
CONTINUOUS
 62
     2
100
AcDbLine
 10
734.064213
 20
165.959941
 30
0.0
 11
733.934213
 21
165.179941
 31
0.0
  0
LINE
  5
54A
330
53C
100
AcDbEntity
  8
GR1-1
  6
CONTINUOUS
 62
     2
100
AcDbLine
 10
733.934213
 20
165.179941
 30
0.0
 11
733.804213
 21
165.959941
 31
0.0
  0
ENDBLK
  5
53E
330
53C
100
AcDbEntity
  8
0
100
AcDbBlockEnd
  0
BLOCK
  5
54F
330
54E
100
AcDbEntity
  8
0
100
AcDbBlockBegin
  2
BLKF088
 70
     0
 71
     0
 10
0.0
 20
0.0
 30
0.0
  3
BLKF088
  1

  0
LINE
  5
552
330
54E
100
AcDbEntity
  8
GR1-1
  6
CONTINUOUS
 62
     2
100
AcDbLine
 10
736.833661
 20
162.279941
 30
0.0
 11
736.833661
 21
159.247286
 31
0.0
  0
LINE
  5
553
330
54E
100
AcDbEntity
  8
GR1-1
  6
CONTINUOUS
 62
     2
100
AcDbLine
 10
743.083661
 20
162.279941
 30
0.0
 11
743.083661
 21
159.247286
 31
0.0
  0
LINE
  5
554
330
54E
100
AcDbEntity
  8
GR1-1
  6
CONTINUOUS
 62
     2
100
AcDbLine
 10
737.613661
 20
159.847286
 30
0.0
 11
742.303661
 21
159.847286
 31
0.0
  0
TEXT
  5
555
330
54E
100
AcDbEntity
  8
GR1-1
  6
CONTINUOUS
 62
     4
100
AcDbText
 10
737.358672
 20
160.447285
 30
0.0
 40
1.5
  1
312.5
 41
0.7
  7
FX_VECTOR
 72
     5
 11
742.608672
 21
160.447285
 31
0.0
100
AcDbText
  0
LINE
  5
556
330
54E
100
AcDbEntity
  8
GR1-1
  6
CONTINUOUS
 62
     2
100
AcDbLine
 10
737.613661
 20
159.977286
 30
0.0
 11
737.613661
 21
159.717286
 31
0.0
  0
LINE
  5
557
330
54E
100
AcDbEntity
  8
GR1-1
  6
CONTINUOUS
 62
     2
100
AcDbLine
 10
737.613661
 20
159.717286
 30
0.0
 11
736.833661
 21
159.847286
 31
0.0
  0
LINE
  5
558
330
54E
100
AcDbEntity
  8
GR1-1
  6
CONTINUOUS
 62
     2
100
AcDbLine
 10
736.833661
 20
159.847286
 30
0.0
 11
737.613661
 21
159.977286
 31
0.0
  0
LINE
  5
559
330
54E
100
AcDbEntity
  8
GR1-1
  6
CONTINUOUS
 62
     2
100
AcDbLine
 10
742.303661
 20
159.977286
 30
0.0
 11
742.303661
 21
159.717286
 31
0.0
  0
LINE
  5
55A
330
54E
100
AcDbEntity
  8
GR1-1
  6
CONTINUOUS
 62
     2
100
AcDbLine
 10
742.303661
 20
159.717286
 30
0.0
 11
743.083661
 21
159.847286
 31
0.0
  0
LINE
  5
55B
330
54E
100
AcDbEntity
  8
GR1-1
  6
CONTINUOUS
 62
     2
100
AcDbLine
 10
743.083661
 20
159.847286
 30
0.0
 11
742.303661
 21
159.977286
 31
0.0
  0
ENDBLK
  5
550
330
54E
100
AcDbEntity
  8
0
100
AcDbBlockEnd
  0
BLOCK
  5
561
330
560
100
AcDbEntity
  8
0
100
AcDbBlockBegin
  2
BLKF089
 70
     0
 71
     0
 10
0.0
 20
0.0
 30
0.0
  3
BLKF089
  1

  0
LINE
  5
564
330
560
100
AcDbEntity
  8
GR1-1
  6
CONTINUOUS
 62
     2
100
AcDbLine
 10
749.333661
 20
162.279941
 30
0.0
 11
749.333661
 21
159.247286
 31
0.0
  0
LINE
  5
565
330
560
100
AcDbEntity
  8
GR1-1
  6
CONTINUOUS
 62
     2
100
AcDbLine
 10
743.083661
 20
162.279941
 30
0.0
 11
743.083661
 21
159.247286
 31
0.0
  0
LINE
  5
566
330
560
100
AcDbEntity
  8
GR1-1
  6
CONTINUOUS
 62
     2
100
AcDbLine
 10
748.553661
 20
159.847286
 30
0.0
 11
743.863661
 21
159.847286
 31
0.0
  0
TEXT
  5
567
330
560
100
AcDbEntity
  8
GR1-1
  6
CONTINUOUS
 62
     4
100
AcDbText
 10
743.558672
 20
160.447285
 30
0.0
 40
1.5
  1
312.5
 41
0.7
  7
FX_VECTOR
 72
     5
 11
748.808672
 21
160.447285
 31
0.0
100
AcDbText
  0
LINE
  5
568
330
560
100
AcDbEntity
  8
GR1-1
  6
CONTINUOUS
 62
     2
100
AcDbLine
 10
748.553661
 20
159.977286
 30
0.0
 11
748.553661
 21
159.717286
 31
0.0
  0
LINE
  5
569
330
560
100
AcDbEntity
  8
GR1-1
  6
CONTINUOUS
 62
     2
100
AcDbLine
 10
748.553661
 20
159.717286
 30
0.0
 11
749.333661
 21
159.847286
 31
0.0
  0
LINE
  5
56A
330
560
100
AcDbEntity
  8
GR1-1
  6
CONTINUOUS
 62
     2
100
AcDbLine
 10
749.333661
 20
159.847286
 30
0.0
 11
748.553661
 21
159.977286
 31
0.0
  0
LINE
  5
56B
330
560
100
AcDbEntity
  8
GR1-1
  6
CONTINUOUS
 62
     2
100
AcDbLine
 10
743.863661
 20
159.977286
 30
0.0
 11
743.863661
 21
159.717286
 31
0.0
  0
LINE
  5
56C
330
560
100
AcDbEntity
  8
GR1-1
  6
CONTINUOUS
 62
     2
100
AcDbLine
 10
743.863661
 20
159.717286
 30
0.0
 11
743.083661
 21
159.847286
 31
0.0
  0
LINE
  5
56D
330
560
100
AcDbEntity
  8
GR1-1
  6
CONTINUOUS
 62
     2
100
AcDbLine
 10
743.083661
 20
159.847286
 30
0.0
 11
743.863661
 21
159.977286
 31
0.0
  0
ENDBLK
  5
562
330
560
100
AcDbEntity
  8
0
100
AcDbBlockEnd
  0
BLOCK
  5
570
330
56F
100
AcDbEntity
  8
0
100
AcDbBlockBegin
  2
BLKF090
 70
     0
 71
     0
 10
0.0
 20
0.0
 30
0.0
  3
BLKF090
  1

  0
LINE
  5
573
330
56F
100
AcDbEntity
  8
GR1-1
  6
CONTINUOUS
 62
     2
100
AcDbLine
 10
743.468826
 20
165.494273
 30
0.0
 11
747.122936
 21
167.157049
 31
0.0
  0
INSERT
  5
574
330
56F
100
AcDbEntity
  8
GR1-1
  6
CONTINUOUS
 62
     2
100
AcDbBlockReference
  2
FXTIP_BLACKTRIANGLE_S
 10
743.468826
 20
165.494273
 30
0.0
 41
2.0
 42
2.0
 50
204.467548
  0
LINE
  5
575
330
56F
100
AcDbEntity
  8
GR1-1
  6
CONTINUOUS
 62
     2
100
AcDbLine
 10
747.122936
 20
167.157049
 30
0.0
 11
747.902936
 21
167.157049
 31
0.0
  0
TEXT
  5
576
330
56F
100
AcDbEntity
  8
GR1-1
  6
CONTINUOUS
 62
     4
100
AcDbText
 10
747.185625
 20
167.508496
 30
0.0
 40
1.5
  1
ガイドピン４号
 41
0.7
  7
FX_VECTOR
 72
     5
 11
754.535625
 21
167.508496
 31
0.0
100
AcDbText
  0
ENDBLK
  5
571
330
56F
100
AcDbEntity
  8
0
100
AcDbBlockEnd
  0
BLOCK
  5
583
330
582
100
AcDbEntity
  8
0
100
AcDbBlockBegin
  2
BLKF091
 70
     0
 71
     0
 10
0.0
 20
0.0
 30
0.0
  3
BLKF091
  1

  0
LINE
  5
586
330
582
100
AcDbEntity
  8
GR1-1
  6
CONTINUOUS
 62
     2
100
AcDbLine
 10
736.883661
 20
214.380961
 30
0.0
 11
736.883661
 21
221.843498
 31
0.0
  0
LINE
  5
587
330
582
100
AcDbEntity
  8
GR1-1
  6
CONTINUOUS
 62
     2
100
AcDbLine
 10
749.283661
 20
214.380961
 30
0.0
 11
749.283661
 21
221.843498
 31
0.0
  0
LINE
  5
588
330
582
100
AcDbEntity
  8
GR1-1
  6
CONTINUOUS
 62
     2
100
AcDbLine
 10
737.663661
 20
221.243498
 30
0.0
 11
748.503661
 21
221.243498
 31
0.0
  0
LINE
  5
589
330
582
100
AcDbEntity
  8
GR1-1
  6
CONTINUOUS
 62
     2
100
AcDbLine
 10
737.663661
 20
221.373498
 30
0.0
 11
737.663661
 21
221.113498
 31
0.0
  0
LINE
  5
58A
330
582
100
AcDbEntity
  8
GR1-1
  6
CONTINUOUS
 62
     2
100
AcDbLine
 10
737.663661
 20
221.113498
 30
0.0
 11
736.883661
 21
221.243498
 31
0.0
  0
LINE
  5
58B
330
582
100
AcDbEntity
  8
GR1-1
  6
CONTINUOUS
 62
     2
100
AcDbLine
 10
736.883661
 20
221.243498
 30
0.0
 11
737.663661
 21
221.373498
 31
0.0
  0
LINE
  5
58C
330
582
100
AcDbEntity
  8
GR1-1
  6
CONTINUOUS
 62
     2
100
AcDbLine
 10
748.503661
 20
221.373498
 30
0.0
 11
748.503661
 21
221.113498
 31
0.0
  0
LINE
  5
58D
330
582
100
AcDbEntity
  8
GR1-1
  6
CONTINUOUS
 62
     2
100
AcDbLine
 10
748.503661
 20
221.113498
 30
0.0
 11
749.283661
 21
221.243498
 31
0.0
  0
LINE
  5
58E
330
582
100
AcDbEntity
  8
GR1-1
  6
CONTINUOUS
 62
     2
100
AcDbLine
 10
749.283661
 20
221.243498
 30
0.0
 11
748.503661
 21
221.373498
 31
0.0
  0
TEXT
  5
58F
330
582
100
AcDbEntity
  8
GR1-1
  6
CONTINUOUS
 62
     4
100
AcDbText
 10
741.508672
 20
221.843496
 30
0.0
 40
1.5
  1
620
 41
0.7
  7
FX_VECTOR
 72
     5
 11
744.658672
 21
221.843496
 31
0.0
100
AcDbText
  0
ENDBLK
  5
584
330
582
100
AcDbEntity
  8
0
100
AcDbBlockEnd
  0
BLOCK
  5
592
330
591
100
AcDbEntity
  8
0
100
AcDbBlockBegin
  2
BLKF092
 70
     0
 71
     0
 10
0.0
 20
0.0
 30
0.0
  3
BLKF092
  1

  0
LINE
  5
595
330
591
100
AcDbEntity
  8
GR1-1
  6
CONTINUOUS
 62
     2
100
AcDbLine
 10
740.683661
 20
214.380961
 30
0.0
 11
740.683661
 21
219.333822
 31
0.0
  0
LINE
  5
596
330
591
100
AcDbEntity
  8
GR1-1
  6
CONTINUOUS
 62
     2
100
AcDbLine
 10
741.083661
 20
214.380961
 30
0.0
 11
741.083661
 21
219.333822
 31
0.0
  0
LINE
  5
597
330
591
100
AcDbEntity
  8
GR1-1
  6
CONTINUOUS
 62
     2
100
AcDbLine
 10
739.903661
 20
218.733822
 30
0.0
 11
739.123661
 21
218.733822
 31
0.0
  0
LINE
  5
598
330
591
100
AcDbEntity
  8
GR1-1
  6
CONTINUOUS
 62
     2
100
AcDbLine
 10
741.863661
 20
218.733822
 30
0.0
 11
742.643661
 21
218.733822
 31
0.0
  0
TEXT
  5
599
330
591
100
AcDbEntity
  8
GR1-1
  6
CONTINUOUS
 62
     4
100
AcDbText
 10
739.824531
 20
219.261465
 30
0.0
 40
1.5
  1
20
 41
0.7
  7
FX_VECTOR
 72
     5
 11
741.924531
 21
219.261465
 31
0.0
100
AcDbText
  0
LINE
  5
59A
330
591
100
AcDbEntity
  8
GR1-1
  6
CONTINUOUS
 62
     2
100
AcDbLine
 10
739.903661
 20
218.863822
 30
0.0
 11
739.903661
 21
218.603822
 31
0.0
  0
LINE
  5
59B
330
591
100
AcDbEntity
  8
GR1-1
  6
CONTINUOUS
 62
     2
100
AcDbLine
 10
739.903661
 20
218.603822
 30
0.0
 11
740.683661
 21
218.733822
 31
0.0
  0
LINE
  5
59C
330
591
100
AcDbEntity
  8
GR1-1
  6
CONTINUOUS
 62
     2
100
AcDbLine
 10
740.683661
 20
218.733822
 30
0.0
 11
739.903661
 21
218.863822
 31
0.0
  0
LINE
  5
59D
330
591
100
AcDbEntity
  8
GR1-1
  6
CONTINUOUS
 62
     2
100
AcDbLine
 10
741.863661
 20
218.863822
 30
0.0
 11
741.863661
 21
218.603822
 31
0.0
  0
LINE
  5
59E
330
591
100
AcDbEntity
  8
GR1-1
  6
CONTINUOUS
 62
     2
100
AcDbLine
 10
741.863661
 20
218.603822
 30
0.0
 11
741.083661
 21
218.733822
 31
0.0
  0
LINE
  5
59F
330
591
100
AcDbEntity
  8
GR1-1
  6
CONTINUOUS
 62
     2
100
AcDbLine
 10
741.083661
 20
218.733822
 30
0.0
 11
741.863661
 21
218.863822
 31
0.0
  0
ENDBLK
  5
593
330
591
100
AcDbEntity
  8
0
100
AcDbBlockEnd
  0
BLOCK
  5
5A1
330
5A0
100
AcDbEntity
  8
0
100
AcDbBlockBegin
  2
BLKF093
 70
     0
 71
     0
 10
0.0
 20
0.0
 30
0.0
  3
BLKF093
  1

  0
LINE
  5
5A4
330
5A0
100
AcDbEntity
  8
GR1-1
  6
CONTINUOUS
 62
     2
100
AcDbLine
 10
741.083661
 20
214.380961
 30
0.0
 11
741.083661
 21
216.367842
 31
0.0
  0
LINE
  5
5A5
330
5A0
100
AcDbEntity
  8
GR1-1
  6
CONTINUOUS
 62
     2
100
AcDbLine
 10
745.083661
 20
214.380961
 30
0.0
 11
745.083661
 21
216.367842
 31
0.0
  0
LINE
  5
5A6
330
5A0
100
AcDbEntity
  8
GR1-1
  6
CONTINUOUS
 62
     2
100
AcDbLine
 10
741.863661
 20
215.767842
 30
0.0
 11
744.303661
 21
215.767842
 31
0.0
  0
TEXT
  5
5A7
330
5A0
100
AcDbEntity
  8
GR1-1
  6
CONTINUOUS
 62
     4
100
AcDbText
 10
741.572578
 20
216.449395
 30
0.0
 40
1.5
  1
200
 41
0.7
  7
FX_VECTOR
 72
     5
 11
744.722578
 21
216.449395
 31
0.0
100
AcDbText
  0
LINE
  5
5A8
330
5A0
100
AcDbEntity
  8
GR1-1
  6
CONTINUOUS
 62
     2
100
AcDbLine
 10
741.863661
 20
215.897842
 30
0.0
 11
741.863661
 21
215.637842
 31
0.0
  0
LINE
  5
5A9
330
5A0
100
AcDbEntity
  8
GR1-1
  6
CONTINUOUS
 62
     2
100
AcDbLine
 10
741.863661
 20
215.637842
 30
0.0
 11
741.083661
 21
215.767842
 31
0.0
  0
LINE
  5
5AA
330
5A0
100
AcDbEntity
  8
GR1-1
  6
CONTINUOUS
 62
     2
100
AcDbLine
 10
741.083661
 20
215.767842
 30
0.0
 11
741.863661
 21
215.897842
 31
0.0
  0
LINE
  5
5AB
330
5A0
100
AcDbEntity
  8
GR1-1
  6
CONTINUOUS
 62
     2
100
AcDbLine
 10
744.303661
 20
215.897842
 30
0.0
 11
744.303661
 21
215.637842
 31
0.0
  0
LINE
  5
5AC
330
5A0
100
AcDbEntity
  8
GR1-1
  6
CONTINUOUS
 62
     2
100
AcDbLine
 10
744.303661
 20
215.637842
 30
0.0
 11
745.083661
 21
215.767842
 31
0.0
  0
LINE
  5
5AD
330
5A0
100
AcDbEntity
  8
GR1-1
  6
CONTINUOUS
 62
     2
100
AcDbLine
 10
745.083661
 20
215.767842
 30
0.0
 11
744.303661
 21
215.897842
 31
0.0
  0
ENDBLK
  5
5A2
330
5A0
100
AcDbEntity
  8
0
100
AcDbBlockEnd
  0
BLOCK
  5
5B1
330
5B0
100
AcDbEntity
  8
0
100
AcDbBlockBegin
  2
BLKF094
 70
     0
 71
     0
 10
0.0
 20
0.0
 30
0.0
  3
BLKF094
  1

  0
LINE
  5
5B4
330
5B0
100
AcDbEntity
  8
GR1-1
  6
CONTINUOUS
 62
     2
100
AcDbLine
 10
740.683661
 20
214.380961
 30
0.0
 11
740.683661
 21
216.367842
 31
0.0
  0
LINE
  5
5B5
330
5B0
100
AcDbEntity
  8
GR1-1
  6
CONTINUOUS
 62
     2
100
AcDbLine
 10
736.883661
 20
214.380961
 30
0.0
 11
736.883661
 21
216.367842
 31
0.0
  0
LINE
  5
5B6
330
5B0
100
AcDbEntity
  8
GR1-1
  6
CONTINUOUS
 62
     2
100
AcDbLine
 10
739.903661
 20
215.767842
 30
0.0
 11
737.663661
 21
215.767842
 31
0.0
  0
TEXT
  5
5B7
330
5B0
100
AcDbEntity
  8
GR1-1
  6
CONTINUOUS
 62
     4
100
AcDbText
 10
737.027891
 20
216.444316
 30
0.0
 40
1.5
  1
190
 41
0.7
  7
FX_VECTOR
 72
     5
 11
740.177891
 21
216.444316
 31
0.0
100
AcDbText
  0
LINE
  5
5B8
330
5B0
100
AcDbEntity
  8
GR1-1
  6
CONTINUOUS
 62
     2
100
AcDbLine
 10
739.903661
 20
215.897842
 30
0.0
 11
739.903661
 21
215.637842
 31
0.0
  0
LINE
  5
5B9
330
5B0
100
AcDbEntity
  8
GR1-1
  6
CONTINUOUS
 62
     2
100
AcDbLine
 10
739.903661
 20
215.637842
 30
0.0
 11
740.683661
 21
215.767842
 31
0.0
  0
LINE
  5
5BA
330
5B0
100
AcDbEntity
  8
GR1-1
  6
CONTINUOUS
 62
     2
100
AcDbLine
 10
740.683661
 20
215.767842
 30
0.0
 11
739.903661
 21
215.897842
 31
0.0
  0
LINE
  5
5BB
330
5B0
100
AcDbEntity
  8
GR1-1
  6
CONTINUOUS
 62
     2
100
AcDbLine
 10
737.663661
 20
215.897842
 30
0.0
 11
737.663661
 21
215.637842
 31
0.0
  0
LINE
  5
5BC
330
5B0
100
AcDbEntity
  8
GR1-1
  6
CONTINUOUS
 62
     2
100
AcDbLine
 10
737.663661
 20
215.637842
 30
0.0
 11
736.883661
 21
215.767842
 31
0.0
  0
LINE
  5
5BD
330
5B0
100
AcDbEntity
  8
GR1-1
  6
CONTINUOUS
 62
     2
100
AcDbLine
 10
736.883661
 20
215.767842
 30
0.0
 11
737.663661
 21
215.897842
 31
0.0
  0
ENDBLK
  5
5B2
330
5B0
100
AcDbEntity
  8
0
100
AcDbBlockEnd
  0
BLOCK
  5
5BF
330
5BE
100
AcDbEntity
  8
0
100
AcDbBlockBegin
  2
BLKF095
 70
     0
 71
     0
 10
0.0
 20
0.0
 30
0.0
  3
BLKF095
  1

  0
LINE
  5
5C2
330
5BE
100
AcDbEntity
  8
GR1-1
  6
CONTINUOUS
 62
     2
100
AcDbLine
 10
743.618266
 20
213.480961
 30
0.0
 11
745.261675
 21
213.480961
 31
0.0
  0
LINE
  5
5C3
330
5BE
100
AcDbEntity
  8
GR1-1
  6
CONTINUOUS
 62
     2
100
AcDbLine
 10
743.925459
 20
211.480961
 30
0.0
 11
745.261675
 21
211.480961
 31
0.0
  0
LINE
  5
5C4
330
5BE
100
AcDbEntity
  8
GR1-1
  6
CONTINUOUS
 62
     2
100
AcDbLine
 10
744.661675
 20
214.260961
 30
0.0
 11
744.661675
 21
215.040961
 31
0.0
  0
LINE
  5
5C5
330
5BE
100
AcDbEntity
  8
GR1-1
  6
CONTINUOUS
 62
     2
100
AcDbLine
 10
744.661675
 20
210.700961
 30
0.0
 11
744.661675
 21
209.920961
 31
0.0
  0
TEXT
  5
5C6
330
5BE
100
AcDbEntity
  8
GR1-1
  6
CONTINUOUS
 62
     4
100
AcDbText
 10
744.456953
 20
207.053535
 30
0.0
 40
1.5
  1
100
 50
90.0
 41
0.7
  7
FX_VECTOR
 72
     5
 11
744.456953
 21
210.203535
 31
0.0
100
AcDbText
  0
LINE
  5
5C7
330
5BE
100
AcDbEntity
  8
GR1-1
  6
CONTINUOUS
 62
     2
100
AcDbLine
 10
744.531675
 20
214.260961
 30
0.0
 11
744.791675
 21
214.260961
 31
0.0
  0
LINE
  5
5C8
330
5BE
100
AcDbEntity
  8
GR1-1
  6
CONTINUOUS
 62
     2
100
AcDbLine
 10
744.791675
 20
214.260961
 30
0.0
 11
744.661675
 21
213.480961
 31
0.0
  0
LINE
  5
5C9
330
5BE
100
AcDbEntity
  8
GR1-1
  6
CONTINUOUS
 62
     2
100
AcDbLine
 10
744.661675
 20
213.480961
 30
0.0
 11
744.531675
 21
214.260961
 31
0.0
  0
LINE
  5
5CA
330
5BE
100
AcDbEntity
  8
GR1-1
  6
CONTINUOUS
 62
     2
100
AcDbLine
 10
744.531675
 20
210.700961
 30
0.0
 11
744.791675
 21
210.700961
 31
0.0
  0
LINE
  5
5CB
330
5BE
100
AcDbEntity
  8
GR1-1
  6
CONTINUOUS
 62
     2
100
AcDbLine
 10
744.791675
 20
210.700961
 30
0.0
 11
744.661675
 21
211.480961
 31
0.0
  0
LINE
  5
5CC
330
5BE
100
AcDbEntity
  8
GR1-1
  6
CONTINUOUS
 62
     2
100
AcDbLine
 10
744.661675
 20
211.480961
 30
0.0
 11
744.531675
 21
210.700961
 31
0.0
  0
ENDBLK
  5
5C0
330
5BE
100
AcDbEntity
  8
0
100
AcDbBlockEnd
  0
BLOCK
  5
5D6
330
5D5
100
AcDbEntity
  8
0
100
AcDbBlockBegin
  2
BLKF096
 70
     0
 71
     0
 10
0.0
 20
0.0
 30
0.0
  3
BLKF096
  1

  0
LINE
  5
5D9
330
5D5
100
AcDbEntity
  8
GR1-1
  6
CONTINUOUS
 62
     2
100
AcDbLine
 10
745.083661
 20
214.380961
 30
0.0
 11
745.083661
 21
219.333822
 31
0.0
  0
LINE
  5
5DA
330
5D5
100
AcDbEntity
  8
GR1-1
  6
CONTINUOUS
 62
     2
100
AcDbLine
 10
745.483661
 20
214.380961
 30
0.0
 11
745.483661
 21
219.333822
 31
0.0
  0
LINE
  5
5DB
330
5D5
100
AcDbEntity
  8
GR1-1
  6
CONTINUOUS
 62
     2
100
AcDbLine
 10
744.303661
 20
218.733822
 30
0.0
 11
743.523661
 21
218.733822
 31
0.0
  0
LINE
  5
5DC
330
5D5
100
AcDbEntity
  8
GR1-1
  6
CONTINUOUS
 62
     2
100
AcDbLine
 10
746.263661
 20
218.733822
 30
0.0
 11
747.043661
 21
218.733822
 31
0.0
  0
TEXT
  5
5DD
330
5D5
100
AcDbEntity
  8
GR1-1
  6
CONTINUOUS
 62
     4
100
AcDbText
 10
744.20625
 20
219.261465
 30
0.0
 40
1.5
  1
20
 41
0.7
  7
FX_VECTOR
 72
     5
 11
746.30625
 21
219.261465
 31
0.0
100
AcDbText
  0
LINE
  5
5DE
330
5D5
100
AcDbEntity
  8
GR1-1
  6
CONTINUOUS
 62
     2
100
AcDbLine
 10
744.303661
 20
218.863822
 30
0.0
 11
744.303661
 21
218.603822
 31
0.0
  0
LINE
  5
5DF
330
5D5
100
AcDbEntity
  8
GR1-1
  6
CONTINUOUS
 62
     2
100
AcDbLine
 10
744.303661
 20
218.603822
 30
0.0
 11
745.083661
 21
218.733822
 31
0.0
  0
LINE
  5
5E0
330
5D5
100
AcDbEntity
  8
GR1-1
  6
CONTINUOUS
 62
     2
100
AcDbLine
 10
745.083661
 20
218.733822
 30
0.0
 11
744.303661
 21
218.863822
 31
0.0
  0
LINE
  5
5E1
330
5D5
100
AcDbEntity
  8
GR1-1
  6
CONTINUOUS
 62
     2
100
AcDbLine
 10
746.263661
 20
218.863822
 30
0.0
 11
746.263661
 21
218.603822
 31
0.0
  0
LINE
  5
5E2
330
5D5
100
AcDbEntity
  8
GR1-1
  6
CONTINUOUS
 62
     2
100
AcDbLine
 10
746.263661
 20
218.603822
 30
0.0
 11
745.483661
 21
218.733822
 31
0.0
  0
LINE
  5
5E3
330
5D5
100
AcDbEntity
  8
GR1-1
  6
CONTINUOUS
 62
     2
100
AcDbLine
 10
745.483661
 20
218.733822
 30
0.0
 11
746.263661
 21
218.863822
 31
0.0
  0
ENDBLK
  5
5D7
330
5D5
100
AcDbEntity
  8
0
100
AcDbBlockEnd
  0
BLOCK
  5
5E7
330
5E6
100
AcDbEntity
  8
0
100
AcDbBlockBegin
  2
BLKF097
 70
     0
 71
     0
 10
0.0
 20
0.0
 30
0.0
  3
BLKF097
  1

  0
LINE
  5
5EA
330
5E6
100
AcDbEntity
  8
GR1-1
  6
CONTINUOUS
 62
     2
100
AcDbLine
 10
745.483661
 20
214.380961
 30
0.0
 11
745.483661
 21
216.367842
 31
0.0
  0
LINE
  5
5EB
330
5E6
100
AcDbEntity
  8
GR1-1
  6
CONTINUOUS
 62
     2
100
AcDbLine
 10
749.283661
 20
214.380961
 30
0.0
 11
749.283661
 21
216.367842
 31
0.0
  0
LINE
  5
5EC
330
5E6
100
AcDbEntity
  8
GR1-1
  6
CONTINUOUS
 62
     2
100
AcDbLine
 10
746.263661
 20
215.767842
 30
0.0
 11
748.503661
 21
215.767842
 31
0.0
  0
TEXT
  5
5ED
330
5E6
100
AcDbEntity
  8
GR1-1
  6
CONTINUOUS
 62
     4
100
AcDbText
 10
745.621328
 20
216.369043
 30
0.0
 40
1.5
  1
190
 41
0.7
  7
FX_VECTOR
 72
     5
 11
748.771328
 21
216.369043
 31
0.0
100
AcDbText
  0
LINE
  5
5EE
330
5E6
100
AcDbEntity
  8
GR1-1
  6
CONTINUOUS
 62
     2
100
AcDbLine
 10
746.263661
 20
215.897842
 30
0.0
 11
746.263661
 21
215.637842
 31
0.0
  0
LINE
  5
5EF
330
5E6
100
AcDbEntity
  8
GR1-1
  6
CONTINUOUS
 62
     2
100
AcDbLine
 10
746.263661
 20
215.637842
 30
0.0
 11
745.483661
 21
215.767842
 31
0.0
  0
LINE
  5
5F0
330
5E6
100
AcDbEntity
  8
GR1-1
  6
CONTINUOUS
 62
     2
100
AcDbLine
 10
745.483661
 20
215.767842
 30
0.0
 11
746.263661
 21
215.897842
 31
0.0
  0
LINE
  5
5F1
330
5E6
100
AcDbEntity
  8
GR1-1
  6
CONTINUOUS
 62
     2
100
AcDbLine
 10
748.503661
 20
215.897842
 30
0.0
 11
748.503661
 21
215.637842
 31
0.0
  0
LINE
  5
5F2
330
5E6
100
AcDbEntity
  8
GR1-1
  6
CONTINUOUS
 62
     2
100
AcDbLine
 10
748.503661
 20
215.637842
 30
0.0
 11
749.283661
 21
215.767842
 31
0.0
  0
LINE
  5
5F3
330
5E6
100
AcDbEntity
  8
GR1-1
  6
CONTINUOUS
 62
     2
100
AcDbLine
 10
749.283661
 20
215.767842
 30
0.0
 11
748.503661
 21
215.897842
 31
0.0
  0
ENDBLK
  5
5E8
330
5E6
100
AcDbEntity
  8
0
100
AcDbBlockEnd
  0
BLOCK
  5
5F7
330
5F6
100
AcDbEntity
  8
0
100
AcDbBlockBegin
  2
BLKF098
 70
     0
 71
     0
 10
0.0
 20
0.0
 30
0.0
  3
BLKF098
  1

  0
LINE
  5
5FA
330
5F6
100
AcDbEntity
  8
GR1-1
  6
CONTINUOUS
 62
     2
100
AcDbLine
 10
737.013661
 20
134.367669
 30
0.0
 11
749.153661
 21
134.367669
 31
0.0
  0
LINE
  5
5FB
330
5F6
100
AcDbEntity
  8
GR1-1
  6
CONTINUOUS
 62
     2
100
AcDbLine
 10
749.153661
 20
134.367669
 30
0.0
 11
749.153661
 21
120.431349
 31
0.0
  0
LINE
  5
5FC
330
5F6
100
AcDbEntity
  8
GR1-1
  6
CONTINUOUS
 62
     2
100
AcDbLine
 10
749.153661
 20
120.431349
 30
0.0
 11
737.013661
 21
120.431349
 31
0.0
  0
LINE
  5
5FD
330
5F6
100
AcDbEntity
  8
GR1-1
  6
CONTINUOUS
 62
     2
100
AcDbLine
 10
737.013661
 20
120.431349
 30
0.0
 11
737.013661
 21
134.367669
 31
0.0
  0
ENDBLK
  5
5F8
330
5F6
100
AcDbEntity
  8
0
100
AcDbBlockEnd
  0
BLOCK
  5
62F
330
62E
100
AcDbEntity
  8
0
100
AcDbBlockBegin
  2
BLKF099
 70
     0
 71
     0
 10
0.0
 20
0.0
 30
0.0
  3
BLKF099
  1

  0
LINE
  5
632
330
62E
100
AcDbEntity
  8
GR1-1
  6
CONTINUOUS
 62
     2
100
AcDbLine
 10
794.590722
 20
87.909108
 30
0.0
 11
794.590722
 21
81.297193
 31
0.0
  0
LINE
  5
633
330
62E
100
AcDbEntity
  8
GR1-1
  6
CONTINUOUS
 62
     2
100
AcDbLine
 10
798.840722
 20
87.909108
 30
0.0
 11
798.840722
 21
81.297193
 31
0.0
  0
LINE
  5
634
330
62E
100
AcDbEntity
  8
GR1-1
  6
CONTINUOUS
 62
     2
100
AcDbLine
 10
795.370722
 20
81.897193
 30
0.0
 11
798.060722
 21
81.897193
 31
0.0
  0
TEXT
  5
635
330
62E
100
AcDbEntity
  8
GR1-1
  6
CONTINUOUS
 62
     4
100
AcDbText
 10
794.050078
 20
82.509199
 30
0.0
 40
1.5
  1
212.5
 41
0.7
  7
FX_VECTOR
 72
     5
 11
799.300078
 21
82.509199
 31
0.0
100
AcDbText
  0
LINE
  5
636
330
62E
100
AcDbEntity
  8
GR1-1
  6
CONTINUOUS
 62
     2
100
AcDbLine
 10
795.370722
 20
82.027193
 30
0.0
 11
795.370722
 21
81.767193
 31
0.0
  0
LINE
  5
637
330
62E
100
AcDbEntity
  8
GR1-1
  6
CONTINUOUS
 62
     2
100
AcDbLine
 10
795.370722
 20
81.767193
 30
0.0
 11
794.590722
 21
81.897193
 31
0.0
  0
LINE
  5
638
330
62E
100
AcDbEntity
  8
GR1-1
  6
CONTINUOUS
 62
     2
100
AcDbLine
 10
794.590722
 20
81.897193
 30
0.0
 11
795.370722
 21
82.027193
 31
0.0
  0
LINE
  5
639
330
62E
100
AcDbEntity
  8
GR1-1
  6
CONTINUOUS
 62
     2
100
AcDbLine
 10
798.060722
 20
82.027193
 30
0.0
 11
798.060722
 21
81.767193
 31
0.0
  0
LINE
  5
63A
330
62E
100
AcDbEntity
  8
GR1-1
  6
CONTINUOUS
 62
     2
100
AcDbLine
 10
798.060722
 20
81.767193
 30
0.0
 11
798.840722
 21
81.897193
 31
0.0
  0
LINE
  5
63B
330
62E
100
AcDbEntity
  8
GR1-1
  6
CONTINUOUS
 62
     2
100
AcDbLine
 10
798.840722
 20
81.897193
 30
0.0
 11
798.060722
 21
82.027193
 31
0.0
  0
ENDBLK
  5
630
330
62E
100
AcDbEntity
  8
0
100
AcDbBlockEnd
  0
BLOCK
  5
63E
330
63D
100
AcDbEntity
  8
0
100
AcDbBlockBegin
  2
BLKF100
 70
     0
 71
     0
 10
0.0
 20
0.0
 30
0.0
  3
BLKF100
  1

  0
LINE
  5
641
330
63D
100
AcDbEntity
  8
GR1-1
  6
CONTINUOUS
 62
     2
100
AcDbLine
 10
786.340722
 20
87.909108
 30
0.0
 11
786.340722
 21
78.08227
 31
0.0
  0
LINE
  5
642
330
63D
100
AcDbEntity
  8
GR1-1
  6
CONTINUOUS
 62
     2
100
AcDbLine
 10
798.840722
 20
87.909108
 30
0.0
 11
798.840722
 21
78.08227
 31
0.0
  0
LINE
  5
643
330
63D
100
AcDbEntity
  8
GR1-1
  6
CONTINUOUS
 62
     2
100
AcDbLine
 10
787.120722
 20
78.68227
 30
0.0
 11
798.060722
 21
78.68227
 31
0.0
  0
LINE
  5
644
330
63D
100
AcDbEntity
  8
GR1-1
  6
CONTINUOUS
 62
     2
100
AcDbLine
 10
787.120722
 20
78.81227
 30
0.0
 11
787.120722
 21
78.55227
 31
0.0
  0
LINE
  5
645
330
63D
100
AcDbEntity
  8
GR1-1
  6
CONTINUOUS
 62
     2
100
AcDbLine
 10
787.120722
 20
78.55227
 30
0.0
 11
786.340722
 21
78.68227
 31
0.0
  0
LINE
  5
646
330
63D
100
AcDbEntity
  8
GR1-1
  6
CONTINUOUS
 62
     2
100
AcDbLine
 10
786.340722
 20
78.68227
 30
0.0
 11
787.120722
 21
78.81227
 31
0.0
  0
LINE
  5
647
330
63D
100
AcDbEntity
  8
GR1-1
  6
CONTINUOUS
 62
     2
100
AcDbLine
 10
798.060722
 20
78.81227
 30
0.0
 11
798.060722
 21
78.55227
 31
0.0
  0
LINE
  5
648
330
63D
100
AcDbEntity
  8
GR1-1
  6
CONTINUOUS
 62
     2
100
AcDbLine
 10
798.060722
 20
78.55227
 30
0.0
 11
798.840722
 21
78.68227
 31
0.0
  0
LINE
  5
649
330
63D
100
AcDbEntity
  8
GR1-1
  6
CONTINUOUS
 62
     2
100
AcDbLine
 10
798.840722
 20
78.68227
 30
0.0
 11
798.060722
 21
78.81227
 31
0.0
  0
TEXT
  5
64A
330
63D
100
AcDbEntity
  8
GR1-1
  6
CONTINUOUS
 62
     4
100
AcDbText
 10
791.015781
 20
79.282266
 30
0.0
 40
1.5
  1
625
 41
0.7
  7
FX_VECTOR
 72
     5
 11
794.165781
 21
79.282266
 31
0.0
100
AcDbText
  0
ENDBLK
  5
63F
330
63D
100
AcDbEntity
  8
0
100
AcDbBlockEnd
  0
BLOCK
  5
65A
330
659
100
AcDbEntity
  8
0
100
AcDbBlockBegin
  2
BLKF101
 70
     0
 71
     0
 10
0.0
 20
0.0
 30
0.0
  3
BLKF101
  1

  0
LINE
  5
65D
330
659
100
AcDbEntity
  8
GR1-1
  6
CONTINUOUS
 62
     2
100
AcDbLine
 10
745.083661
 20
87.909108
 30
0.0
 11
745.083661
 21
81.297193
 31
0.0
  0
LINE
  5
65E
330
659
100
AcDbEntity
  8
GR1-1
  6
CONTINUOUS
 62
     2
100
AcDbLine
 10
749.333661
 20
87.909108
 30
0.0
 11
749.333661
 21
81.297193
 31
0.0
  0
LINE
  5
65F
330
659
100
AcDbEntity
  8
GR1-1
  6
CONTINUOUS
 62
     2
100
AcDbLine
 10
745.863661
 20
81.897193
 30
0.0
 11
748.553661
 21
81.897193
 31
0.0
  0
TEXT
  5
660
330
659
100
AcDbEntity
  8
GR1-1
  6
CONTINUOUS
 62
     4
100
AcDbText
 10
744.542969
 20
82.509199
 30
0.0
 40
1.5
  1
212.5
 41
0.7
  7
FX_VECTOR
 72
     5
 11
749.792969
 21
82.509199
 31
0.0
100
AcDbText
  0
LINE
  5
661
330
659
100
AcDbEntity
  8
GR1-1
  6
CONTINUOUS
 62
     2
100
AcDbLine
 10
745.863661
 20
82.027193
 30
0.0
 11
745.863661
 21
81.767193
 31
0.0
  0
LINE
  5
662
330
659
100
AcDbEntity
  8
GR1-1
  6
CONTINUOUS
 62
     2
100
AcDbLine
 10
745.863661
 20
81.767193
 30
0.0
 11
745.083661
 21
81.897193
 31
0.0
  0
LINE
  5
663
330
659
100
AcDbEntity
  8
GR1-1
  6
CONTINUOUS
 62
     2
100
AcDbLine
 10
745.083661
 20
81.897193
 30
0.0
 11
745.863661
 21
82.027193
 31
0.0
  0
LINE
  5
664
330
659
100
AcDbEntity
  8
GR1-1
  6
CONTINUOUS
 62
     2
100
AcDbLine
 10
748.553661
 20
82.027193
 30
0.0
 11
748.553661
 21
81.767193
 31
0.0
  0
LINE
  5
665
330
659
100
AcDbEntity
  8
GR1-1
  6
CONTINUOUS
 62
     2
100
AcDbLine
 10
748.553661
 20
81.767193
 30
0.0
 11
749.333661
 21
81.897193
 31
0.0
  0
LINE
  5
666
330
659
100
AcDbEntity
  8
GR1-1
  6
CONTINUOUS
 62
     2
100
AcDbLine
 10
749.333661
 20
81.897193
 30
0.0
 11
748.553661
 21
82.027193
 31
0.0
  0
ENDBLK
  5
65B
330
659
100
AcDbEntity
  8
0
100
AcDbBlockEnd
  0
BLOCK
  5
669
330
668
100
AcDbEntity
  8
0
100
AcDbBlockBegin
  2
BLKF102
 70
     0
 71
     0
 10
0.0
 20
0.0
 30
0.0
  3
BLKF102
  1

  0
LINE
  5
66C
330
668
100
AcDbEntity
  8
GR1-1
  6
CONTINUOUS
 62
     2
100
AcDbLine
 10
736.833661
 20
87.909108
 30
0.0
 11
736.833661
 21
78.08227
 31
0.0
  0
LINE
  5
66D
330
668
100
AcDbEntity
  8
GR1-1
  6
CONTINUOUS
 62
     2
100
AcDbLine
 10
749.333661
 20
87.909108
 30
0.0
 11
749.333661
 21
78.08227
 31
0.0
  0
LINE
  5
66E
330
668
100
AcDbEntity
  8
GR1-1
  6
CONTINUOUS
 62
     2
100
AcDbLine
 10
737.613661
 20
78.68227
 30
0.0
 11
748.553661
 21
78.68227
 31
0.0
  0
LINE
  5
66F
330
668
100
AcDbEntity
  8
GR1-1
  6
CONTINUOUS
 62
     2
100
AcDbLine
 10
737.613661
 20
78.81227
 30
0.0
 11
737.613661
 21
78.55227
 31
0.0
  0
LINE
  5
670
330
668
100
AcDbEntity
  8
GR1-1
  6
CONTINUOUS
 62
     2
100
AcDbLine
 10
737.613661
 20
78.55227
 30
0.0
 11
736.833661
 21
78.68227
 31
0.0
  0
LINE
  5
671
330
668
100
AcDbEntity
  8
GR1-1
  6
CONTINUOUS
 62
     2
100
AcDbLine
 10
736.833661
 20
78.68227
 30
0.0
 11
737.613661
 21
78.81227
 31
0.0
  0
LINE
  5
672
330
668
100
AcDbEntity
  8
GR1-1
  6
CONTINUOUS
 62
     2
100
AcDbLine
 10
748.553661
 20
78.81227
 30
0.0
 11
748.553661
 21
78.55227
 31
0.0
  0
LINE
  5
673
330
668
100
AcDbEntity
  8
GR1-1
  6
CONTINUOUS
 62
     2
100
AcDbLine
 10
748.553661
 20
78.55227
 30
0.0
 11
749.333661
 21
78.68227
 31
0.0
  0
LINE
  5
674
330
668
100
AcDbEntity
  8
GR1-1
  6
CONTINUOUS
 62
     2
100
AcDbLine
 10
749.333661
 20
78.68227
 30
0.0
 11
748.553661
 21
78.81227
 31
0.0
  0
TEXT
  5
675
330
668
100
AcDbEntity
  8
GR1-1
  6
CONTINUOUS
 62
     4
100
AcDbText
 10
741.508672
 20
79.282266
 30
0.0
 40
1.5
  1
625
 41
0.7
  7
FX_VECTOR
 72
     5
 11
744.658672
 21
79.282266
 31
0.0
100
AcDbText
  0
ENDBLK
  5
66A
330
668
100
AcDbEntity
  8
0
100
AcDbBlockEnd
  0
BLOCK
  5
677
330
676
100
AcDbEntity
  8
0
100
AcDbBlockBegin
  2
BLKF103
 70
     0
 71
     0
 10
0.0
 20
0.0
 30
0.0
  3
BLKF103
  1

  0
LINE
  5
67A
330
676
100
AcDbEntity
  8
GR1-1
  6
CONTINUOUS
 62
     2
100
AcDbLine
 10
745.083661
 20
87.909108
 30
0.0
 11
745.083661
 21
81.297193
 31
0.0
  0
LINE
  5
67B
330
676
100
AcDbEntity
  8
GR1-1
  6
CONTINUOUS
 62
     2
100
AcDbLine
 10
741.083661
 20
87.909108
 30
0.0
 11
741.083661
 21
81.297193
 31
0.0
  0
LINE
  5
67C
330
676
100
AcDbEntity
  8
GR1-1
  6
CONTINUOUS
 62
     2
100
AcDbLine
 10
744.303661
 20
81.897193
 30
0.0
 11
741.863661
 21
81.897193
 31
0.0
  0
TEXT
  5
67D
330
676
100
AcDbEntity
  8
GR1-1
  6
CONTINUOUS
 62
     4
100
AcDbText
 10
741.523125
 20
82.537285
 30
0.0
 40
1.5
  1
200
 41
0.7
  7
FX_VECTOR
 72
     5
 11
744.673125
 21
82.537285
 31
0.0
100
AcDbText
  0
LINE
  5
67E
330
676
100
AcDbEntity
  8
GR1-1
  6
CONTINUOUS
 62
     2
100
AcDbLine
 10
744.303661
 20
82.027193
 30
0.0
 11
744.303661
 21
81.767193
 31
0.0
  0
LINE
  5
67F
330
676
100
AcDbEntity
  8
GR1-1
  6
CONTINUOUS
 62
     2
100
AcDbLine
 10
744.303661
 20
81.767193
 30
0.0
 11
745.083661
 21
81.897193
 31
0.0
  0
LINE
  5
680
330
676
100
AcDbEntity
  8
GR1-1
  6
CONTINUOUS
 62
     2
100
AcDbLine
 10
745.083661
 20
81.897193
 30
0.0
 11
744.303661
 21
82.027193
 31
0.0
  0
LINE
  5
681
330
676
100
AcDbEntity
  8
GR1-1
  6
CONTINUOUS
 62
     2
100
AcDbLine
 10
741.863661
 20
82.027193
 30
0.0
 11
741.863661
 21
81.767193
 31
0.0
  0
LINE
  5
682
330
676
100
AcDbEntity
  8
GR1-1
  6
CONTINUOUS
 62
     2
100
AcDbLine
 10
741.863661
 20
81.767193
 30
0.0
 11
741.083661
 21
81.897193
 31
0.0
  0
LINE
  5
683
330
676
100
AcDbEntity
  8
GR1-1
  6
CONTINUOUS
 62
     2
100
AcDbLine
 10
741.083661
 20
81.897193
 30
0.0
 11
741.863661
 21
82.027193
 31
0.0
  0
ENDBLK
  5
678
330
676
100
AcDbEntity
  8
0
100
AcDbBlockEnd
  0
BLOCK
  5
685
330
684
100
AcDbEntity
  8
0
100
AcDbBlockBegin
  2
BLKF104
 70
     0
 71
     0
 10
0.0
 20
0.0
 30
0.0
  3
BLKF104
  1

  0
LINE
  5
688
330
684
100
AcDbEntity
  8
GR1-1
  6
CONTINUOUS
 62
     2
100
AcDbLine
 10
741.083661
 20
87.909108
 30
0.0
 11
741.083661
 21
81.297193
 31
0.0
  0
LINE
  5
689
330
684
100
AcDbEntity
  8
GR1-1
  6
CONTINUOUS
 62
     2
100
AcDbLine
 10
736.833661
 20
87.909108
 30
0.0
 11
736.833661
 21
81.297193
 31
0.0
  0
LINE
  5
68A
330
684
100
AcDbEntity
  8
GR1-1
  6
CONTINUOUS
 62
     2
100
AcDbLine
 10
740.303661
 20
81.897193
 30
0.0
 11
737.613661
 21
81.897193
 31
0.0
  0
TEXT
  5
68B
330
684
100
AcDbEntity
  8
GR1-1
  6
CONTINUOUS
 62
     4
100
AcDbText
 10
736.302188
 20
82.509199
 30
0.0
 40
1.5
  1
212.5
 41
0.7
  7
FX_VECTOR
 72
     5
 11
741.552188
 21
82.509199
 31
0.0
100
AcDbText
  0
LINE
  5
68C
330
684
100
AcDbEntity
  8
GR1-1
  6
CONTINUOUS
 62
     2
100
AcDbLine
 10
740.303661
 20
82.027193
 30
0.0
 11
740.303661
 21
81.767193
 31
0.0
  0
LINE
  5
68D
330
684
100
AcDbEntity
  8
GR1-1
  6
CONTINUOUS
 62
     2
100
AcDbLine
 10
740.303661
 20
81.767193
 30
0.0
 11
741.083661
 21
81.897193
 31
0.0
  0
LINE
  5
68E
330
684
100
AcDbEntity
  8
GR1-1
  6
CONTINUOUS
 62
     2
100
AcDbLine
 10
741.083661
 20
81.897193
 30
0.0
 11
740.303661
 21
82.027193
 31
0.0
  0
LINE
  5
68F
330
684
100
AcDbEntity
  8
GR1-1
  6
CONTINUOUS
 62
     2
100
AcDbLine
 10
737.613661
 20
82.027193
 30
0.0
 11
737.613661
 21
81.767193
 31
0.0
  0
LINE
  5
690
330
684
100
AcDbEntity
  8
GR1-1
  6
CONTINUOUS
 62
     2
100
AcDbLine
 10
737.613661
 20
81.767193
 30
0.0
 11
736.833661
 21
81.897193
 31
0.0
  0
LINE
  5
691
330
684
100
AcDbEntity
  8
GR1-1
  6
CONTINUOUS
 62
     2
100
AcDbLine
 10
736.833661
 20
81.897193
 30
0.0
 11
737.613661
 21
82.027193
 31
0.0
  0
ENDBLK
  5
686
330
684
100
AcDbEntity
  8
0
100
AcDbBlockEnd
  0
BLOCK
  5
697
330
696
100
AcDbEntity
  8
0
100
AcDbBlockBegin
  2
BLKF105
 70
     0
 71
     0
 10
0.0
 20
0.0
 30
0.0
  3
BLKF105
  1

  0
LINE
  5
69A
330
696
100
AcDbEntity
  8
GR1-1
  6
CONTINUOUS
 62
     2
100
AcDbLine
 10
794.590722
 20
87.909108
 30
0.0
 11
794.590722
 21
81.297193
 31
0.0
  0
LINE
  5
69B
330
696
100
AcDbEntity
  8
GR1-1
  6
CONTINUOUS
 62
     2
100
AcDbLine
 10
790.590722
 20
87.909108
 30
0.0
 11
790.590722
 21
81.297193
 31
0.0
  0
LINE
  5
69C
330
696
100
AcDbEntity
  8
GR1-1
  6
CONTINUOUS
 62
     2
100
AcDbLine
 10
793.810722
 20
81.897193
 30
0.0
 11
791.370722
 21
81.897193
 31
0.0
  0
TEXT
  5
69D
330
696
100
AcDbEntity
  8
GR1-1
  6
CONTINUOUS
 62
     4
100
AcDbText
 10
791.030156
 20
82.537285
 30
0.0
 40
1.5
  1
200
 41
0.7
  7
FX_VECTOR
 72
     5
 11
794.180156
 21
82.537285
 31
0.0
100
AcDbText
  0
LINE
  5
69E
330
696
100
AcDbEntity
  8
GR1-1
  6
CONTINUOUS
 62
     2
100
AcDbLine
 10
793.810722
 20
82.027193
 30
0.0
 11
793.810722
 21
81.767193
 31
0.0
  0
LINE
  5
69F
330
696
100
AcDbEntity
  8
GR1-1
  6
CONTINUOUS
 62
     2
100
AcDbLine
 10
793.810722
 20
81.767193
 30
0.0
 11
794.590722
 21
81.897193
 31
0.0
  0
LINE
  5
6A0
330
696
100
AcDbEntity
  8
GR1-1
  6
CONTINUOUS
 62
     2
100
AcDbLine
 10
794.590722
 20
81.897193
 30
0.0
 11
793.810722
 21
82.027193
 31
0.0
  0
LINE
  5
6A1
330
696
100
AcDbEntity
  8
GR1-1
  6
CONTINUOUS
 62
     2
100
AcDbLine
 10
791.370722
 20
82.027193
 30
0.0
 11
791.370722
 21
81.767193
 31
0.0
  0
LINE
  5
6A2
330
696
100
AcDbEntity
  8
GR1-1
  6
CONTINUOUS
 62
     2
100
AcDbLine
 10
791.370722
 20
81.767193
 30
0.0
 11
790.590722
 21
81.897193
 31
0.0
  0
LINE
  5
6A3
330
696
100
AcDbEntity
  8
GR1-1
  6
CONTINUOUS
 62
     2
100
AcDbLine
 10
790.590722
 20
81.897193
 30
0.0
 11
791.370722
 21
82.027193
 31
0.0
  0
ENDBLK
  5
698
330
696
100
AcDbEntity
  8
0
100
AcDbBlockEnd
  0
BLOCK
  5
6A5
330
6A4
100
AcDbEntity
  8
0
100
AcDbBlockBegin
  2
BLKF106
 70
     0
 71
     0
 10
0.0
 20
0.0
 30
0.0
  3
BLKF106
  1

  0
LINE
  5
6A8
330
6A4
100
AcDbEntity
  8
GR1-1
  6
CONTINUOUS
 62
     2
100
AcDbLine
 10
790.590722
 20
87.909108
 30
0.0
 11
790.590722
 21
81.297193
 31
0.0
  0
LINE
  5
6A9
330
6A4
100
AcDbEntity
  8
GR1-1
  6
CONTINUOUS
 62
     2
100
AcDbLine
 10
786.340722
 20
87.909108
 30
0.0
 11
786.340722
 21
81.297193
 31
0.0
  0
LINE
  5
6AA
330
6A4
100
AcDbEntity
  8
GR1-1
  6
CONTINUOUS
 62
     2
100
AcDbLine
 10
789.810722
 20
81.897193
 30
0.0
 11
787.120722
 21
81.897193
 31
0.0
  0
TEXT
  5
6AB
330
6A4
100
AcDbEntity
  8
GR1-1
  6
CONTINUOUS
 62
     4
100
AcDbText
 10
785.809219
 20
82.509199
 30
0.0
 40
1.5
  1
212.5
 41
0.7
  7
FX_VECTOR
 72
     5
 11
791.059219
 21
82.509199
 31
0.0
100
AcDbText
  0
LINE
  5
6AC
330
6A4
100
AcDbEntity
  8
GR1-1
  6
CONTINUOUS
 62
     2
100
AcDbLine
 10
789.810722
 20
82.027193
 30
0.0
 11
789.810722
 21
81.767193
 31
0.0
  0
LINE
  5
6AD
330
6A4
100
AcDbEntity
  8
GR1-1
  6
CONTINUOUS
 62
     2
100
AcDbLine
 10
789.810722
 20
81.767193
 30
0.0
 11
790.590722
 21
81.897193
 31
0.0
  0
LINE
  5
6AE
330
6A4
100
AcDbEntity
  8
GR1-1
  6
CONTINUOUS
 62
     2
100
AcDbLine
 10
790.590722
 20
81.897193
 30
0.0
 11
789.810722
 21
82.027193
 31
0.0
  0
LINE
  5
6AF
330
6A4
100
AcDbEntity
  8
GR1-1
  6
CONTINUOUS
 62
     2
100
AcDbLine
 10
787.120722
 20
82.027193
 30
0.0
 11
787.120722
 21
81.767193
 31
0.0
  0
LINE
  5
6B0
330
6A4
100
AcDbEntity
  8
GR1-1
  6
CONTINUOUS
 62
     2
100
AcDbLine
 10
787.120722
 20
81.767193
 30
0.0
 11
786.340722
 21
81.897193
 31
0.0
  0
LINE
  5
6B1
330
6A4
100
AcDbEntity
  8
GR1-1
  6
CONTINUOUS
 62
     2
100
AcDbLine
 10
786.340722
 20
81.897193
 30
0.0
 11
787.120722
 21
82.027193
 31
0.0
  0
ENDBLK
  5
6A6
330
6A4
100
AcDbEntity
  8
0
100
AcDbBlockEnd
  0
BLOCK
  5
6B3
330
6B2
100
AcDbEntity
  8
0
100
AcDbBlockBegin
  2
BLKF107
 70
     0
 71
     0
 10
0.0
 20
0.0
 30
0.0
  3
BLKF107
  1

  0
LINE
  5
6B6
330
6B2
100
AcDbEntity
  8
GR1-1
  6
CONTINUOUS
 62
     2
100
AcDbLine
 10
792.590722
 20
87.909108
 30
0.0
 11
792.590722
 21
84.962689
 31
0.0
  0
LINE
  5
6B7
330
6B2
100
AcDbEntity
  8
GR1-1
  6
CONTINUOUS
 62
     2
100
AcDbLine
 10
790.590722
 20
87.909108
 30
0.0
 11
790.590722
 21
84.962689
 31
0.0
  0
LINE
  5
6B8
330
6B2
100
AcDbEntity
  8
GR1-1
  6
CONTINUOUS
 62
     2
100
AcDbLine
 10
793.370722
 20
85.562689
 30
0.0
 11
794.150722
 21
85.562689
 31
0.0
  0
LINE
  5
6B9
330
6B2
100
AcDbEntity
  8
GR1-1
  6
CONTINUOUS
 62
     2
100
AcDbLine
 10
789.810722
 20
85.562689
 30
0.0
 11
789.030722
 21
85.562689
 31
0.0
  0
TEXT
  5
6BA
330
6B2
100
AcDbEntity
  8
GR1-1
  6
CONTINUOUS
 62
     4
100
AcDbText
 10
787.134531
 20
85.94043
 30
0.0
 40
1.5
  1
100
 41
0.7
  7
FX_VECTOR
 72
     5
 11
790.284531
 21
85.94043
 31
0.0
100
AcDbText
  0
LINE
  5
6BB
330
6B2
100
AcDbEntity
  8
GR1-1
  6
CONTINUOUS
 62
     2
100
AcDbLine
 10
793.370722
 20
85.692689
 30
0.0
 11
793.370722
 21
85.432689
 31
0.0
  0
LINE
  5
6BC
330
6B2
100
AcDbEntity
  8
GR1-1
  6
CONTINUOUS
 62
     2
100
AcDbLine
 10
793.370722
 20
85.432689
 30
0.0
 11
792.590722
 21
85.562689
 31
0.0
  0
LINE
  5
6BD
330
6B2
100
AcDbEntity
  8
GR1-1
  6
CONTINUOUS
 62
     2
100
AcDbLine
 10
792.590722
 20
85.562689
 30
0.0
 11
793.370722
 21
85.692689
 31
0.0
  0
LINE
  5
6BE
330
6B2
100
AcDbEntity
  8
GR1-1
  6
CONTINUOUS
 62
     2
100
AcDbLine
 10
789.810722
 20
85.692689
 30
0.0
 11
789.810722
 21
85.432689
 31
0.0
  0
LINE
  5
6BF
330
6B2
100
AcDbEntity
  8
GR1-1
  6
CONTINUOUS
 62
     2
100
AcDbLine
 10
789.810722
 20
85.432689
 30
0.0
 11
790.590722
 21
85.562689
 31
0.0
  0
LINE
  5
6C0
330
6B2
100
AcDbEntity
  8
GR1-1
  6
CONTINUOUS
 62
     2
100
AcDbLine
 10
790.590722
 20
85.562689
 30
0.0
 11
789.810722
 21
85.692689
 31
0.0
  0
ENDBLK
  5
6B4
330
6B2
100
AcDbEntity
  8
0
100
AcDbBlockEnd
  0
BLOCK
  5
6C5
330
6C4
100
AcDbEntity
  8
0
100
AcDbBlockBegin
  2
BLKF108
 70
     0
 71
     0
 10
0.0
 20
0.0
 30
0.0
  3
BLKF108
  1

  0
LINE
  5
6C8
330
6C4
100
AcDbEntity
  8
GR1-1
  6
CONTINUOUS
 62
     2
100
AcDbLine
 10
749.333661
 20
93.689108
 30
0.0
 11
749.333661
 21
96.956098
 31
0.0
  0
LINE
  5
6C9
330
6C4
100
AcDbEntity
  8
GR1-1
  6
CONTINUOUS
 62
     2
100
AcDbLine
 10
748.333661
 20
93.689108
 30
0.0
 11
748.333661
 21
96.956098
 31
0.0
  0
LINE
  5
6CA
330
6C4
100
AcDbEntity
  8
GR1-1
  6
CONTINUOUS
 62
     2
100
AcDbLine
 10
750.113661
 20
96.356098
 30
0.0
 11
750.893661
 21
96.356098
 31
0.0
  0
LINE
  5
6CB
330
6C4
100
AcDbEntity
  8
GR1-1
  6
CONTINUOUS
 62
     2
100
AcDbLine
 10
747.553661
 20
96.356098
 30
0.0
 11
746.773661
 21
96.356098
 31
0.0
  0
TEXT
  5
6CC
330
6C4
100
AcDbEntity
  8
GR1-1
  6
CONTINUOUS
 62
     4
100
AcDbText
 10
745.992734
 20
96.821172
 30
0.0
 40
1.5
  1
50
 41
0.7
  7
FX_VECTOR
 72
     5
 11
748.092734
 21
96.821172
 31
0.0
100
AcDbText
  0
LINE
  5
6CD
330
6C4
100
AcDbEntity
  8
GR1-1
  6
CONTINUOUS
 62
     2
100
AcDbLine
 10
750.113661
 20
96.486098
 30
0.0
 11
750.113661
 21
96.226098
 31
0.0
  0
LINE
  5
6CE
330
6C4
100
AcDbEntity
  8
GR1-1
  6
CONTINUOUS
 62
     2
100
AcDbLine
 10
750.113661
 20
96.226098
 30
0.0
 11
749.333661
 21
96.356098
 31
0.0
  0
LINE
  5
6CF
330
6C4
100
AcDbEntity
  8
GR1-1
  6
CONTINUOUS
 62
     2
100
AcDbLine
 10
749.333661
 20
96.356098
 30
0.0
 11
750.113661
 21
96.486098
 31
0.0
  0
LINE
  5
6D0
330
6C4
100
AcDbEntity
  8
GR1-1
  6
CONTINUOUS
 62
     2
100
AcDbLine
 10
747.553661
 20
96.486098
 30
0.0
 11
747.553661
 21
96.226098
 31
0.0
  0
LINE
  5
6D1
330
6C4
100
AcDbEntity
  8
GR1-1
  6
CONTINUOUS
 62
     2
100
AcDbLine
 10
747.553661
 20
96.226098
 30
0.0
 11
748.333661
 21
96.356098
 31
0.0
  0
LINE
  5
6D2
330
6C4
100
AcDbEntity
  8
GR1-1
  6
CONTINUOUS
 62
     2
100
AcDbLine
 10
748.333661
 20
96.356098
 30
0.0
 11
747.553661
 21
96.486098
 31
0.0
  0
ENDBLK
  5
6C6
330
6C4
100
AcDbEntity
  8
0
100
AcDbBlockEnd
  0
BLOCK
  5
6E2
330
6E1
100
AcDbEntity
  8
0
100
AcDbBlockBegin
  2
BLKF109
 70
     0
 71
     0
 10
0.0
 20
0.0
 30
0.0
  3
BLKF109
  1

  0
LINE
  5
6E5
330
6E1
100
AcDbEntity
  8
GR1-1
  6
CONTINUOUS
 62
     2
100
AcDbLine
 10
798.840722
 20
94.189108
 30
0.0
 11
798.840722
 21
97.456098
 31
0.0
  0
LINE
  5
6E6
330
6E1
100
AcDbEntity
  8
GR1-1
  6
CONTINUOUS
 62
     2
100
AcDbLine
 10
797.840722
 20
94.189108
 30
0.0
 11
797.840722
 21
97.456098
 31
0.0
  0
LINE
  5
6E7
330
6E1
100
AcDbEntity
  8
GR1-1
  6
CONTINUOUS
 62
     2
100
AcDbLine
 10
799.620722
 20
96.856098
 30
0.0
 11
800.400722
 21
96.856098
 31
0.0
  0
LINE
  5
6E8
330
6E1
100
AcDbEntity
  8
GR1-1
  6
CONTINUOUS
 62
     2
100
AcDbLine
 10
797.060722
 20
96.856098
 30
0.0
 11
796.280722
 21
96.856098
 31
0.0
  0
TEXT
  5
6E9
330
6E1
100
AcDbEntity
  8
GR1-1
  6
CONTINUOUS
 62
     4
100
AcDbText
 10
795.499766
 20
97.321172
 30
0.0
 40
1.5
  1
50
 41
0.7
  7
FX_VECTOR
 72
     5
 11
797.599766
 21
97.321172
 31
0.0
100
AcDbText
  0
LINE
  5
6EA
330
6E1
100
AcDbEntity
  8
GR1-1
  6
CONTINUOUS
 62
     2
100
AcDbLine
 10
799.620722
 20
96.986098
 30
0.0
 11
799.620722
 21
96.726098
 31
0.0
  0
LINE
  5
6EB
330
6E1
100
AcDbEntity
  8
GR1-1
  6
CONTINUOUS
 62
     2
100
AcDbLine
 10
799.620722
 20
96.726098
 30
0.0
 11
798.840722
 21
96.856098
 31
0.0
  0
LINE
  5
6EC
330
6E1
100
AcDbEntity
  8
GR1-1
  6
CONTINUOUS
 62
     2
100
AcDbLine
 10
798.840722
 20
96.856098
 30
0.0
 11
799.620722
 21
96.986098
 31
0.0
  0
LINE
  5
6ED
330
6E1
100
AcDbEntity
  8
GR1-1
  6
CONTINUOUS
 62
     2
100
AcDbLine
 10
797.060722
 20
96.986098
 30
0.0
 11
797.060722
 21
96.726098
 31
0.0
  0
LINE
  5
6EE
330
6E1
100
AcDbEntity
  8
GR1-1
  6
CONTINUOUS
 62
     2
100
AcDbLine
 10
797.060722
 20
96.726098
 30
0.0
 11
797.840722
 21
96.856098
 31
0.0
  0
LINE
  5
6EF
330
6E1
100
AcDbEntity
  8
GR1-1
  6
CONTINUOUS
 62
     2
100
AcDbLine
 10
797.840722
 20
96.856098
 30
0.0
 11
797.060722
 21
96.986098
 31
0.0
  0
ENDBLK
  5
6E3
330
6E1
100
AcDbEntity
  8
0
100
AcDbBlockEnd
  0
BLOCK
  5
6F3
330
6F2
100
AcDbEntity
  8
0
100
AcDbBlockBegin
  2
BLKF110
 70
     0
 71
     0
 10
0.0
 20
0.0
 30
0.0
  3
BLKF110
  1

  0
LINE
  5
6F6
330
6F2
100
AcDbEntity
  8
GR1-1
  6
CONTINUOUS
 62
     2
100
AcDbLine
 10
750.233661
 20
120.229243
 30
0.0
 11
756.063388
 21
120.229243
 31
0.0
  0
LINE
  5
6F7
330
6F2
100
AcDbEntity
  8
GR1-1
  6
CONTINUOUS
 62
     2
100
AcDbLine
 10
750.233661
 20
134.540078
 30
0.0
 11
756.063388
 21
134.540078
 31
0.0
  0
LINE
  5
6F8
330
6F2
100
AcDbEntity
  8
GR1-1
  6
CONTINUOUS
 62
     2
100
AcDbLine
 10
755.463388
 20
121.009243
 30
0.0
 11
755.463388
 21
133.760078
 31
0.0
  0
LINE
  5
6F9
330
6F2
100
AcDbEntity
  8
GR1-1
  6
CONTINUOUS
 62
     2
100
AcDbLine
 10
755.333388
 20
121.009243
 30
0.0
 11
755.593388
 21
121.009243
 31
0.0
  0
LINE
  5
6FA
330
6F2
100
AcDbEntity
  8
GR1-1
  6
CONTINUOUS
 62
     2
100
AcDbLine
 10
755.593388
 20
121.009243
 30
0.0
 11
755.463388
 21
120.229243
 31
0.0
  0
LINE
  5
6FB
330
6F2
100
AcDbEntity
  8
GR1-1
  6
CONTINUOUS
 62
     2
100
AcDbLine
 10
755.463388
 20
120.229243
 30
0.0
 11
755.333388
 21
121.009243
 31
0.0
  0
LINE
  5
6FC
330
6F2
100
AcDbEntity
  8
GR1-1
  6
CONTINUOUS
 62
     2
100
AcDbLine
 10
755.333388
 20
133.760078
 30
0.0
 11
755.593388
 21
133.760078
 31
0.0
  0
LINE
  5
6FD
330
6F2
100
AcDbEntity
  8
GR1-1
  6
CONTINUOUS
 62
     2
100
AcDbLine
 10
755.593388
 20
133.760078
 30
0.0
 11
755.463388
 21
134.540078
 31
0.0
  0
LINE
  5
6FE
330
6F2
100
AcDbEntity
  8
GR1-1
  6
CONTINUOUS
 62
     2
100
AcDbLine
 10
755.463388
 20
134.540078
 30
0.0
 11
755.333388
 21
133.760078
 31
0.0
  0
TEXT
  5
6FF
330
6F2
100
AcDbEntity
  8
GR1-1
  6
CONTINUOUS
 62
     4
100
AcDbText
 10
754.863438
 20
124.759668
 30
0.0
 40
1.5
  1
715.5
 50
90.0
 41
0.7
  7
FX_VECTOR
 72
     5
 11
754.863438
 21
130.009668
 31
0.0
100
AcDbText
  0
ENDBLK
  5
6F4
330
6F2
100
AcDbEntity
  8
0
100
AcDbBlockEnd
  0
BLOCK
  5
70F
330
70E
100
AcDbEntity
  8
0
100
AcDbBlockBegin
  2
BLKF111
 70
     0
 71
     0
 10
0.0
 20
0.0
 30
0.0
  3
BLKF111
  1

  0
LINE
  5
712
330
70E
100
AcDbEntity
  8
GR1-1
  6
CONTINUOUS
 62
     2
100
AcDbLine
 10
830.504473
 20
120.229243
 30
0.0
 11
831.626704
 21
115.044394
 31
0.0
  0
INSERT
  5
713
330
70E
100
AcDbEntity
  8
GR1-1
  6
CONTINUOUS
 62
     2
100
AcDbBlockReference
  2
FXTIP_ARROW_S
 10
830.504473
 20
120.229243
 30
0.0
 41
2.0
 42
2.0
 50
102.212955
  0
LINE
  5
714
330
70E
100
AcDbEntity
  8
GR1-1
  6
CONTINUOUS
 62
     2
100
AcDbLine
 10
831.626704
 20
115.044394
 30
0.0
 11
834.176704
 21
115.044394
 31
0.0
  0
TEXT
  5
715
330
70E
100
AcDbEntity
  8
GR1-1
  6
CONTINUOUS
 62
     4
100
AcDbText
 10
833.006719
 20
115.644395
 30
0.0
 40
1.5
  1
9C
 41
0.7
  7
FX_VECTOR
 72
     5
 11
835.106719
 21
115.644395
 31
0.0
100
AcDbText
  0
ENDBLK
  5
710
330
70E
100
AcDbEntity
  8
0
100
AcDbBlockEnd
  0
BLOCK
  5
71B
330
71A
100
AcDbEntity
  8
0
100
AcDbBlockBegin
  2
BLKF112
 70
     0
 71
     0
 10
0.0
 20
0.0
 30
0.0
  3
BLKF112
  1

  0
LINE
  5
71E
330
71A
100
AcDbEntity
  8
GR1-1
  6
CONTINUOUS
 62
     2
100
AcDbLine
 10
808.918739
 20
130.19872
 30
0.0
 11
807.424668
 21
127.137821
 31
0.0
  0
INSERT
  5
71F
330
71A
100
AcDbEntity
  8
GR1-1
  6
CONTINUOUS
 62
     2
100
AcDbBlockReference
  2
FXTIP_ARROW_S
 10
808.918739
 20
130.19872
 30
0.0
 41
2.0
 42
2.0
 50
63.982318
  0
LINE
  5
720
330
71A
100
AcDbEntity
  8
GR1-1
  6
CONTINUOUS
 62
     2
100
AcDbLine
 10
807.424668
 20
127.137821
 30
0.0
 11
803.874668
 21
127.137821
 31
0.0
  0
TEXT
  5
721
330
71A
100
AcDbEntity
  8
GR1-1
  6
CONTINUOUS
 62
     4
100
AcDbText
 10
802.894688
 20
127.737813
 30
0.0
 40
1.5
  1
R30
 41
0.7
  7
FX_VECTOR
 72
     5
 11
806.044688
 21
127.737813
 31
0.0
100
AcDbText
  0
ENDBLK
  5
71C
330
71A
100
AcDbEntity
  8
0
100
AcDbBlockEnd
  0
BLOCK
  5
741
330
740
100
AcDbEntity
  8
0
100
AcDbBlockBegin
  2
BLKF113
 70
     0
 71
     0
 10
0.0
 20
0.0
 30
0.0
  3
BLKF113
  1

  0
LINE
  5
744
330
740
100
AcDbEntity
  8
GR1-1
  6
CONTINUOUS
 62
     2
100
AcDbLine
 10
837.65989
 20
134.540078
 30
0.0
 11
839.54558
 21
137.275609
 31
0.0
  0
INSERT
  5
745
330
740
100
AcDbEntity
  8
GR1-1
  6
CONTINUOUS
 62
     2
100
AcDbBlockReference
  2
FXTIP_ARROW_S
 10
837.65989
 20
134.540078
 30
0.0
 41
2.0
 42
2.0
 50
235.420243
  0
LINE
  5
746
330
740
100
AcDbEntity
  8
GR1-1
  6
CONTINUOUS
 62
     2
100
AcDbLine
 10
839.54558
 20
137.275609
 30
0.0
 11
842.09558
 21
137.275609
 31
0.0
  0
TEXT
  5
747
330
740
100
AcDbEntity
  8
GR1-1
  6
CONTINUOUS
 62
     4
100
AcDbText
 10
840.925625
 20
137.875605
 30
0.0
 40
1.5
  1
9C
 41
0.7
  7
FX_VECTOR
 72
     5
 11
843.025625
 21
137.875605
 31
0.0
100
AcDbText
  0
ENDBLK
  5
742
330
740
100
AcDbEntity
  8
0
100
AcDbBlockEnd
  0
BLOCK
  5
752
330
751
100
AcDbEntity
  8
0
100
AcDbBlockBegin
  2
BLKF114
 70
     0
 71
     0
 10
0.0
 20
0.0
 30
0.0
  3
BLKF114
  1

  0
LINE
  5
755
330
751
100
AcDbEntity
  8
GR1-1
  6
CONTINUOUS
 62
     2
100
AcDbLine
 10
743.083661
 20
167.487134
 30
0.0
 11
746.553085
 21
174.194456
 31
0.0
  0
INSERT
  5
756
330
751
100
AcDbEntity
  8
GR1-1
  6
CONTINUOUS
 62
     2
100
AcDbBlockReference
  2
FXTIP_BLACKTRIANGLE_S
 10
743.083661
 20
167.487134
 30
0.0
 41
2.0
 42
2.0
 50
242.649321
  0
LINE
  5
757
330
751
100
AcDbEntity
  8
GR1-1
  6
CONTINUOUS
 62
     2
100
AcDbLine
 10
746.553085
 20
174.194456
 30
0.0
 11
747.333085
 21
174.194456
 31
0.0
  0
TEXT
  5
758
330
751
100
AcDbEntity
  8
GR1-1
  6
CONTINUOUS
 62
     4
100
AcDbText
 10
746.607188
 20
174.874395
 30
0.0
 40
1.5
  1
吊上げ用特殊インサート
 41
0.7
  7
FX_VECTOR
 72
     5
 11
758.157187
 21
174.874395
 31
0.0
100
AcDbText
  0
ENDBLK
  5
753
330
751
100
AcDbEntity
  8
0
100
AcDbBlockEnd
  0
ENDSEC
  0
SECTION
  2
ENTITIES
  0
LINE
  5
A7
330
1F
100
AcDbEntity
  8
GR1-1
  6
極太の実線
 62
     3
100
AcDbLine
 10
915.845963
 20
234.360363
 30
0.0
 11
638.845974
 21
234.360363
 31
0.0
  0
LINE
  5
A8
330
1F
100
AcDbEntity
  8
GR1-1
  6
極太の実線
 62
     3
100
AcDbLine
 10
638.845974
 20
234.360363
 30
0.0
 11
638.845958
 21
44.360363
 31
0.0
  0
LINE
  5
A9
330
1F
100
AcDbEntity
  8
GR1-1
  6
極太の実線
 62
     3
100
AcDbLine
 10
638.845958
 20
44.360363
 30
0.0
 11
915.845958
 21
44.360363
 31
0.0
  0
LINE
  5
AA
330
1F
100
AcDbEntity
  8
GR1-1
  6
極太の実線
 62
     3
100
AcDbLine
 10
915.845958
 20
44.360363
 30
0.0
 11
915.845963
 21
234.360363
 31
0.0
  0
LINE
  5
AB
330
1F
100
AcDbEntity
  8
GR1-1
  6
極太の実線
 62
     3
100
AcDbLine
 10
914.845963
 20
233.360363
 30
0.0
 11
639.845974
 21
233.360363
 31
0.0
  0
LINE
  5
AC
330
1F
100
AcDbEntity
  8
GR1-1
  6
極太の実線
 62
     3
100
AcDbLine
 10
639.845974
 20
233.360363
 30
0.0
 11
639.845958
 21
45.360363
 31
0.0
  0
LINE
  5
AD
330
1F
100
AcDbEntity
  8
GR1-1
  6
極太の実線
 62
     3
100
AcDbLine
 10
639.845958
 20
45.360363
 30
0.0
 11
914.845958
 21
45.360363
 31
0.0
  0
LINE
  5
AE
330
1F
100
AcDbEntity
  8
GR1-1
  6
極太の実線
 62
     3
100
AcDbLine
 10
914.845958
 20
45.360363
 30
0.0
 11
914.845963
 21
233.360363
 31
0.0
  0
LINE
  5
B0
330
1F
100
AcDbEntity
  8
GR1-1
  6
太い実線
 62
     4
100
AcDbLine
 10
836.793212
 20
66.861168
 30
0.0
 11
911.793237
 21
66.861168
 31
0.0
  0
LINE
  5
B1
330
1F
100
AcDbEntity
  8
GR1-1
  6
太い実線
 62
     4
100
AcDbLine
 10
911.793237
 20
60.861168
 30
0.0
 11
836.793212
 21
60.861168
 31
0.0
  0
LINE
  5
B2
330
1F
100
AcDbEntity
  8
GR1-1
  6
太い実線
 62
     4
100
AcDbLine
 10
836.793212
 20
54.861172
 30
0.0
 11
911.793237
 21
54.861172
 31
0.0
  0
LINE
  5
B3
330
1F
100
AcDbEntity
  8
GR1-1
  6
太い実線
 62
     4
100
AcDbLine
 10
836.793212
 20
48.86117
 30
0.0
 11
836.793212
 21
66.861168
 31
0.0
  0
LINE
  5
B4
330
1F
100
AcDbEntity
  8
GR1-1
  6
太い実線
 62
     4
100
AcDbLine
 10
851.793212
 20
66.861168
 30
0.0
 11
851.793212
 21
54.861172
 31
0.0
  0
LINE
  5
B5
330
1F
100
AcDbEntity
  8
GR1-1
  6
太い実線
 62
     4
100
AcDbLine
 10
874.293224
 20
54.861172
 30
0.0
 11
874.293224
 21
60.861168
 31
0.0
  0
TEXT
  5
B7
330
1F
100
AcDbEntity
  8
GR1-1
  6
細い実線
 62
     7
100
AcDbText
 10
841.743281
 20
61.932607
 30
0.0
 40
3.5
  1
図名
 41
0.728571
  7
STYLE1
 72
     5
 11
846.843281
 21
61.932607
 31
0.0
100
AcDbText
  0
TEXT
  5
B8
330
1F
100
AcDbEntity
  8
GR1-1
  6
細い実線
 62
     7
100
AcDbText
 10
841.743281
 20
55.90106
 30
0.0
 40
3.5
  1
尺度
 41
0.728571
  7
STYLE1
 72
     5
 11
846.843281
 21
55.90106
 31
0.0
100
AcDbText
  0
TEXT
  5
B9
330
1F
100
AcDbEntity
  8
GR1-1
  6
細い実線
 62
     7
100
AcDbText
 10
876.443281
 20
55.90106
 30
0.0
 40
3.5
  1
参考重量
 41
0.764286
  7
STYLE1
 72
     5
 11
887.143281
 21
55.90106
 31
0.0
100
AcDbText
  0
TEXT
  5
BA
330
1F
100
AcDbEntity
  8
GR1-1
  6
細い実線
 62
     7
100
AcDbText
 10
854.943281
 20
49.869507
 30
0.0
 40
3.5
  1
小倉セメント製品工業株式会社
 41
0.789796
  7
STYLE1
 72
     5
 11
893.643281
 21
49.869507
 31
0.0
100
AcDbText
  0
LINE
  5
BB
330
1F
100
AcDbEntity
  8
GR1-1
  6
太い実線
 62
     4
100
AcDbLine
 10
889.293273
 20
60.861168
 30
0.0
 11
889.293273
 21
54.861172
 31
0.0
  0
TEXT
  5
BC
330
1F
100
AcDbEntity
  8
GR1-1
  6
細い実線
 62
     7
100
AcDbText
 10
858.443281
 20
56.064072
 30
0.0
 40
3.5
  1
1/50
 41
0.657143
  7
STYLE1
 72
     5
 11
867.643281
 21
56.064072
 31
0.0
100
AcDbText
  0
TEXT
  5
BD
330
1F
100
AcDbEntity
  8
GR1-1
  6
細い実線
 62
     7
100
AcDbText
 10
892.451875
 20
55.90106
 30
0.0
 40
3.5
  1
670　ｋｇ
 41
0.657143
  7
STYLE1
 72
     5
 11
906.251875
 21
55.90106
 31
0.0
100
AcDbText
  0
TEXT
  5
BE
330
1F
100
AcDbEntity
  8
GR1-1
  6
細い実線
 62
     7
100
AcDbText
 10
860.225312
 20
61.858872
 30
0.0
 40
3.5
  1
KP大型ブロック　2250B　（高擁壁用）
 41
0.657143
  7
STYLE1
 72
     5
 11
908.525312
 21
61.858872
 31
0.0
100
AcDbText
  0
LINE
  5
BF
330
1F
100
AcDbEntity
  8
GR1-1
  6
太い実線
 62
     4
100
AcDbLine
 10
911.793237
 20
66.861168
 30
0.0
 11
911.793237
 21
48.86117
 31
0.0
  0
LINE
  5
C0
330
1F
100
AcDbEntity
  8
GR1-1
  6
太い実線
 62
     4
100
AcDbLine
 10
836.793212
 20
48.86117
 30
0.0
 11
911.793237
 21
48.86117
 31
0.0
  0
LINE
  5
C1
330
1F
100
AcDbEntity
  8
GR1-1
  6
細い実線
 62
     4
100
AcDbLine
 10
687.809131
 20
212.320298
 30
0.0
 11
686.05119
 21
212.320298
 31
0.0
  0
LINE
  5
C2
330
1F
100
AcDbEntity
  8
GR1-1
  6
細い実線
 62
     4
100
AcDbLine
 10
683.05119
 20
212.320298
 30
0.0
 11
680.899414
 21
212.320298
 31
0.0
  0
LINE
  5
C3
330
1F
100
AcDbEntity
  8
GR1-1
  6
細い実線
 62
     4
100
AcDbLine
 10
685.75119
 20
213.040298
 30
0.0
 11
686.05119
 21
212.320298
 31
0.0
  0
LINE
  5
C4
330
1F
100
AcDbEntity
  8
GR1-1
  6
細い実線
 62
     4
100
AcDbLine
 10
683.05119
 20
212.320298
 30
0.0
 11
683.35119
 21
213.040298
 31
0.0
  0
LINE
  5
C5
330
1F
100
AcDbEntity
  8
GR1-1
  6
細い実線
 62
     4
100
AcDbLine
 10
683.35119
 20
213.040298
 30
0.0
 11
685.75119
 21
213.040298
 31
0.0
  0
TEXT
  5
C6
330
1F
100
AcDbEntity
  8
GR1-1
  6
細い実線
 62
     4
100
AcDbText
 10
681.133281
 20
218.365313
 30
0.0
 40
2.0
  1
 バール挿入孔詳細 
 41
0.812
  7
FX_VECTOR
 72
     5
 11
697.373281
 21
218.365313
 31
0.0
100
AcDbText
  0
LINE
  5
C7
330
1F
100
AcDbEntity
  8
GR1-1
  6
細い実線
 62
     4
100
AcDbLine
 10
681.133298
 20
218.16532
 30
0.0
 11
697.373298
 21
218.16532
 31
0.0
  0
LINE
  5
C8
330
1F
100
AcDbEntity
  8
GR1-1
  6
細い実線
 62
     4
100
AcDbLine
 10
693.501493
 20
213.040298
 30
0.0
 11
695.901493
 21
213.040298
 31
0.0
  0
LINE
  5
C9
330
1F
100
AcDbEntity
  8
GR1-1
  6
細い実線
 62
     4
100
AcDbLine
 10
693.201493
 20
212.320298
 30
0.0
 11
693.501493
 21
213.040298
 31
0.0
  0
LINE
  5
CA
330
1F
100
AcDbEntity
  8
GR1-1
  6
細い実線
 62
     4
100
AcDbLine
 10
695.901493
 20
213.040298
 30
0.0
 11
695.901493
 21
215.563275
 31
0.0
  0
LINE
  5
CB
330
1F
100
AcDbEntity
  8
GR1-1
  6
細い実線
 62
     4
100
AcDbLine
 10
693.201493
 20
212.320298
 30
0.0
 11
691.443552
 21
212.320298
 31
0.0
  0
LINE
  5
CD
330
1F
100
AcDbEntity
  8
GR1-1
  6
020-1-CENTER2
 62
     2
100
AcDbLine
 10
697.967263
 20
186.775751
 30
0.0
 11
697.967263
 21
175.813266
 31
0.0
  0
LINE
  5
CE
330
1F
100
AcDbEntity
  8
GR1-1
  6
細い実線
 62
     4
100
AcDbLine
 10
698.342263
 20
185.818822
 30
0.0
 11
698.867263
 21
182.818822
 31
0.0
  0
LINE
  5
CF
330
1F
100
AcDbEntity
  8
GR1-1
  6
細い実線
 62
     4
100
AcDbLine
 10
697.067263
 20
182.818822
 30
0.0
 11
697.592263
 21
185.818822
 31
0.0
  0
LINE
  5
D0
330
1F
100
AcDbEntity
  8
GR1-1
  6
細い実線
 62
     4
100
AcDbLine
 10
697.592263
 20
185.818822
 30
0.0
 11
698.342263
 21
185.818822
 31
0.0
  0
LINE
  5
D1
330
1F
100
AcDbEntity
  8
GR1-1
  6
細い実線
 62
     4
100
AcDbLine
 10
698.867263
 20
182.818822
 30
0.0
 11
699.756589
 21
182.818822
 31
0.0
  0
LINE
  5
D2
330
1F
100
AcDbEntity
  8
GR1-1
  6
細い実線
 62
     4
100
AcDbLine
 10
697.067263
 20
182.818822
 30
0.0
 11
696.177937
 21
182.818822
 31
0.0
  0
LINE
  5
D3
330
1F
100
AcDbEntity
  8
GR1-1
  6
020-1-CENTER2
 62
     2
100
AcDbLine
 10
680.763387
 20
177.94933
 30
0.0
 11
680.763387
 21
186.574601
 31
0.0
  0
LINE
  5
D4
330
1F
100
AcDbEntity
  8
GR1-1
  6
細い実線
 62
     4
100
AcDbLine
 10
681.663387
 20
182.603677
 30
0.0
 11
681.138387
 21
179.603677
 31
0.0
  0
LINE
  5
D5
330
1F
100
AcDbEntity
  8
GR1-1
  6
細い実線
 62
     4
100
AcDbLine
 10
680.388387
 20
179.603677
 30
0.0
 11
679.863387
 21
182.603677
 31
0.0
  0
LINE
  5
D6
330
1F
100
AcDbEntity
  8
GR1-1
  6
細い実線
 62
     4
100
AcDbLine
 10
681.138387
 20
179.603677
 30
0.0
 11
680.388387
 21
179.603677
 31
0.0
  0
LINE
  5
D7
330
1F
100
AcDbEntity
  8
GR1-1
  6
細い実線
 62
     4
100
AcDbLine
 10
679.863387
 20
182.603677
 30
0.0
 11
678.974061
 21
182.603677
 31
0.0
  0
LINE
  5
D8
330
1F
100
AcDbEntity
  8
GR1-1
  6
細い実線
 62
     4
100
AcDbLine
 10
681.663387
 20
182.603677
 30
0.0
 11
682.552713
 21
182.603677
 31
0.0
  0
LINE
  5
D9
330
1F
100
AcDbEntity
  8
GR1-1
  6
020-1-CENTER2
 62
     2
100
AcDbLine
 10
679.613078
 20
185.424292
 30
0.0
 11
681.913696
 21
185.424292
 31
0.0
  0
CIRCLE
  5
DA
330
1F
100
AcDbEntity
  8
GR1-1
  6
細い実線
 62
     4
100
AcDbCircle
 10
680.763387
 20
185.424292
 30
0.0
 40
0.9
  0
CIRCLE
  5
DB
330
1F
100
AcDbEntity
  8
GR1-1
  6
細い実線
 62
     4
100
AcDbCircle
 10
680.763387
 20
185.424292
 30
0.0
 40
0.375
  0
INSERT
  5
DF
330
1F
100
AcDbEntity
  8
0
100
AcDbBlockReference
  2
BLKF021
 10
0.0
 20
0.0
 30
0.0
  0
INSERT
  5
EE
330
1F
100
AcDbEntity
  8
0
100
AcDbBlockReference
  2
BLKF022
 10
0.0
 20
0.0
 30
0.0
  0
TEXT
  5
FA
330
1F
100
AcDbEntity
  8
GR1-1
  6
細い実線
 62
     4
100
AcDbText
 10
681.300547
 20
197.866719
 30
0.0
 40
2.0
  1
 ガイドピン孔詳細 
 41
0.812
  7
FX_VECTOR
 72
     5
 11
697.540546
 21
197.866719
 31
0.0
100
AcDbText
  0
LINE
  5
FB
330
1F
100
AcDbEntity
  8
GR1-1
  6
細い実線
 62
     4
100
AcDbLine
 10
681.300599
 20
197.666711
 30
0.0
 11
697.540599
 21
197.666711
 31
0.0
  0
TEXT
  5
FC
330
1F
100
AcDbEntity
  8
GR1-1
  6
細い実線
 62
     4
100
AcDbText
 10
679.612188
 20
193.656523
 30
0.0
 40
1.4
  1
上部
 41
0.84
  7
FX_VECTOR
 72
     5
 11
681.964187
 21
193.656523
 31
0.0
100
AcDbText
  0
LINE
  5
FD
330
1F
100
AcDbEntity
  8
GR1-1
  6
細い実線
 62
     4
100
AcDbLine
 10
679.612239
 20
193.516531
 30
0.0
 11
681.964239
 21
193.516531
 31
0.0
  0
INSERT
  5
101
330
1F
100
AcDbEntity
  8
0
100
AcDbBlockReference
  2
BLKF023
 10
0.0
 20
0.0
 30
0.0
  0
INSERT
  5
110
330
1F
100
AcDbEntity
  8
0
100
AcDbBlockReference
  2
BLKF024
 10
0.0
 20
0.0
 30
0.0
  0
INSERT
  5
118
330
1F
100
AcDbEntity
  8
0
100
AcDbBlockReference
  2
BLKF025
 10
0.0
 20
0.0
 30
0.0
  0
LINE
  5
11D
330
1F
100
AcDbEntity
  8
GR1-1
  6
細い実線
 62
     4
100
AcDbLine
 10
697.067263
 20
181.261561
 30
0.0
 11
697.592263
 21
180.661561
 31
0.0
  0
LINE
  5
11E
330
1F
100
AcDbEntity
  8
GR1-1
  6
細い実線
 62
     4
100
AcDbLine
 10
698.342263
 20
180.661561
 30
0.0
 11
698.867263
 21
181.261561
 31
0.0
  0
LINE
  5
11F
330
1F
100
AcDbEntity
  8
GR1-1
  6
細い実線
 62
     4
100
AcDbLine
 10
698.342263
 20
178.561561
 30
0.0
 11
698.867263
 21
177.961561
 31
0.0
  0
LINE
  5
120
330
1F
100
AcDbEntity
  8
GR1-1
  6
細い実線
 62
     4
100
AcDbLine
 10
697.592263
 20
178.561561
 30
0.0
 11
697.067263
 21
177.961561
 31
0.0
  0
INSERT
  5
124
330
1F
100
AcDbEntity
  8
0
100
AcDbBlockReference
  2
BLKF026
 10
0.0
 20
0.0
 30
0.0
  0
INSERT
  5
133
330
1F
100
AcDbEntity
  8
0
100
AcDbBlockReference
  2
BLKF027
 10
0.0
 20
0.0
 30
0.0
  0
INSERT
  5
142
330
1F
100
AcDbEntity
  8
0
100
AcDbBlockReference
  2
BLKF028
 10
0.0
 20
0.0
 30
0.0
  0
INSERT
  5
151
330
1F
100
AcDbEntity
  8
0
100
AcDbBlockReference
  2
BLKF029
 10
0.0
 20
0.0
 30
0.0
  0
INSERT
  5
160
330
1F
100
AcDbEntity
  8
0
100
AcDbBlockReference
  2
BLKF030
 10
0.0
 20
0.0
 30
0.0
  0
INSERT
  5
16F
330
1F
100
AcDbEntity
  8
0
100
AcDbBlockReference
  2
BLKF031
 10
0.0
 20
0.0
 30
0.0
  0
INSERT
  5
17E
330
1F
100
AcDbEntity
  8
0
100
AcDbBlockReference
  2
BLKF032
 10
0.0
 20
0.0
 30
0.0
  0
INSERT
  5
18D
330
1F
100
AcDbEntity
  8
0
100
AcDbBlockReference
  2
BLKF033
 10
0.0
 20
0.0
 30
0.0
  0
INSERT
  5
19B
330
1F
100
AcDbEntity
  8
0
100
AcDbBlockReference
  2
BLKF034
 10
0.0
 20
0.0
 30
0.0
  0
TEXT
  5
1A6
330
1F
100
AcDbEntity
  8
GR1-1
  6
細い実線
 62
     4
100
AcDbText
 10
696.797734
 20
193.597578
 30
0.0
 40
1.4
  1
下部
 41
0.84
  7
FX_VECTOR
 72
     5
 11
699.149734
 21
193.597578
 31
0.0
100
AcDbText
  0
LINE
  5
1A7
330
1F
100
AcDbEntity
  8
GR1-1
  6
細い実線
 62
     4
100
AcDbLine
 10
696.797727
 20
193.457578
 30
0.0
 11
699.149727
 21
193.457578
 31
0.0
  0
INSERT
  5
1AB
330
1F
100
AcDbEntity
  8
0
100
AcDbBlockReference
  2
BLKF035
 10
0.0
 20
0.0
 30
0.0
  0
INSERT
  5
1B9
330
1F
100
AcDbEntity
  8
0
100
AcDbBlockReference
  2
BLKF036
 10
0.0
 20
0.0
 30
0.0
  0
INSERT
  5
1C8
330
1F
100
AcDbEntity
  8
0
100
AcDbBlockReference
  2
BLKF037
 10
0.0
 20
0.0
 30
0.0
  0
INSERT
  5
1D7
330
1F
100
AcDbEntity
  8
0
100
AcDbBlockReference
  2
BLKF038
 10
0.0
 20
0.0
 30
0.0
  0
INSERT
  5
1E6
330
1F
100
AcDbEntity
  8
0
100
AcDbBlockReference
  2
BLKF039
 10
0.0
 20
0.0
 30
0.0
  0
INSERT
  5
1F5
330
1F
100
AcDbEntity
  8
0
100
AcDbBlockReference
  2
BLKF040
 10
0.0
 20
0.0
 30
0.0
  0
INSERT
  5
204
330
1F
100
AcDbEntity
  8
0
100
AcDbBlockReference
  2
BLKF041
 10
0.0
 20
0.0
 30
0.0
  0
INSERT
  5
213
330
1F
100
AcDbEntity
  8
0
100
AcDbBlockReference
  2
BLKF042
 10
0.0
 20
0.0
 30
0.0
  0
INSERT
  5
221
330
1F
100
AcDbEntity
  8
0
100
AcDbBlockReference
  2
BLKF043
 10
0.0
 20
0.0
 30
0.0
  0
TEXT
  5
22D
330
1F
100
AcDbEntity
  8
GR1-1
  6
細い実線
 62
     4
100
AcDbText
 10
697.57875
 20
218.732715
 30
0.0
 40
1.4
  1
(S=1/10)
 41
0.566125
  7
FX_VECTOR
 72
     5
 11
703.91935
 21
218.732715
 31
0.0
100
AcDbText
  0
TEXT
  5
22E
330
1F
100
AcDbEntity
  8
GR1-1
  6
細い実線
 62
     4
100
AcDbText
 10
697.769297
 20
198.234102
 30
0.0
 40
1.4
  1
(S=1/10)
 41
0.566125
  7
FX_VECTOR
 72
     5
 11
704.109897
 21
198.234102
 31
0.0
100
AcDbText
  0
INSERT
  5
232
330
1F
100
AcDbEntity
  8
0
100
AcDbBlockReference
  2
BLKF044
 10
0.0
 20
0.0
 30
0.0
  0
INSERT
  5
241
330
1F
100
AcDbEntity
  8
0
100
AcDbBlockReference
  2
BLKF045
 10
0.0
 20
0.0
 30
0.0
  0
INSERT
  5
250
330
1F
100
AcDbEntity
  8
0
100
AcDbBlockReference
  2
BLKF046
 10
0.0
 20
0.0
 30
0.0
  0
INSERT
  5
25F
330
1F
100
AcDbEntity
  8
0
100
AcDbBlockReference
  2
BLKF047
 10
0.0
 20
0.0
 30
0.0
  0
INSERT
  5
26E
330
1F
100
AcDbEntity
  8
0
100
AcDbBlockReference
  2
BLKF048
 10
0.0
 20
0.0
 30
0.0
  0
INSERT
  5
27D
330
1F
100
AcDbEntity
  8
0
100
AcDbBlockReference
  2
BLKF049
 10
0.0
 20
0.0
 30
0.0
  0
TEXT
  5
288
330
1F
100
AcDbEntity
  8
GR1-1
  6
CONTINUOUS
 62
     4
100
AcDbText
 10
786.850703
 20
116.960586
 30
0.0
 40
1.2
  1
　水抜ハ゜イフ゜用　
 41
0.666667
  7
FX_VECTOR
 72
     5
 11
794.850703
 21
116.960586
 31
0.0
100
AcDbText
  0
TEXT
  5
289
330
1F
100
AcDbEntity
  8
GR1-1
  6
CONTINUOUS
 62
     4
100
AcDbText
 10
789.837188
 20
115.177715
 30
0.0
 40
1.2
  1
ノックアウト孔
 41
0.857143
  7
FX_VECTOR
 72
     5
 11
797.037187
 21
115.177715
 31
0.0
100
AcDbText
  0
INSERT
  5
28D
330
1F
100
AcDbEntity
  8
0
100
AcDbBlockReference
  2
BLKF050
 10
0.0
 20
0.0
 30
0.0
  0
INSERT
  5
29B
330
1F
100
AcDbEntity
  8
0
100
AcDbBlockReference
  2
BLKF051
 10
0.0
 20
0.0
 30
0.0
  0
LINE
  5
2A6
330
1F
100
AcDbEntity
  8
GR1-1
  6
CONTINUOUS
 62
     2
100
AcDbLine
 10
781.044149
 20
125.179368
 30
0.0
 11
780.346496
 21
125.528195
 31
0.0
  0
TEXT
  5
2A7
330
1F
100
AcDbEntity
  8
GR1-1
  6
CONTINUOUS
 62
     4
100
AcDbText
 10
779.485937
 20
126.663066
 30
0.0
 40
1.5
  1
15
 50
333.434937
 41
0.7
  7
FX_VECTOR
 72
     5
 11
781.364234
 21
125.723917
 31
0.0
100
AcDbText
  0
LINE
  5
2A8
330
1F
100
AcDbEntity
  8
GR1-1
  6
CONTINUOUS
 62
     2
100
AcDbLine
 10
782.957362
 20
124.378823
 30
0.0
 11
782.841087
 21
124.146272
 31
0.0
  0
LINE
  5
2A9
330
1F
100
AcDbEntity
  8
GR1-1
  6
CONTINUOUS
 62
     2
100
AcDbLine
 10
782.841087
 20
124.146272
 30
0.0
 11
782.201572
 21
124.611374
 31
0.0
  0
LINE
  5
2AA
330
1F
100
AcDbEntity
  8
GR1-1
  6
CONTINUOUS
 62
     2
100
AcDbLine
 10
782.201572
 20
124.611374
 30
0.0
 11
782.957362
 21
124.378823
 31
0.0
  0
LINE
  5
2AB
330
1F
100
AcDbEntity
  8
GR1-1
  6
CONTINUOUS
 62
     2
100
AcDbLine
 10
781.102287
 20
125.295644
 30
0.0
 11
780.986011
 21
125.063093
 31
0.0
  0
LINE
  5
2AC
330
1F
100
AcDbEntity
  8
GR1-1
  6
CONTINUOUS
 62
     2
100
AcDbLine
 10
780.986011
 20
125.063093
 30
0.0
 11
781.741802
 21
124.830541
 31
0.0
  0
LINE
  5
2AD
330
1F
100
AcDbEntity
  8
GR1-1
  6
CONTINUOUS
 62
     2
100
AcDbLine
 10
781.741802
 20
124.830541
 30
0.0
 11
781.102287
 21
125.295644
 31
0.0
  0
LINE
  5
2AE
330
1F
100
AcDbEntity
  8
GR1-1
  6
CONTINUOUS
 62
     2
100
AcDbLine
 10
782.776875
 20
123.320984
 30
0.0
 11
788.166327
 21
114.610137
 31
0.0
  0
INSERT
  5
2AF
330
1F
100
AcDbEntity
  8
GR1-1
  6
CONTINUOUS
 62
     2
100
AcDbBlockReference
  2
FXTIP_BLACKTRIANGLE_S
 10
782.776875
 20
123.320984
 30
0.0
 41
2.0
 42
2.0
 50
121.745325
  0
LINE
  5
2B0
330
1F
100
AcDbEntity
  8
GR1-1
  6
CONTINUOUS
 62
     2
100
AcDbLine
 10
788.166327
 20
114.610137
 30
0.0
 11
797.743764
 21
114.610137
 31
0.0
  0
TEXT
  5
2B1
330
1F
100
AcDbEntity
  8
GR1-1
  6
CONTINUOUS
 62
     4
100
AcDbText
 10
729.472344
 20
140.930215
 30
0.0
 40
2.0
  1
 正面図 
 41
0.784
  7
FX_VECTOR
 72
     5
 11
737.312344
 21
140.930215
 31
0.0
100
AcDbText
  0
LINE
  5
2B2
330
1F
100
AcDbEntity
  8
GR1-1
  6
CONTINUOUS
 62
     4
100
AcDbLine
 10
729.472333
 20
140.730219
 30
0.0
 11
737.312333
 21
140.730219
 31
0.0
  0
TEXT
  5
2B3
330
1F
100
AcDbEntity
  8
GR1-1
  6
CONTINUOUS
 62
     4
100
AcDbText
 10
779.463281
 20
140.930215
 30
0.0
 40
2.0
  1
 側面図 
 41
0.784
  7
FX_VECTOR
 72
     5
 11
787.303281
 21
140.930215
 31
0.0
100
AcDbText
  0
LINE
  5
2B4
330
1F
100
AcDbEntity
  8
GR1-1
  6
CONTINUOUS
 62
     4
100
AcDbLine
 10
779.463231
 20
140.730219
 30
0.0
 11
787.303231
 21
140.730219
 31
0.0
  0
LINE
  5
2B5
330
1F
100
AcDbEntity
  8
GR1-1
  6
CONTINUOUS
 62
     2
100
AcDbLine
 10
831.745198
 20
124.466944
 30
0.0
 11
797.743764
 21
114.610137
 31
0.0
  0
INSERT
  5
2B6
330
1F
100
AcDbEntity
  8
GR1-1
  6
CONTINUOUS
 62
     2
100
AcDbBlockReference
  2
FXTIP_ARROW_S
 10
831.745198
 20
124.466944
 30
0.0
 41
2.0
 42
2.0
 50
16.166549
  0
LINE
  5
2B7
330
1F
100
AcDbEntity
  8
GR1-1
  6
CONTINUOUS
 62
     2
100
AcDbLine
 10
788.071267
 20
109.548077
 30
0.0
 11
789.555338
 21
112.516219
 31
0.0
  0
LINE
  5
2B8
330
1F
100
AcDbEntity
  8
GR1-1
  6
CONTINUOUS
 62
     2
100
AcDbLine
 10
785.65036
 20
109.557747
 30
0.0
 11
788.656432
 21
109.557747
 31
0.0
  0
INSERT
  5
2B9
330
1F
100
AcDbEntity
  8
GR1-1
  6
CONTINUOUS
 62
     2
100
AcDbBlockReference
  2
FXTIP_ARROW_S
 10
785.65036
 20
109.557747
 30
0.0
 41
2.0
 42
2.0
 50
180.0
  0
TEXT
  5
2BA
330
1F
100
AcDbEntity
  8
GR1-1
  6
CONTINUOUS
 62
     4
100
AcDbText
 10
786.975
 20
110.455215
 30
0.0
 40
2.0
  1
C
 41
0.7
  7
FX_VECTOR
 72
     5
 11
788.375
 21
110.455215
 31
0.0
100
AcDbText
  0
TEXT
  5
2BB
330
1F
100
AcDbEntity
  8
GR1-1
  6
CONTINUOUS
 62
     4
100
AcDbText
 10
802.848594
 20
144.132285
 30
0.0
 40
2.0
  1
C
 41
0.7
  7
FX_VECTOR
 72
     5
 11
804.248594
 21
144.132285
 31
0.0
100
AcDbText
  0
TEXT
  5
2BC
330
1F
100
AcDbEntity
  8
GR1-1
  6
CONTINUOUS
 62
     4
100
AcDbText
 10
806.539766
 20
144.132285
 30
0.0
 40
2.0
  1
D
 41
0.7
  7
FX_VECTOR
 72
     5
 11
807.939766
 21
144.132285
 31
0.0
100
AcDbText
  0
TEXT
  5
2BD
330
1F
100
AcDbEntity
  8
GR1-1
  6
CONTINUOUS
 62
     4
100
AcDbText
 10
790.154688
 20
110.399863
 30
0.0
 40
2.0
  1
D
 41
0.7
  7
FX_VECTOR
 72
     5
 11
791.554688
 21
110.399863
 31
0.0
100
AcDbText
  0
LINE
  5
2BE
330
1F
100
AcDbEntity
  8
GR1-1
  6
CONTINUOUS
 62
     2
100
AcDbLine
 10
791.662504
 20
109.557747
 30
0.0
 11
788.656432
 21
109.557747
 31
0.0
  0
INSERT
  5
2BF
330
1F
100
AcDbEntity
  8
GR1-1
  6
CONTINUOUS
 62
     2
100
AcDbBlockReference
  2
FXTIP_ARROW_S
 10
791.662504
 20
109.557747
 30
0.0
 41
2.0
 42
2.0
  0
TEXT
  5
2C0
330
1F
100
AcDbEntity
  8
GR1-1
  6
CONTINUOUS
 62
     4
100
AcDbText
 10
665.379297
 20
140.882227
 30
0.0
 40
2.0
  1
 A-A 断面図 
 41
0.746667
  7
FX_VECTOR
 72
     5
 11
678.819296
 21
140.882227
 31
0.0
100
AcDbText
  0
LINE
  5
2C1
330
1F
100
AcDbEntity
  8
GR1-1
  6
CONTINUOUS
 62
     4
100
AcDbLine
 10
665.379299
 20
140.68222
 30
0.0
 11
678.819299
 21
140.68222
 31
0.0
  0
LINE
  5
2C2
330
1F
100
AcDbEntity
  8
GR1-1
  6
CONTINUOUS
 62
     4
100
AcDbLine
 10
720.119953
 20
120.229243
 30
0.0
 11
712.964535
 21
134.540078
 31
0.0
  0
LINE
  5
2C3
330
1F
100
AcDbEntity
  8
GR1-1
  6
CONTINUOUS
 62
     4
100
AcDbLine
 10
669.688423
 20
120.469243
 30
0.0
 11
662.653006
 21
134.540078
 31
0.0
  0
LINE
  5
2C4
330
1F
100
AcDbEntity
  8
GR1-1
  6
CONTINUOUS
 62
     8
100
AcDbLine
 10
718.863197
 20
124.38216
 30
0.0
 11
718.320085
 21
125.320374
 31
0.0
  0
LINE
  5
2C5
330
1F
100
AcDbEntity
  8
GR1-1
  6
CONTINUOUS
 62
     4
100
AcDbLine
 10
720.119953
 20
120.229243
 30
0.0
 11
715.219953
 21
120.229243
 31
0.0
  0
LINE
  5
2C6
330
1F
100
AcDbEntity
  8
GR1-1
  6
CONTINUOUS
 62
     8
100
AcDbLine
 10
719.97008
 20
120.506888
 30
0.0
 11
720.357371
 21
121.024817
 31
0.0
  0
LINE
  5
2C7
330
1F
100
AcDbEntity
  8
GR1-1
  6
CONTINUOUS
 62
     8
100
AcDbLine
 10
719.898747
 20
122.289474
 30
0.0
 11
719.638703
 21
122.692388
 31
0.0
  0
LINE
  5
2C8
330
1F
100
AcDbEntity
  8
GR1-1
  6
CONTINUOUS
 62
     8
100
AcDbLine
 10
719.638703
 20
122.692388
 30
0.0
 11
718.863197
 21
124.38216
 31
0.0
  0
LINE
  5
2C9
330
1F
100
AcDbEntity
  8
GR1-1
  6
CONTINUOUS
 62
     8
100
AcDbLine
 10
720.34185
 20
121.380142
 30
0.0
 11
720.014277
 21
121.905267
 31
0.0
  0
LINE
  5
2CA
330
1F
100
AcDbEntity
  8
GR1-1
  6
CONTINUOUS
 62
     8
100
AcDbLine
 10
720.357371
 20
121.024817
 30
0.0
 11
720.34185
 21
121.380142
 31
0.0
  0
LINE
  5
2CB
330
1F
100
AcDbEntity
  8
GR1-1
  6
CONTINUOUS
 62
     8
100
AcDbLine
 10
720.014277
 20
121.905267
 30
0.0
 11
719.898747
 21
122.289474
 31
0.0
  0
LINE
  5
2CC
330
1F
100
AcDbEntity
  8
GR1-1
  6
CONTINUOUS
 62
     4
100
AcDbLine
 10
712.964535
 20
134.540078
 30
0.0
 11
662.653006
 21
134.540078
 31
0.0
  0
LINE
  5
2CD
330
1F
100
AcDbEntity
  8
GR1-1
  6
CONTINUOUS
 62
     8
100
AcDbLine
 10
715.238937
 20
131.486788
 30
0.0
 11
714.947303
 21
132.139473
 31
0.0
  0
LINE
  5
2CE
330
1F
100
AcDbEntity
  8
GR1-1
  6
CONTINUOUS
 62
     8
100
AcDbLine
 10
717.610873
 20
126.69203
 30
0.0
 11
716.877713
 21
128.176851
 31
0.0
  0
TEXT
  5
2CF
330
1F
100
AcDbEntity
  8
GR1-1
  6
CONTINUOUS
 62
     4
100
AcDbText
 10
718.291641
 20
127.190762
 30
0.0
 40
1.5
  1
1:0.5
 50
297.0
 41
0.7
  7
FX_VECTOR
 72
     5
 11
720.675091
 21
122.512977
 31
0.0
100
AcDbText
  0
LINE
  5
2D0
330
1F
100
AcDbEntity
  8
GR1-1
  6
CONTINUOUS
 62
     8
100
AcDbLine
 10
715.040347
 20
130.381694
 30
0.0
 11
715.487923
 21
130.661285
 31
0.0
  0
LINE
  5
2D1
330
1F
100
AcDbEntity
  8
GR1-1
  6
CONTINUOUS
 62
     8
100
AcDbLine
 10
715.603364
 20
130.614112
 30
0.0
 11
715.315566
 21
130.429559
 31
0.0
  0
LINE
  5
2D2
330
1F
100
AcDbEntity
  8
GR1-1
  6
CONTINUOUS
 62
     8
100
AcDbLine
 10
716.088832
 20
129.860635
 30
0.0
 11
715.775031
 21
130.442215
 31
0.0
  0
LINE
  5
2D3
330
1F
100
AcDbEntity
  8
GR1-1
  6
CONTINUOUS
 62
     8
100
AcDbLine
 10
715.775031
 20
130.442215
 30
0.0
 11
715.603364
 21
130.614112
 31
0.0
  0
LINE
  5
2D4
330
1F
100
AcDbEntity
  8
GR1-1
  6
CONTINUOUS
 62
     8
100
AcDbLine
 10
715.315566
 20
130.429559
 30
0.0
 11
715.073867
 21
130.387524
 31
0.0
  0
LINE
  5
2D5
330
1F
100
AcDbEntity
  8
GR1-1
  6
CONTINUOUS
 62
     8
100
AcDbLine
 10
715.558261
 20
130.873452
 30
0.0
 11
715.238937
 21
131.486788
 31
0.0
  0
LINE
  5
2D6
330
1F
100
AcDbEntity
  8
GR1-1
  6
CONTINUOUS
 62
     8
100
AcDbLine
 10
715.487923
 20
130.661285
 30
0.0
 11
715.558261
 21
130.873452
 31
0.0
  0
LINE
  5
2D7
330
1F
100
AcDbEntity
  8
GR1-1
  6
CONTINUOUS
 62
     8
100
AcDbLine
 10
716.877713
 20
128.176851
 30
0.0
 11
716.568701
 21
128.940785
 31
0.0
  0
LINE
  5
2D8
330
1F
100
AcDbEntity
  8
GR1-1
  6
CONTINUOUS
 62
     8
100
AcDbLine
 10
716.568701
 20
128.940785
 30
0.0
 11
716.357761
 21
129.338502
 31
0.0
  0
LINE
  5
2D9
330
1F
100
AcDbEntity
  8
GR1-1
  6
CONTINUOUS
 62
     8
100
AcDbLine
 10
716.357761
 20
129.338502
 30
0.0
 11
716.088832
 21
129.860635
 31
0.0
  0
LINE
  5
2DA
330
1F
100
AcDbEntity
  8
GR1-1
  6
CONTINUOUS
 62
     8
100
AcDbLine
 10
718.169197
 20
125.666347
 30
0.0
 11
717.724758
 21
126.037192
 31
0.0
  0
LINE
  5
2DB
330
1F
100
AcDbEntity
  8
GR1-1
  6
CONTINUOUS
 62
     8
100
AcDbLine
 10
718.320085
 20
125.320374
 30
0.0
 11
718.47683
 21
125.0038
 31
0.0
  0
LINE
  5
2DC
330
1F
100
AcDbEntity
  8
GR1-1
  6
CONTINUOUS
 62
     8
100
AcDbLine
 10
718.47683
 20
125.0038
 30
0.0
 11
718.169197
 21
125.666347
 31
0.0
  0
LINE
  5
2DD
330
1F
100
AcDbEntity
  8
GR1-1
  6
CONTINUOUS
 62
     8
100
AcDbLine
 10
717.779131
 20
126.270718
 30
0.0
 11
717.610873
 21
126.69203
 31
0.0
  0
LINE
  5
2DE
330
1F
100
AcDbEntity
  8
GR1-1
  6
CONTINUOUS
 62
     8
100
AcDbLine
 10
717.793932
 20
126.185612
 30
0.0
 11
717.779131
 21
126.270718
 31
0.0
  0
LINE
  5
2DF
330
1F
100
AcDbEntity
  8
GR1-1
  6
CONTINUOUS
 62
     8
100
AcDbLine
 10
717.363369
 20
125.930502
 30
0.0
 11
717.793932
 21
126.185612
 31
0.0
  0
LINE
  5
2E0
330
1F
100
AcDbEntity
  8
GR1-1
  6
CONTINUOUS
 62
     8
100
AcDbLine
 10
717.724758
 20
126.037192
 30
0.0
 11
717.363369
 21
125.930502
 31
0.0
  0
LINE
  5
2E1
330
1F
100
AcDbEntity
  8
GR1-1
  6
CONTINUOUS
 62
     8
100
AcDbLine
 10
714.947303
 20
132.139473
 30
0.0
 11
714.661499
 21
132.758638
 31
0.0
  0
LINE
  5
2E2
330
1F
100
AcDbEntity
  8
GR1-1
  6
CONTINUOUS
 62
     8
100
AcDbLine
 10
714.177566
 20
133.712316
 30
0.0
 11
713.85617
 21
134.327109
 31
0.0
  0
LINE
  5
2E3
330
1F
100
AcDbEntity
  8
GR1-1
  6
CONTINUOUS
 62
     8
100
AcDbLine
 10
714.375926
 20
133.17791
 30
0.0
 11
714.177566
 21
133.712316
 31
0.0
  0
LINE
  5
2E4
330
1F
100
AcDbEntity
  8
GR1-1
  6
CONTINUOUS
 62
     8
100
AcDbLine
 10
714.661499
 20
132.758638
 30
0.0
 11
714.375926
 21
133.17791
 31
0.0
  0
LINE
  5
2E5
330
1F
100
AcDbEntity
  8
GR1-1
  6
CONTINUOUS
 62
     8
100
AcDbLine
 10
713.478397
 20
134.461343
 30
0.0
 11
713.076921
 21
134.32427
 31
0.0
  0
LINE
  5
2E6
330
1F
100
AcDbEntity
  8
GR1-1
  6
CONTINUOUS
 62
     8
100
AcDbLine
 10
713.731447
 20
134.438101
 30
0.0
 11
713.478397
 21
134.461343
 31
0.0
  0
LINE
  5
2E7
330
1F
100
AcDbEntity
  8
GR1-1
  6
CONTINUOUS
 62
     8
100
AcDbLine
 10
713.85617
 20
134.327109
 30
0.0
 11
713.731447
 21
134.438101
 31
0.0
  0
LINE
  5
2E8
330
1F
100
AcDbEntity
  8
GR1-1
  6
CONTINUOUS
 62
     4
100
AcDbLine
 10
714.219953
 20
120.229243
 30
0.0
 11
714.319953
 21
120.469243
 31
0.0
  0
LINE
  5
2E9
330
1F
100
AcDbEntity
  8
GR1-1
  6
CONTINUOUS
 62
     4
100
AcDbLine
 10
714.319953
 20
120.469243
 30
0.0
 11
715.119953
 21
120.469243
 31
0.0
  0
LINE
  5
2EA
330
1F
100
AcDbEntity
  8
GR1-1
  6
CONTINUOUS
 62
     4
100
AcDbLine
 10
715.119953
 20
120.469243
 30
0.0
 11
715.219953
 21
120.229243
 31
0.0
  0
LINE
  5
2EB
330
1F
100
AcDbEntity
  8
GR1-1
  6
CONTINUOUS
 62
     4
100
AcDbLine
 10
711.264535
 20
134.540078
 30
0.0
 11
711.089535
 21
133.540078
 31
0.0
  0
LINE
  5
2EC
330
1F
100
AcDbEntity
  8
GR1-1
  6
CONTINUOUS
 62
     4
100
AcDbLine
 10
711.089535
 20
133.540078
 30
0.0
 11
710.839535
 21
133.540078
 31
0.0
  0
LINE
  5
2ED
330
1F
100
AcDbEntity
  8
GR1-1
  6
CONTINUOUS
 62
     4
100
AcDbLine
 10
710.839535
 20
133.540078
 30
0.0
 11
710.664535
 21
134.540078
 31
0.0
  0
LINE
  5
2EE
330
1F
100
AcDbEntity
  8
GR1-1
  6
CONTINUOUS
 62
     4
100
AcDbLine
 10
673.608423
 20
120.469243
 30
0.0
 11
674.408423
 21
120.469243
 31
0.0
  0
LINE
  5
2EF
330
1F
100
AcDbEntity
  8
GR1-1
  6
CONTINUOUS
 62
     4
100
AcDbLine
 10
673.508423
 20
120.229243
 30
0.0
 11
673.608423
 21
120.469243
 31
0.0
  0
LINE
  5
2F0
330
1F
100
AcDbEntity
  8
GR1-1
  6
CONTINUOUS
 62
     4
100
AcDbLine
 10
674.408423
 20
120.469243
 30
0.0
 11
674.508423
 21
120.229243
 31
0.0
  0
LINE
  5
2F1
330
1F
100
AcDbEntity
  8
GR1-1
  6
CONTINUOUS
 62
     4
100
AcDbLine
 10
669.688423
 20
120.469243
 30
0.0
 11
670.608423
 21
120.469243
 31
0.0
  0
LINE
  5
2F2
330
1F
100
AcDbEntity
  8
GR1-1
  6
CONTINUOUS
 62
     4
100
AcDbLine
 10
670.608423
 20
120.469243
 30
0.0
 11
670.708423
 21
120.229243
 31
0.0
  0
LINE
  5
2F3
330
1F
100
AcDbEntity
  8
GR1-1
  6
CONTINUOUS
 62
     4
100
AcDbLine
 10
718.244953
 20
121.229243
 30
0.0
 11
718.419953
 21
120.229243
 31
0.0
  0
LINE
  5
2F4
330
1F
100
AcDbEntity
  8
GR1-1
  6
CONTINUOUS
 62
     4
100
AcDbLine
 10
717.994953
 20
121.229243
 30
0.0
 11
718.244953
 21
121.229243
 31
0.0
  0
LINE
  5
2F5
330
1F
100
AcDbEntity
  8
GR1-1
  6
CONTINUOUS
 62
     4
100
AcDbLine
 10
717.819953
 20
120.229243
 30
0.0
 11
717.994953
 21
121.229243
 31
0.0
  0
INSERT
  5
2F9
330
1F
100
AcDbEntity
  8
0
100
AcDbBlockReference
  2
BLKF052
 10
0.0
 20
0.0
 30
0.0
  0
INSERT
  5
308
330
1F
100
AcDbEntity
  8
0
100
AcDbBlockReference
  2
BLKF053
 10
0.0
 20
0.0
 30
0.0
  0
INSERT
  5
317
330
1F
100
AcDbEntity
  8
0
100
AcDbBlockReference
  2
BLKF054
 10
0.0
 20
0.0
 30
0.0
  0
INSERT
  5
325
330
1F
100
AcDbEntity
  8
0
100
AcDbBlockReference
  2
BLKF055
 10
0.0
 20
0.0
 30
0.0
  0
INSERT
  5
333
330
1F
100
AcDbEntity
  8
0
100
AcDbBlockReference
  2
BLKF056
 10
0.0
 20
0.0
 30
0.0
  0
LINE
  5
339
330
1F
100
AcDbEntity
  8
GR1-1
  6
CONTINUOUS
 62
     2
100
AcDbLine
 10
674.043664
 20
120.605102
 30
0.0
 11
671.269703
 21
126.385884
 31
0.0
  0
INSERT
  5
33A
330
1F
100
AcDbEntity
  8
GR1-1
  6
CONTINUOUS
 62
     2
100
AcDbBlockReference
  2
FXTIP_ARROW_S
 10
674.043664
 20
120.605102
 30
0.0
 41
2.0
 42
2.0
 50
295.634447
  0
LINE
  5
33B
330
1F
100
AcDbEntity
  8
GR1-1
  6
CONTINUOUS
 62
     2
100
AcDbLine
 10
714.572732
 20
120.656259
 30
0.0
 11
671.269703
 21
126.385884
 31
0.0
  0
INSERT
  5
33C
330
1F
100
AcDbEntity
  8
GR1-1
  6
CONTINUOUS
 62
     2
100
AcDbBlockReference
  2
FXTIP_ARROW_S
 10
714.572732
 20
120.656259
 30
0.0
 41
2.0
 42
2.0
 50
352.462711
  0
INSERT
  5
340
330
1F
100
AcDbEntity
  8
0
100
AcDbBlockReference
  2
BLKF057
 10
0.0
 20
0.0
 30
0.0
  0
LINE
  5
34B
330
1F
100
AcDbEntity
  8
GR1-1
  6
CONTINUOUS
 62
     4
100
AcDbLine
 10
714.219953
 20
120.229243
 30
0.0
 11
674.508423
 21
120.229243
 31
0.0
  0
LINE
  5
34C
330
1F
100
AcDbEntity
  8
GR1-1
  6
CONTINUOUS
 62
     4
100
AcDbLine
 10
673.508423
 20
120.229243
 30
0.0
 11
670.708423
 21
120.229243
 31
0.0
  0
TEXT
  5
34D
330
1F
100
AcDbEntity
  8
GR1-1
  6
CONTINUOUS
 62
     4
100
AcDbText
 10
722.203984
 20
221.238809
 30
0.0
 40
2.0
  1
 平面図 
 41
0.784
  7
FX_VECTOR
 72
     5
 11
730.043985
 21
221.238809
 31
0.0
100
AcDbText
  0
LINE
  5
34E
330
1F
100
AcDbEntity
  8
GR1-1
  6
CONTINUOUS
 62
     4
100
AcDbLine
 10
722.203974
 20
221.038808
 30
0.0
 11
730.043974
 21
221.038808
 31
0.0
  0
INSERT
  5
352
330
1F
100
AcDbEntity
  8
0
100
AcDbBlockReference
  2
BLKF058
 10
0.0
 20
0.0
 30
0.0
  0
LINE
  5
35D
330
1F
100
AcDbEntity
  8
GR1-1
  6
CONTINUOUS
 62
     4
100
AcDbLine
 10
787.348361
 20
134.540078
 30
0.0
 11
837.65989
 21
134.540078
 31
0.0
  0
INSERT
  5
361
330
1F
100
AcDbEntity
  8
0
100
AcDbBlockReference
  2
BLKF059
 10
0.0
 20
0.0
 30
0.0
  0
LINE
  5
36C
330
1F
100
AcDbEntity
  8
GR1-1
  6
CONTINUOUS
 62
     4
100
AcDbLine
 10
780.192943
 20
120.229243
 30
0.0
 11
830.504473
 21
120.229243
 31
0.0
  0
LINE
  5
36D
330
1F
100
AcDbEntity
  8
GR1-1
  6
CONTINUOUS
 62
     8
100
AcDbLine
 10
780.674192
 20
122.692388
 30
0.0
 11
781.449699
 21
124.38216
 31
0.0
  0
LINE
  5
36E
330
1F
100
AcDbEntity
  8
GR1-1
  6
CONTINUOUS
 62
     2
100
AcDbLine
 10
781.243895
 20
122.778361
 30
0.0
 11
782.585536
 21
122.10754
 31
0.0
  0
LINE
  5
36F
330
1F
100
AcDbEntity
  8
GR1-1
  6
CONTINUOUS
 62
     2
100
AcDbLine
 10
782.764421
 20
125.819413
 30
0.0
 11
781.243895
 21
122.778361
 31
0.0
  0
TEXT
  5
370
330
1F
100
AcDbEntity
  8
GR1-1
  6
CONTINUOUS
 62
     4
100
AcDbText
 10
778.699922
 20
129.422461
 30
0.0
 40
1.5
  1
1:0.5
 50
63.0
 41
0.7
  7
FX_VECTOR
 72
     5
 11
781.083372
 21
134.100245
 31
0.0
100
AcDbText
  0
INSERT
  5
374
330
1F
100
AcDbEntity
  8
0
100
AcDbBlockReference
  2
BLKF060
 10
0.0
 20
0.0
 30
0.0
  0
LINE
  5
37F
330
1F
100
AcDbEntity
  8
GR1-1
  6
CONTINUOUS
 62
     8
100
AcDbLine
 10
779.971045
 20
121.380142
 30
0.0
 11
780.298619
 21
121.905267
 31
0.0
  0
LINE
  5
380
330
1F
100
AcDbEntity
  8
GR1-1
  6
CONTINUOUS
 62
     4
100
AcDbLine
 10
780.192943
 20
120.229243
 30
0.0
 11
781.42278
 21
122.688918
 31
0.0
  0
LINE
  5
381
330
1F
100
AcDbEntity
  8
GR1-1
  6
CONTINUOUS
 62
     8
100
AcDbLine
 10
779.955525
 20
121.024817
 30
0.0
 11
779.971045
 21
121.380142
 31
0.0
  0
LINE
  5
382
330
1F
100
AcDbEntity
  8
GR1-1
  6
CONTINUOUS
 62
     8
100
AcDbLine
 10
780.342816
 20
120.506888
 30
0.0
 11
779.955525
 21
121.024817
 31
0.0
  0
LINE
  5
383
330
1F
100
AcDbEntity
  8
GR1-1
  6
CONTINUOUS
 62
     8
100
AcDbLine
 10
780.414148
 20
122.289474
 30
0.0
 11
780.674192
 21
122.692388
 31
0.0
  0
LINE
  5
384
330
1F
100
AcDbEntity
  8
GR1-1
  6
CONTINUOUS
 62
     8
100
AcDbLine
 10
780.298619
 20
121.905267
 30
0.0
 11
780.414148
 21
122.289474
 31
0.0
  0
LINE
  5
385
330
1F
100
AcDbEntity
  8
GR1-1
  6
CONTINUOUS
 62
     8
100
AcDbLine
 10
785.365592
 20
132.139473
 30
0.0
 11
785.651396
 21
132.758638
 31
0.0
  0
INSERT
  5
389
330
1F
100
AcDbEntity
  8
0
100
AcDbBlockReference
  2
BLKF061
 10
0.0
 20
0.0
 30
0.0
  0
INSERT
  5
398
330
1F
100
AcDbEntity
  8
0
100
AcDbBlockReference
  2
BLKF062
 10
0.0
 20
0.0
 30
0.0
  0
LINE
  5
3A4
330
1F
100
AcDbEntity
  8
GR1-1
  6
CONTINUOUS
 62
     4
100
AcDbLine
 10
782.764421
 20
120.229243
 30
0.0
 11
789.919839
 21
134.540078
 31
0.0
  0
LINE
  5
3A5
330
1F
100
AcDbEntity
  8
GR1-1
  6
CONTINUOUS
 62
     4
100
AcDbLine
 10
783.211635
 20
120.229243
 30
0.0
 11
790.367052
 21
134.540078
 31
0.0
  0
LINE
  5
3A6
330
1F
100
AcDbEntity
  8
GR1-1
  6
CONTINUOUS
 62
     4
100
AcDbLine
 10
782.943307
 20
125.72997
 30
0.0
 11
787.348361
 21
134.540078
 31
0.0
  0
LINE
  5
3A7
330
1F
100
AcDbEntity
  8
GR1-1
  6
CONTINUOUS
 62
     4
100
AcDbLine
 10
784.106062
 20
125.148593
 30
0.0
 11
788.801805
 21
134.540078
 31
0.0
  0
LINE
  5
3A8
330
1F
100
AcDbEntity
  8
GR1-1
  6
CONTINUOUS
 62
     8
100
AcDbLine
 10
781.992811
 20
125.320374
 30
0.0
 11
781.836065
 21
125.0038
 31
0.0
  0
LINE
  5
3A9
330
1F
100
AcDbEntity
  8
GR1-1
  6
CONTINUOUS
 62
     8
100
AcDbLine
 10
781.836065
 20
125.0038
 30
0.0
 11
782.143698
 21
125.666347
 31
0.0
  0
LINE
  5
3AA
330
1F
100
AcDbEntity
  8
GR1-1
  6
CONTINUOUS
 62
     8
100
AcDbLine
 10
781.449699
 20
124.38216
 30
0.0
 11
781.992811
 21
125.320374
 31
0.0
  0
LINE
  5
3AB
330
1F
100
AcDbEntity
  8
GR1-1
  6
CONTINUOUS
 62
     2
100
AcDbLine
 10
782.764421
 20
125.819413
 30
0.0
 11
784.106062
 21
125.148593
 31
0.0
  0
LINE
  5
3AC
330
1F
100
AcDbEntity
  8
GR1-1
  6
CONTINUOUS
 62
     4
100
AcDbLine
 10
781.646387
 20
120.229243
 30
0.0
 11
782.585536
 21
122.10754
 31
0.0
  0
ARC
  5
3AD
330
1F
100
AcDbEntity
  8
GR1-1
  6
CONTINUOUS
 62
     2
100
AcDbCircle
 10
777.492105
 20
126.554914
 30
0.0
 40
6.761817216230002
100
AcDbArc
 50
318.873879
 51
347.99601
  0
LINE
  5
3AE
330
1F
100
AcDbEntity
  8
GR1-1
  6
CONTINUOUS
 62
     8
100
AcDbLine
 10
783.435182
 20
128.176851
 30
0.0
 11
783.744195
 21
128.940785
 31
0.0
  0
LINE
  5
3AF
330
1F
100
AcDbEntity
  8
GR1-1
  6
CONTINUOUS
 62
     8
100
AcDbLine
 10
782.533764
 20
126.270718
 30
0.0
 11
782.702022
 21
126.69203
 31
0.0
  0
LINE
  5
3B0
330
1F
100
AcDbEntity
  8
GR1-1
  6
CONTINUOUS
 62
     8
100
AcDbLine
 10
782.518963
 20
126.185612
 30
0.0
 11
782.533764
 21
126.270718
 31
0.0
  0
LINE
  5
3B1
330
1F
100
AcDbEntity
  8
GR1-1
  6
CONTINUOUS
 62
     8
100
AcDbLine
 10
782.143698
 20
125.666347
 30
0.0
 11
782.588137
 21
126.037192
 31
0.0
  0
LINE
  5
3B2
330
1F
100
AcDbEntity
  8
GR1-1
  6
CONTINUOUS
 62
     8
100
AcDbLine
 10
782.949527
 20
125.930502
 30
0.0
 11
782.518963
 21
126.185612
 31
0.0
  0
LINE
  5
3B3
330
1F
100
AcDbEntity
  8
GR1-1
  6
CONTINUOUS
 62
     8
100
AcDbLine
 10
782.588137
 20
126.037192
 30
0.0
 11
782.949527
 21
125.930502
 31
0.0
  0
LINE
  5
3B4
330
1F
100
AcDbEntity
  8
GR1-1
  6
CONTINUOUS
 62
     8
100
AcDbLine
 10
782.702022
 20
126.69203
 30
0.0
 11
783.435182
 21
128.176851
 31
0.0
  0
LINE
  5
3B5
330
1F
100
AcDbEntity
  8
GR1-1
  6
CONTINUOUS
 62
     8
100
AcDbLine
 10
783.744195
 20
128.940785
 30
0.0
 11
783.955135
 21
129.338502
 31
0.0
  0
LINE
  5
3B6
330
1F
100
AcDbEntity
  8
GR1-1
  6
CONTINUOUS
 62
     8
100
AcDbLine
 10
784.224064
 20
129.860635
 30
0.0
 11
784.537865
 21
130.442215
 31
0.0
  0
LINE
  5
3B7
330
1F
100
AcDbEntity
  8
GR1-1
  6
CONTINUOUS
 62
     8
100
AcDbLine
 10
783.955135
 20
129.338502
 30
0.0
 11
784.224064
 21
129.860635
 31
0.0
  0
LINE
  5
3B8
330
1F
100
AcDbEntity
  8
GR1-1
  6
CONTINUOUS
 62
     8
100
AcDbLine
 10
784.99733
 20
130.429559
 30
0.0
 11
785.239028
 21
130.387524
 31
0.0
  0
LINE
  5
3B9
330
1F
100
AcDbEntity
  8
GR1-1
  6
CONTINUOUS
 62
     8
100
AcDbLine
 10
784.537865
 20
130.442215
 30
0.0
 11
784.709531
 21
130.614112
 31
0.0
  0
LINE
  5
3BA
330
1F
100
AcDbEntity
  8
GR1-1
  6
CONTINUOUS
 62
     8
100
AcDbLine
 10
784.709531
 20
130.614112
 30
0.0
 11
784.99733
 21
130.429559
 31
0.0
  0
LINE
  5
3BB
330
1F
100
AcDbEntity
  8
GR1-1
  6
CONTINUOUS
 62
     8
100
AcDbLine
 10
784.754634
 20
130.873452
 30
0.0
 11
785.073958
 21
131.486788
 31
0.0
  0
LINE
  5
3BC
330
1F
100
AcDbEntity
  8
GR1-1
  6
CONTINUOUS
 62
     8
100
AcDbLine
 10
784.824973
 20
130.661285
 30
0.0
 11
784.754634
 21
130.873452
 31
0.0
  0
LINE
  5
3BD
330
1F
100
AcDbEntity
  8
GR1-1
  6
CONTINUOUS
 62
     8
100
AcDbLine
 10
785.272548
 20
130.381694
 30
0.0
 11
784.824973
 21
130.661285
 31
0.0
  0
LINE
  5
3BE
330
1F
100
AcDbEntity
  8
GR1-1
  6
CONTINUOUS
 62
     8
100
AcDbLine
 10
785.073958
 20
131.486788
 30
0.0
 11
785.365592
 21
132.139473
 31
0.0
  0
LINE
  5
3BF
330
1F
100
AcDbEntity
  8
GR1-1
  6
CONTINUOUS
 62
     8
100
AcDbLine
 10
786.13533
 20
133.712316
 30
0.0
 11
786.456725
 21
134.327109
 31
0.0
  0
LINE
  5
3C0
330
1F
100
AcDbEntity
  8
GR1-1
  6
CONTINUOUS
 62
     8
100
AcDbLine
 10
785.93697
 20
133.17791
 30
0.0
 11
786.13533
 21
133.712316
 31
0.0
  0
LINE
  5
3C1
330
1F
100
AcDbEntity
  8
GR1-1
  6
CONTINUOUS
 62
     8
100
AcDbLine
 10
785.651396
 20
132.758638
 30
0.0
 11
785.93697
 21
133.17791
 31
0.0
  0
LINE
  5
3C2
330
1F
100
AcDbEntity
  8
GR1-1
  6
CONTINUOUS
 62
     8
100
AcDbLine
 10
786.834499
 20
134.461343
 30
0.0
 11
787.235974
 21
134.32427
 31
0.0
  0
LINE
  5
3C3
330
1F
100
AcDbEntity
  8
GR1-1
  6
CONTINUOUS
 62
     8
100
AcDbLine
 10
786.581448
 20
134.438101
 30
0.0
 11
786.834499
 21
134.461343
 31
0.0
  0
LINE
  5
3C4
330
1F
100
AcDbEntity
  8
GR1-1
  6
CONTINUOUS
 62
     8
100
AcDbLine
 10
786.456725
 20
134.327109
 30
0.0
 11
786.581448
 21
134.438101
 31
0.0
  0
INSERT
  5
3C8
330
1F
100
AcDbEntity
  8
0
100
AcDbBlockReference
  2
BLKF063
 10
0.0
 20
0.0
 30
0.0
  0
INSERT
  5
3D7
330
1F
100
AcDbEntity
  8
0
100
AcDbBlockReference
  2
BLKF064
 10
0.0
 20
0.0
 30
0.0
  0
INSERT
  5
3E6
330
1F
100
AcDbEntity
  8
0
100
AcDbBlockReference
  2
BLKF065
 10
0.0
 20
0.0
 30
0.0
  0
INSERT
  5
3F4
330
1F
100
AcDbEntity
  8
0
100
AcDbBlockReference
  2
BLKF066
 10
0.0
 20
0.0
 30
0.0
  0
INSERT
  5
402
330
1F
100
AcDbEntity
  8
0
100
AcDbBlockReference
  2
BLKF067
 10
0.0
 20
0.0
 30
0.0
  0
INSERT
  5
411
330
1F
100
AcDbEntity
  8
0
100
AcDbBlockReference
  2
BLKF068
 10
0.0
 20
0.0
 30
0.0
  0
LINE
  5
41C
330
1F
100
AcDbEntity
  8
GR1-1
  6
CONTINUOUS
 62
     4
100
AcDbLine
 10
830.504473
 20
120.229243
 30
0.0
 11
837.65989
 21
134.540078
 31
0.0
  0
LINE
  5
41D
330
1F
100
AcDbEntity
  8
GR1-1
  6
CONTINUOUS
 62
     4
100
AcDbLine
 10
832.338048
 20
126.803283
 30
0.0
 11
836.206446
 21
134.540078
 31
0.0
  0
LINE
  5
41E
330
1F
100
AcDbEntity
  8
GR1-1
  6
CONTINUOUS
 62
     4
100
AcDbLine
 10
827.932994
 20
120.229243
 30
0.0
 11
835.088412
 21
134.540078
 31
0.0
  0
LINE
  5
41F
330
1F
100
AcDbEntity
  8
GR1-1
  6
CONTINUOUS
 62
     4
100
AcDbLine
 10
827.485781
 20
120.229243
 30
0.0
 11
834.641198
 21
134.540078
 31
0.0
  0
ARC
  5
420
330
1F
100
AcDbEntity
  8
GR1-1
  6
CONTINUOUS
 62
     2
100
AcDbCircle
 10
837.43148
 20
122.35591
 30
0.0
 40
6.761817216230011
100
AcDbArc
 50
138.873888
 51
167.996018
  0
LINE
  5
421
330
1F
100
AcDbEntity
  8
GR1-1
  6
CONTINUOUS
 62
     2
100
AcDbLine
 10
833.232475
 20
126.356069
 30
0.0
 11
831.711949
 21
123.315017
 31
0.0
  0
LINE
  5
422
330
1F
100
AcDbEntity
  8
GR1-1
  6
CONTINUOUS
 62
     4
100
AcDbLine
 10
829.051028
 20
120.229243
 30
0.0
 11
830.817522
 21
123.762231
 31
0.0
  0
LINE
  5
423
330
1F
100
AcDbEntity
  8
GR1-1
  6
CONTINUOUS
 62
     2
100
AcDbLine
 10
831.711949
 20
123.315017
 30
0.0
 11
830.817522
 21
123.76223
 31
0.0
  0
LINE
  5
424
330
1F
100
AcDbEntity
  8
GR1-1
  6
CONTINUOUS
 62
     2
100
AcDbLine
 10
833.232475
 20
126.356069
 30
0.0
 11
832.338048
 21
126.803283
 31
0.0
  0
INSERT
  5
428
330
1F
100
AcDbEntity
  8
0
100
AcDbBlockReference
  2
BLKF069
 10
0.0
 20
0.0
 30
0.0
  0
INSERT
  5
436
330
1F
100
AcDbEntity
  8
0
100
AcDbBlockReference
  2
BLKF070
 10
0.0
 20
0.0
 30
0.0
  0
INSERT
  5
444
330
1F
100
AcDbEntity
  8
0
100
AcDbBlockReference
  2
BLKF071
 10
0.0
 20
0.0
 30
0.0
  0
INSERT
  5
452
330
1F
100
AcDbEntity
  8
0
100
AcDbBlockReference
  2
BLKF072
 10
0.0
 20
0.0
 30
0.0
  0
INSERT
  5
461
330
1F
100
AcDbEntity
  8
0
100
AcDbBlockReference
  2
BLKF073
 10
0.0
 20
0.0
 30
0.0
  0
LINE
  5
46C
330
1F
100
AcDbEntity
  8
GR1-1
  6
CONTINUOUS
 62
     4
100
AcDbLine
 10
691.791394
 20
124.384661
 30
0.0
 11
710.523552
 21
124.384661
 31
0.0
  0
LINE
  5
46D
330
1F
100
AcDbEntity
  8
GR1-1
  6
CONTINUOUS
 62
     4
100
AcDbLine
 10
691.791394
 20
130.384661
 30
0.0
 11
710.523552
 21
130.384661
 31
0.0
  0
LINE
  5
46E
330
1F
100
AcDbEntity
  8
GR1-1
  6
CONTINUOUS
 62
     4
100
AcDbLine
 10
685.391394
 20
130.384661
 30
0.0
 11
672.249406
 21
130.384661
 31
0.0
  0
LINE
  5
46F
330
1F
100
AcDbEntity
  8
GR1-1
  6
CONTINUOUS
 62
     4
100
AcDbLine
 10
685.391394
 20
124.384661
 30
0.0
 11
672.249406
 21
124.384661
 31
0.0
  0
LINE
  5
470
330
1F
100
AcDbEntity
  8
GR1-1
  6
CONTINUOUS
 62
     4
100
AcDbLine
 10
671.649406
 20
124.984661
 30
0.0
 11
671.649406
 21
129.784661
 31
0.0
  0
LINE
  5
471
330
1F
100
AcDbEntity
  8
GR1-1
  6
CONTINUOUS
 62
     4
100
AcDbLine
 10
691.191394
 20
129.784661
 30
0.0
 11
691.191394
 21
124.984661
 31
0.0
  0
LINE
  5
472
330
1F
100
AcDbEntity
  8
GR1-1
  6
CONTINUOUS
 62
     4
100
AcDbLine
 10
685.991394
 20
129.784661
 30
0.0
 11
685.991394
 21
124.984661
 31
0.0
  0
LINE
  5
473
330
1F
100
AcDbEntity
  8
GR1-1
  6
CONTINUOUS
 62
     4
100
AcDbLine
 10
711.123552
 20
124.984661
 30
0.0
 11
711.123552
 21
129.784661
 31
0.0
  0
INSERT
  5
477
330
1F
100
AcDbEntity
  8
0
100
AcDbBlockReference
  2
BLKF074
 10
0.0
 20
0.0
 30
0.0
  0
INSERT
  5
486
330
1F
100
AcDbEntity
  8
0
100
AcDbBlockReference
  2
BLKF075
 10
0.0
 20
0.0
 30
0.0
  0
INSERT
  5
495
330
1F
100
AcDbEntity
  8
0
100
AcDbBlockReference
  2
BLKF076
 10
0.0
 20
0.0
 30
0.0
  0
INSERT
  5
4A3
330
1F
100
AcDbEntity
  8
0
100
AcDbBlockReference
  2
BLKF077
 10
0.0
 20
0.0
 30
0.0
  0
INSERT
  5
4B2
330
1F
100
AcDbEntity
  8
0
100
AcDbBlockReference
  2
BLKF078
 10
0.0
 20
0.0
 30
0.0
  0
INSERT
  5
4C0
330
1F
100
AcDbEntity
  8
0
100
AcDbBlockReference
  2
BLKF079
 10
0.0
 20
0.0
 30
0.0
  0
INSERT
  5
4CF
330
1F
100
AcDbEntity
  8
0
100
AcDbBlockReference
  2
BLKF080
 10
0.0
 20
0.0
 30
0.0
  0
INSERT
  5
4DE
330
1F
100
AcDbEntity
  8
0
100
AcDbBlockReference
  2
BLKF081
 10
0.0
 20
0.0
 30
0.0
  0
INSERT
  5
4EC
330
1F
100
AcDbEntity
  8
0
100
AcDbBlockReference
  2
BLKF082
 10
0.0
 20
0.0
 30
0.0
  0
TEXT
  5
4F7
330
1F
100
AcDbEntity
  8
GR1-1
  6
CONTINUOUS
 62
     4
100
AcDbText
 10
741.054609
 20
152.738379
 30
0.0
 40
2.0
  1
A
 41
0.7
  7
FX_VECTOR
 72
     5
 11
742.454609
 21
152.738379
 31
0.0
100
AcDbText
  0
LINE
  5
4F8
330
1F
100
AcDbEntity
  8
GR1-1
  6
CONTINUOUS
 62
     2
100
AcDbLine
 10
743.005876
 20
152.076625
 30
0.0
 11
743.005876
 21
155.141583
 31
0.0
  0
INSERT
  5
4FC
330
1F
100
AcDbEntity
  8
0
100
AcDbBlockReference
  2
BLKF083
 10
0.0
 20
0.0
 30
0.0
  0
LINE
  5
507
330
1F
100
AcDbEntity
  8
GR1-1
  6
CONTINUOUS
 62
     2
100
AcDbLine
 10
739.999804
 20
152.086296
 30
0.0
 11
743.005876
 21
152.086296
 31
0.0
  0
INSERT
  5
508
330
1F
100
AcDbEntity
  8
GR1-1
  6
CONTINUOUS
 62
     2
100
AcDbBlockReference
  2
FXTIP_ARROW_S
 10
739.999804
 20
152.086296
 30
0.0
 41
2.0
 42
2.0
 50
180.0
  0
LINE
  5
509
330
1F
100
AcDbEntity
  8
GR1-1
  6
CONTINUOUS
 62
     4
100
AcDbLine
 10
745.083661
 20
210.509482
 30
0.0
 11
745.083661
 21
166.198633
 31
0.0
  0
LINE
  5
50A
330
1F
100
AcDbEntity
  8
GR1-1
  6
CONTINUOUS
 62
     4
100
AcDbLine
 10
745.483661
 20
210.909482
 30
0.0
 11
745.483661
 21
203.754065
 31
0.0
  0
LINE
  5
50B
330
1F
100
AcDbEntity
  8
GR1-1
  6
CONTINUOUS
 62
     4
100
AcDbLine
 10
741.083661
 20
210.509482
 30
0.0
 11
741.083661
 21
166.198633
 31
0.0
  0
LINE
  5
50C
330
1F
100
AcDbEntity
  8
GR1-1
  6
CONTINUOUS
 62
     4
100
AcDbLine
 10
740.683661
 20
210.909482
 30
0.0
 11
740.683661
 21
203.754065
 31
0.0
  0
INSERT
  5
510
330
1F
100
AcDbEntity
  8
0
100
AcDbBlockReference
  2
BLKF084
 10
0.0
 20
0.0
 30
0.0
  0
INSERT
  5
51F
330
1F
100
AcDbEntity
  8
0
100
AcDbBlockReference
  2
BLKF085
 10
0.0
 20
0.0
 30
0.0
  0
LINE
  5
52B
330
1F
100
AcDbEntity
  8
GR1-1
  6
CONTINUOUS
 62
     4
100
AcDbLine
 10
736.883661
 20
213.480961
 30
0.0
 11
736.883661
 21
204.872099
 31
0.0
  0
LINE
  5
52C
330
1F
100
AcDbEntity
  8
GR1-1
  6
CONTINUOUS
 62
     4
100
AcDbLine
 10
749.283661
 20
213.480961
 30
0.0
 11
749.283661
 21
204.872099
 31
0.0
  0
INSERT
  5
530
330
1F
100
AcDbEntity
  8
0
100
AcDbBlockReference
  2
BLKF086
 10
0.0
 20
0.0
 30
0.0
  0
INSERT
  5
53F
330
1F
100
AcDbEntity
  8
0
100
AcDbBlockReference
  2
BLKF087
 10
0.0
 20
0.0
 30
0.0
  0
LINE
  5
54B
330
1F
100
AcDbEntity
  8
GR1-1
  6
CONTINUOUS
 62
     4
100
AcDbLine
 10
736.833661
 20
156.024523
 30
0.0
 11
749.333661
 21
156.024523
 31
0.0
  0
LINE
  5
54C
330
1F
100
AcDbEntity
  8
GR1-1
  6
CONTINUOUS
 62
     4
100
AcDbLine
 10
749.333661
 20
163.179941
 30
0.0
 11
736.833661
 21
163.179941
 31
0.0
  0
LINE
  5
54D
330
1F
100
AcDbEntity
  8
GR1-1
  6
CONTINUOUS
 62
     4
100
AcDbLine
 10
736.833661
 20
163.179941
 30
0.0
 11
749.333661
 21
163.179941
 31
0.0
  0
INSERT
  5
551
330
1F
100
AcDbEntity
  8
0
100
AcDbBlockReference
  2
BLKF088
 10
0.0
 20
0.0
 30
0.0
  0
LINE
  5
55C
330
1F
100
AcDbEntity
  8
GR1-1
  6
CONTINUOUS
 62
     4
100
AcDbLine
 10
736.833661
 20
164.633385
 30
0.0
 11
736.833661
 21
156.024523
 31
0.0
  0
LINE
  5
55D
330
1F
100
AcDbEntity
  8
GR1-1
  6
CONTINUOUS
 62
     4
100
AcDbLine
 10
736.833661
 20
164.633385
 30
0.0
 11
740.683661
 21
165.751419
 31
0.0
  0
LINE
  5
55E
330
1F
100
AcDbEntity
  8
GR1-1
  6
CONTINUOUS
 62
     4
100
AcDbLine
 10
740.683661
 20
165.751419
 30
0.0
 11
741.083661
 21
166.198633
 31
0.0
  0
LINE
  5
55F
330
1F
100
AcDbEntity
  8
GR1-1
  6
CONTINUOUS
 62
     2
100
AcDbLine
 10
747.902936
 20
167.157049
 30
0.0
 11
754.000387
 21
167.157049
 31
0.0
  0
INSERT
  5
563
330
1F
100
AcDbEntity
  8
0
100
AcDbBlockReference
  2
BLKF089
 10
0.0
 20
0.0
 30
0.0
  0
LINE
  5
56E
330
1F
100
AcDbEntity
  8
GR1-1
  6
CONTINUOUS
 62
     4
100
AcDbLine
 10
749.333661
 20
164.633385
 30
0.0
 11
749.333661
 21
156.024523
 31
0.0
  0
INSERT
  5
572
330
1F
100
AcDbEntity
  8
0
100
AcDbBlockReference
  2
BLKF090
 10
0.0
 20
0.0
 30
0.0
  0
CIRCLE
  5
577
330
1F
100
AcDbEntity
  8
GR1-1
  6
CONTINUOUS
 62
     2
100
AcDbCircle
 10
743.083661
 20
165.179941
 30
0.0
 40
0.3
  0
LINE
  5
578
330
1F
100
AcDbEntity
  8
GR1-1
  6
CONTINUOUS
 62
     2
100
AcDbLine
 10
743.083661
 20
167.487134
 30
0.0
 11
743.083661
 21
166.872748
 31
0.0
  0
CIRCLE
  5
579
330
1F
100
AcDbEntity
  8
GR1-1
  6
CONTINUOUS
 62
     2
100
AcDbCircle
 10
743.083661
 20
167.179941
 30
0.0
 40
0.1
  0
LINE
  5
57A
330
1F
100
AcDbEntity
  8
GR1-1
  6
CONTINUOUS
 62
     2
100
AcDbLine
 10
742.776467
 20
167.179941
 30
0.0
 11
743.390854
 21
167.179941
 31
0.0
  0
CIRCLE
  5
57B
330
1F
100
AcDbEntity
  8
GR1-1
  6
CONTINUOUS
 62
     4
100
AcDbCircle
 10
743.083661
 20
167.179941
 30
0.0
 40
0.6
  0
LINE
  5
57C
330
1F
100
AcDbEntity
  8
GR1-1
  6
CONTINUOUS
 62
     4
100
AcDbLine
 10
749.333661
 20
164.633385
 30
0.0
 11
745.483661
 21
165.751419
 31
0.0
  0
LINE
  5
57D
330
1F
100
AcDbEntity
  8
GR1-1
  6
CONTINUOUS
 62
     4
100
AcDbLine
 10
745.483661
 20
165.751419
 30
0.0
 11
745.083661
 21
166.198633
 31
0.0
  0
LINE
  5
57E
330
1F
100
AcDbEntity
  8
GR1-1
  6
CONTINUOUS
 62
     4
100
AcDbLine
 10
736.883661
 20
204.872099
 30
0.0
 11
740.683661
 21
203.754065
 31
0.0
  0
LINE
  5
57F
330
1F
100
AcDbEntity
  8
GR1-1
  6
CONTINUOUS
 62
     4
100
AcDbLine
 10
740.683661
 20
203.754065
 30
0.0
 11
741.083661
 21
203.354065
 31
0.0
  0
LINE
  5
580
330
1F
100
AcDbEntity
  8
GR1-1
  6
CONTINUOUS
 62
     4
100
AcDbLine
 10
745.483661
 20
203.754065
 30
0.0
 11
749.283661
 21
204.872099
 31
0.0
  0
LINE
  5
581
330
1F
100
AcDbEntity
  8
GR1-1
  6
CONTINUOUS
 62
     4
100
AcDbLine
 10
745.083661
 20
203.354065
 30
0.0
 11
745.483661
 21
203.754065
 31
0.0
  0
INSERT
  5
585
330
1F
100
AcDbEntity
  8
0
100
AcDbBlockReference
  2
BLKF091
 10
0.0
 20
0.0
 30
0.0
  0
LINE
  5
590
330
1F
100
AcDbEntity
  8
GR1-1
  6
CONTINUOUS
 62
     4
100
AcDbLine
 10
736.883661
 20
213.480961
 30
0.0
 11
749.283661
 21
213.480961
 31
0.0
  0
INSERT
  5
594
330
1F
100
AcDbEntity
  8
0
100
AcDbBlockReference
  2
BLKF092
 10
0.0
 20
0.0
 30
0.0
  0
INSERT
  5
5A3
330
1F
100
AcDbEntity
  8
0
100
AcDbBlockReference
  2
BLKF093
 10
0.0
 20
0.0
 30
0.0
  0
LINE
  5
5AE
330
1F
100
AcDbEntity
  8
GR1-1
  6
CONTINUOUS
 62
     4
100
AcDbLine
 10
736.883661
 20
212.027516
 30
0.0
 11
740.683661
 21
210.909482
 31
0.0
  0
LINE
  5
5AF
330
1F
100
AcDbEntity
  8
GR1-1
  6
CONTINUOUS
 62
     4
100
AcDbLine
 10
740.683661
 20
210.909482
 30
0.0
 11
741.083661
 21
210.509482
 31
0.0
  0
INSERT
  5
5B3
330
1F
100
AcDbEntity
  8
0
100
AcDbBlockReference
  2
BLKF094
 10
0.0
 20
0.0
 30
0.0
  0
INSERT
  5
5C1
330
1F
100
AcDbEntity
  8
0
100
AcDbBlockReference
  2
BLKF095
 10
0.0
 20
0.0
 30
0.0
  0
LINE
  5
5CD
330
1F
100
AcDbEntity
  8
GR1-1
  6
CONTINUOUS
 62
     2
100
AcDbLine
 10
743.083661
 20
211.788155
 30
0.0
 11
743.083661
 21
211.173768
 31
0.0
  0
LINE
  5
5CE
330
1F
100
AcDbEntity
  8
GR1-1
  6
CONTINUOUS
 62
     2
100
AcDbLine
 10
742.776467
 20
211.480961
 30
0.0
 11
743.390854
 21
211.480961
 31
0.0
  0
CIRCLE
  5
5CF
330
1F
100
AcDbEntity
  8
GR1-1
  6
CONTINUOUS
 62
     4
100
AcDbCircle
 10
743.083661
 20
211.480961
 30
0.0
 40
0.6
  0
CIRCLE
  5
5D0
330
1F
100
AcDbEntity
  8
GR1-1
  6
CONTINUOUS
 62
     2
100
AcDbCircle
 10
743.083661
 20
211.480961
 30
0.0
 40
0.1
  0
LINE
  5
5D1
330
1F
100
AcDbEntity
  8
GR1-1
  6
CONTINUOUS
 62
     2
100
AcDbLine
 10
739.999804
 20
227.147612
 30
0.0
 11
743.005876
 21
227.147612
 31
0.0
  0
INSERT
  5
5D2
330
1F
100
AcDbEntity
  8
GR1-1
  6
CONTINUOUS
 62
     2
100
AcDbBlockReference
  2
FXTIP_ARROW_S
 10
739.999804
 20
227.147612
 30
0.0
 41
2.0
 42
2.0
 50
180.0
  0
LINE
  5
5D3
330
1F
100
AcDbEntity
  8
GR1-1
  6
CONTINUOUS
 62
     2
100
AcDbLine
 10
743.005876
 20
227.157282
 30
0.0
 11
743.005876
 21
224.092325
 31
0.0
  0
TEXT
  5
5D4
330
1F
100
AcDbEntity
  8
GR1-1
  6
CONTINUOUS
 62
     4
100
AcDbText
 10
741.054609
 20
224.495527
 30
0.0
 40
2.0
  1
A
 41
0.7
  7
FX_VECTOR
 72
     5
 11
742.454609
 21
224.495527
 31
0.0
100
AcDbText
  0
INSERT
  5
5D8
330
1F
100
AcDbEntity
  8
0
100
AcDbBlockReference
  2
BLKF096
 10
0.0
 20
0.0
 30
0.0
  0
LINE
  5
5E4
330
1F
100
AcDbEntity
  8
GR1-1
  6
CONTINUOUS
 62
     4
100
AcDbLine
 10
745.483661
 20
210.909482
 30
0.0
 11
749.283661
 21
212.027516
 31
0.0
  0
LINE
  5
5E5
330
1F
100
AcDbEntity
  8
GR1-1
  6
CONTINUOUS
 62
     4
100
AcDbLine
 10
745.083661
 20
210.509482
 30
0.0
 11
745.483661
 21
210.909482
 31
0.0
  0
INSERT
  5
5E9
330
1F
100
AcDbEntity
  8
0
100
AcDbBlockReference
  2
BLKF097
 10
0.0
 20
0.0
 30
0.0
  0
LINE
  5
5F4
330
1F
100
AcDbEntity
  8
GR1-1
  6
CONTINUOUS
 62
     2
100
AcDbLine
 10
747.891913
 20
131.629268
 30
0.0
 11
747.697567
 21
130.344549
 31
0.0
  0
LINE
  5
5F5
330
1F
100
AcDbEntity
  8
GR1-1
  6
CONTINUOUS
 62
     2
100
AcDbLine
 10
742.631253
 20
130.998537
 30
0.0
 11
742.621617
 21
132.94504
 31
0.0
  0
INSERT
  5
5F9
330
1F
100
AcDbEntity
  8
0
100
AcDbBlockReference
  2
BLKF098
 10
0.0
 20
0.0
 30
0.0
  0
LINE
  5
5FE
330
1F
100
AcDbEntity
  8
GR1-1
  6
CONTINUOUS
 62
     4
100
AcDbLine
 10
736.833661
 20
134.540078
 30
0.0
 11
736.833661
 21
120.229243
 31
0.0
  0
LINE
  5
5FF
330
1F
100
AcDbEntity
  8
GR1-1
  6
CONTINUOUS
 62
     4
100
AcDbLine
 10
749.333661
 20
134.540078
 30
0.0
 11
749.333661
 21
120.229243
 31
0.0
  0
LINE
  5
600
330
1F
100
AcDbEntity
  8
GR1-1
  6
CONTINUOUS
 62
     2
100
AcDbLine
 10
743.061869
 20
130.389554
 30
0.0
 11
745.039412
 21
130.86305
 31
0.0
  0
LINE
  5
601
330
1F
100
AcDbEntity
  8
GR1-1
  6
CONTINUOUS
 62
     2
100
AcDbLine
 10
744.154842
 20
121.830892
 30
0.0
 11
746.039082
 21
123.638224
 31
0.0
  0
LINE
  5
602
330
1F
100
AcDbEntity
  8
GR1-1
  6
CONTINUOUS
 62
     2
100
AcDbLine
 10
747.212451
 20
129.021491
 30
0.0
 11
744.633916
 21
123.280684
 31
0.0
  0
LINE
  5
603
330
1F
100
AcDbEntity
  8
GR1-1
  6
CONTINUOUS
 62
     4
100
AcDbLine
 10
736.833661
 20
120.229243
 30
0.0
 11
749.333661
 21
120.229243
 31
0.0
  0
LINE
  5
604
330
1F
100
AcDbEntity
  8
GR1-1
  6
CONTINUOUS
 62
     2
100
AcDbLine
 10
740.815709
 20
124.868805
 30
0.0
 11
741.916414
 21
123.672402
 31
0.0
  0
LINE
  5
605
330
1F
100
AcDbEntity
  8
GR1-1
  6
CONTINUOUS
 62
     2
100
AcDbLine
 10
739.769461
 20
125.858473
 30
0.0
 11
740.70612
 21
123.882506
 31
0.0
  0
LINE
  5
606
330
1F
100
AcDbEntity
  8
GR1-1
  6
CONTINUOUS
 62
     2
100
AcDbLine
 10
740.70612
 20
123.882506
 30
0.0
 11
741.024588
 21
120.431349
 31
0.0
  0
LINE
  5
607
330
1F
100
AcDbEntity
  8
GR1-1
  6
CONTINUOUS
 62
     2
100
AcDbLine
 10
741.905464
 20
121.417351
 30
0.0
 11
741.905464
 21
120.431349
 31
0.0
  0
LINE
  5
608
330
1F
100
AcDbEntity
  8
GR1-1
  6
CONTINUOUS
 62
     2
100
AcDbLine
 10
744.633916
 20
123.280684
 30
0.0
 11
741.972011
 21
122.28247
 31
0.0
  0
LINE
  5
609
330
1F
100
AcDbEntity
  8
GR1-1
  6
CONTINUOUS
 62
     2
100
AcDbLine
 10
742.83713
 20
121.916458
 30
0.0
 11
741.905464
 21
121.417351
 31
0.0
  0
LINE
  5
60A
330
1F
100
AcDbEntity
  8
GR1-1
  6
CONTINUOUS
 62
     2
100
AcDbLine
 10
741.972011
 20
122.28247
 30
0.0
 11
741.916414
 21
123.672402
 31
0.0
  0
LINE
  5
60B
330
1F
100
AcDbEntity
  8
GR1-1
  6
CONTINUOUS
 62
     2
100
AcDbLine
 10
744.154842
 20
121.830892
 30
0.0
 11
742.83713
 21
121.916458
 31
0.0
  0
LINE
  5
60C
330
1F
100
AcDbEntity
  8
GR1-1
  6
CONTINUOUS
 62
     2
100
AcDbLine
 10
739.828253
 20
128.204702
 30
0.0
 11
741.339809
 21
129.43634
 31
0.0
  0
LINE
  5
60D
330
1F
100
AcDbEntity
  8
GR1-1
  6
CONTINUOUS
 62
     2
100
AcDbLine
 10
739.521786
 20
127.291712
 30
0.0
 11
737.115798
 21
129.053844
 31
0.0
  0
LINE
  5
60E
330
1F
100
AcDbEntity
  8
GR1-1
  6
CONTINUOUS
 62
     2
100
AcDbLine
 10
739.262914
 20
126.576007
 30
0.0
 11
737.013661
 21
126.381912
 31
0.0
  0
LINE
  5
60F
330
1F
100
AcDbEntity
  8
GR1-1
  6
CONTINUOUS
 62
     2
100
AcDbLine
 10
737.013661
 20
125.611152
 30
0.0
 11
738.65912
 21
125.99388
 31
0.0
  0
LINE
  5
610
330
1F
100
AcDbEntity
  8
GR1-1
  6
CONTINUOUS
 62
     2
100
AcDbLine
 10
739.262914
 20
126.576007
 30
0.0
 11
739.521786
 21
127.291712
 31
0.0
  0
LINE
  5
611
330
1F
100
AcDbEntity
  8
GR1-1
  6
CONTINUOUS
 62
     2
100
AcDbLine
 10
738.65912
 20
125.99388
 30
0.0
 11
739.769461
 21
125.858473
 31
0.0
  0
LINE
  5
612
330
1F
100
AcDbEntity
  8
GR1-1
  6
CONTINUOUS
 62
     2
100
AcDbLine
 10
739.828253
 20
128.204702
 30
0.0
 11
737.013661
 21
130.423504
 31
0.0
  0
LINE
  5
613
330
1F
100
AcDbEntity
  8
GR1-1
  6
CONTINUOUS
 62
     2
100
AcDbLine
 10
737.115798
 20
129.053844
 30
0.0
 11
737.013661
 21
129.200241
 31
0.0
  0
LINE
  5
614
330
1F
100
AcDbEntity
  8
GR1-1
  6
CONTINUOUS
 62
     2
100
AcDbLine
 10
741.531232
 20
128.180352
 30
0.0
 11
740.075985
 21
126.786608
 31
0.0
  0
LINE
  5
615
330
1F
100
AcDbEntity
  8
GR1-1
  6
CONTINUOUS
 62
     2
100
AcDbLine
 10
740.075985
 20
126.786608
 30
0.0
 11
740.815709
 21
124.868805
 31
0.0
  0
LINE
  5
616
330
1F
100
AcDbEntity
  8
GR1-1
  6
CONTINUOUS
 62
     2
100
AcDbLine
 10
743.061869
 20
130.389554
 30
0.0
 11
742.282677
 21
129.341675
 31
0.0
  0
LINE
  5
617
330
1F
100
AcDbEntity
  8
GR1-1
  6
CONTINUOUS
 62
     2
100
AcDbLine
 10
741.339809
 20
129.43634
 30
0.0
 11
742.631253
 21
130.998537
 31
0.0
  0
LINE
  5
618
330
1F
100
AcDbEntity
  8
GR1-1
  6
CONTINUOUS
 62
     2
100
AcDbLine
 10
742.282677
 20
129.341675
 30
0.0
 11
741.531232
 21
128.180352
 31
0.0
  0
LINE
  5
619
330
1F
100
AcDbEntity
  8
GR1-1
  6
CONTINUOUS
 62
     2
100
AcDbLine
 10
747.814664
 20
123.05544
 30
0.0
 11
746.331111
 21
124.151554
 31
0.0
  0
LINE
  5
61A
330
1F
100
AcDbEntity
  8
GR1-1
  6
CONTINUOUS
 62
     2
100
AcDbLine
 10
747.697998
 20
120.431349
 30
0.0
 11
747.633543
 21
121.735752
 31
0.0
  0
LINE
  5
61B
330
1F
100
AcDbEntity
  8
GR1-1
  6
CONTINUOUS
 62
     2
100
AcDbLine
 10
748.725905
 20
121.12655
 30
0.0
 11
748.80442
 21
120.431349
 31
0.0
  0
LINE
  5
61C
330
1F
100
AcDbEntity
  8
GR1-1
  6
CONTINUOUS
 62
     2
100
AcDbLine
 10
747.633543
 20
121.735752
 30
0.0
 11
746.039082
 21
123.638224
 31
0.0
  0
LINE
  5
61D
330
1F
100
AcDbEntity
  8
GR1-1
  6
CONTINUOUS
 62
     2
100
AcDbLine
 10
747.814664
 20
123.05544
 30
0.0
 11
748.725905
 21
121.12655
 31
0.0
  0
LINE
  5
61E
330
1F
100
AcDbEntity
  8
GR1-1
  6
CONTINUOUS
 62
     2
100
AcDbLine
 10
746.415139
 20
124.5927
 30
0.0
 11
747.725851
 21
128.126241
 31
0.0
  0
LINE
  5
61F
330
1F
100
AcDbEntity
  8
GR1-1
  6
CONTINUOUS
 62
     2
100
AcDbLine
 10
746.331111
 20
124.151554
 30
0.0
 11
746.415139
 21
124.5927
 31
0.0
  0
LINE
  5
620
330
1F
100
AcDbEntity
  8
GR1-1
  6
CONTINUOUS
 62
     2
100
AcDbLine
 10
746.92262
 20
130.924293
 30
0.0
 11
747.212451
 21
129.021491
 31
0.0
  0
LINE
  5
621
330
1F
100
AcDbEntity
  8
GR1-1
  6
CONTINUOUS
 62
     2
100
AcDbLine
 10
745.039412
 20
130.86305
 30
0.0
 11
746.92262
 21
130.924293
 31
0.0
  0
LINE
  5
622
330
1F
100
AcDbEntity
  8
GR1-1
  6
CONTINUOUS
 62
     2
100
AcDbLine
 10
749.169812
 20
129.318348
 30
0.0
 11
748.035861
 21
129.329667
 31
0.0
  0
LINE
  5
623
330
1F
100
AcDbEntity
  8
GR1-1
  6
CONTINUOUS
 62
     2
100
AcDbLine
 10
747.725851
 20
128.126241
 30
0.0
 11
749.153661
 21
128.693103
 31
0.0
  0
LINE
  5
624
330
1F
100
AcDbEntity
  8
GR1-1
  6
CONTINUOUS
 62
     2
100
AcDbLine
 10
747.697567
 20
130.344549
 30
0.0
 11
748.035861
 21
129.329667
 31
0.0
  0
LINE
  5
625
330
1F
100
AcDbEntity
  8
GR1-1
  6
CONTINUOUS
 62
     2
100
AcDbLine
 10
744.16632
 20
131.198855
 30
0.0
 11
746.382632
 21
131.400338
 31
0.0
  0
LINE
  5
626
330
1F
100
AcDbEntity
  8
GR1-1
  6
CONTINUOUS
 62
     4
100
AcDbLine
 10
736.833661
 20
134.540078
 30
0.0
 11
749.333661
 21
134.540078
 31
0.0
  0
LINE
  5
627
330
1F
100
AcDbEntity
  8
GR1-1
  6
CONTINUOUS
 62
     2
100
AcDbLine
 10
742.621617
 20
132.94504
 30
0.0
 11
741.404895
 21
134.367669
 31
0.0
  0
LINE
  5
628
330
1F
100
AcDbEntity
  8
GR1-1
  6
CONTINUOUS
 62
     2
100
AcDbLine
 10
742.632226
 20
134.367669
 30
0.0
 11
743.226066
 21
133.549489
 31
0.0
  0
LINE
  5
629
330
1F
100
AcDbEntity
  8
GR1-1
  6
CONTINUOUS
 62
     2
100
AcDbLine
 10
743.293227
 20
131.333177
 30
0.0
 11
744.16632
 21
131.198855
 31
0.0
  0
LINE
  5
62A
330
1F
100
AcDbEntity
  8
GR1-1
  6
CONTINUOUS
 62
     2
100
AcDbLine
 10
743.226066
 20
133.549489
 30
0.0
 11
743.293227
 21
131.333177
 31
0.0
  0
LINE
  5
62B
330
1F
100
AcDbEntity
  8
GR1-1
  6
CONTINUOUS
 62
     2
100
AcDbLine
 10
746.382632
 20
131.400338
 30
0.0
 11
749.153661
 21
133.118431
 31
0.0
  0
LINE
  5
62C
330
1F
100
AcDbEntity
  8
GR1-1
  6
CONTINUOUS
 62
     2
100
AcDbLine
 10
749.153661
 20
132.129616
 30
0.0
 11
747.891913
 21
131.629268
 31
0.0
  0
LINE
  5
62D
330
1F
100
AcDbEntity
  8
GR1-1
  6
CONTINUOUS
 62
     4
100
AcDbLine
 10
786.340722
 20
103.119943
 30
0.0
 11
798.840722
 21
103.119943
 31
0.0
  0
INSERT
  5
631
330
1F
100
AcDbEntity
  8
0
100
AcDbBlockReference
  2
BLKF099
 10
0.0
 20
0.0
 30
0.0
  0
LINE
  5
63C
330
1F
100
AcDbEntity
  8
GR1-1
  6
CONTINUOUS
 62
     4
100
AcDbLine
 10
786.340722
 20
88.809108
 30
0.0
 11
798.840722
 21
88.809108
 31
0.0
  0
INSERT
  5
640
330
1F
100
AcDbEntity
  8
0
100
AcDbBlockReference
  2
BLKF100
 10
0.0
 20
0.0
 30
0.0
  0
LINE
  5
64B
330
1F
100
AcDbEntity
  8
GR1-1
  6
CONTINUOUS
 62
     4
100
AcDbLine
 10
749.333661
 20
103.119943
 30
0.0
 11
749.333661
 21
88.809108
 31
0.0
  0
LINE
  5
64C
330
1F
100
AcDbEntity
  8
GR1-1
  6
CONTINUOUS
 62
     4
100
AcDbLine
 10
736.833661
 20
103.119943
 30
0.0
 11
736.833661
 21
88.809108
 31
0.0
  0
LINE
  5
64D
330
1F
100
AcDbEntity
  8
GR1-1
  6
CONTINUOUS
 62
     4
100
AcDbLine
 10
741.083661
 20
103.119943
 30
0.0
 11
741.083661
 21
88.809108
 31
0.0
  0
ELLIPSE
  5
64F
330
1F
100
AcDbEntity
  8
GR1-1
  6
HIDDEN2
 62
     2
100
AcDbEllipse
 10
749.333661
 20
92.389108
 30
0.0
 11
9.307008289050067E-17
 21
-1.52
 31
0.0
210
0.0
220
0.0
230
1.0
 40
0.657895
 41
3.141592653589793
 42
6.283185307179586
  0
ELLIPSE
  5
650
330
1F
100
AcDbEntity
  8
GR1-1
  6
HIDDEN2
 62
     2
100
AcDbEllipse
 10
736.833661
 20
92.389108
 30
0.0
 11
9.307008289050067E-17
 21
-1.52
 31
0.0
210
0.0
220
0.0
230
1.0
 40
0.657895
 41
0.0
 42
3.141592653589793
  0
LINE
  5
651
330
1F
100
AcDbEntity
  8
GR1-1
  6
CONTINUOUS
 62
     4
100
AcDbLine
 10
745.083661
 20
103.119943
 30
0.0
 11
745.083661
 21
88.809108
 31
0.0
  0
LINE
  5
652
330
1F
100
AcDbEntity
  8
GR1-1
  6
CONTINUOUS
 62
     4
100
AcDbLine
 10
745.483661
 20
103.119943
 30
0.0
 11
745.483661
 21
88.809108
 31
0.0
  0
LINE
  5
653
330
1F
100
AcDbEntity
  8
GR1-1
  6
CONTINUOUS
 62
     4
100
AcDbLine
 10
740.683661
 20
103.119943
 30
0.0
 11
740.683661
 21
88.809108
 31
0.0
  0
LINE
  5
654
330
1F
100
AcDbEntity
  8
GR1-1
  6
CONTINUOUS
 62
     4
100
AcDbLine
 10
790.590722
 20
103.119943
 30
0.0
 11
790.590722
 21
88.809108
 31
0.0
  0
LINE
  5
655
330
1F
100
AcDbEntity
  8
GR1-1
  6
CONTINUOUS
 62
     4
100
AcDbLine
 10
790.190722
 20
103.119943
 30
0.0
 11
790.190722
 21
88.809108
 31
0.0
  0
LINE
  5
656
330
1F
100
AcDbEntity
  8
GR1-1
  6
CONTINUOUS
 62
     4
100
AcDbLine
 10
794.590722
 20
103.119943
 30
0.0
 11
794.590722
 21
88.809108
 31
0.0
  0
LINE
  5
657
330
1F
100
AcDbEntity
  8
GR1-1
  6
CONTINUOUS
 62
     4
100
AcDbLine
 10
794.990722
 20
103.119943
 30
0.0
 11
794.990722
 21
88.809108
 31
0.0
  0
LINE
  5
658
330
1F
100
AcDbEntity
  8
GR1-1
  6
CONTINUOUS
 62
     4
100
AcDbLine
 10
786.340722
 20
103.119943
 30
0.0
 11
786.340722
 21
88.809108
 31
0.0
  0
INSERT
  5
65C
330
1F
100
AcDbEntity
  8
0
100
AcDbBlockReference
  2
BLKF101
 10
0.0
 20
0.0
 30
0.0
  0
LINE
  5
667
330
1F
100
AcDbEntity
  8
GR1-1
  6
CONTINUOUS
 62
     4
100
AcDbLine
 10
736.833661
 20
88.809108
 30
0.0
 11
749.333661
 21
88.809108
 31
0.0
  0
INSERT
  5
66B
330
1F
100
AcDbEntity
  8
0
100
AcDbBlockReference
  2
BLKF102
 10
0.0
 20
0.0
 30
0.0
  0
INSERT
  5
679
330
1F
100
AcDbEntity
  8
0
100
AcDbBlockReference
  2
BLKF103
 10
0.0
 20
0.0
 30
0.0
  0
INSERT
  5
687
330
1F
100
AcDbEntity
  8
0
100
AcDbBlockReference
  2
BLKF104
 10
0.0
 20
0.0
 30
0.0
  0
LINE
  5
692
330
1F
100
AcDbEntity
  8
GR1-1
  6
CONTINUOUS
 62
     4
100
AcDbLine
 10
741.883661
 20
89.049108
 30
0.0
 11
741.983661
 21
88.809108
 31
0.0
  0
LINE
  5
693
330
1F
100
AcDbEntity
  8
GR1-1
  6
CONTINUOUS
 62
     4
100
AcDbLine
 10
741.083661
 20
89.049108
 30
0.0
 11
741.883661
 21
89.049108
 31
0.0
  0
LINE
  5
694
330
1F
100
AcDbEntity
  8
GR1-1
  6
CONTINUOUS
 62
     4
100
AcDbLine
 10
745.083661
 20
89.049108
 30
0.0
 11
744.283661
 21
89.049108
 31
0.0
  0
LINE
  5
695
330
1F
100
AcDbEntity
  8
GR1-1
  6
CONTINUOUS
 62
     4
100
AcDbLine
 10
744.283661
 20
89.049108
 30
0.0
 11
744.183661
 21
88.809108
 31
0.0
  0
INSERT
  5
699
330
1F
100
AcDbEntity
  8
0
100
AcDbBlockReference
  2
BLKF105
 10
0.0
 20
0.0
 30
0.0
  0
INSERT
  5
6A7
330
1F
100
AcDbEntity
  8
0
100
AcDbBlockReference
  2
BLKF106
 10
0.0
 20
0.0
 30
0.0
  0
INSERT
  5
6B5
330
1F
100
AcDbEntity
  8
0
100
AcDbBlockReference
  2
BLKF107
 10
0.0
 20
0.0
 30
0.0
  0
LINE
  5
6C1
330
1F
100
AcDbEntity
  8
GR1-1
  6
CONTINUOUS
 62
     4
100
AcDbLine
 10
792.165722
 20
89.049108
 30
0.0
 11
792.965722
 21
89.049108
 31
0.0
  0
LINE
  5
6C2
330
1F
100
AcDbEntity
  8
GR1-1
  6
CONTINUOUS
 62
     4
100
AcDbLine
 10
792.065722
 20
88.809108
 30
0.0
 11
792.165722
 21
89.049108
 31
0.0
  0
LINE
  5
6C3
330
1F
100
AcDbEntity
  8
GR1-1
  6
CONTINUOUS
 62
     4
100
AcDbLine
 10
792.965722
 20
89.049108
 30
0.0
 11
793.065722
 21
88.809108
 31
0.0
  0
INSERT
  5
6C7
330
1F
100
AcDbEntity
  8
0
100
AcDbBlockReference
  2
BLKF108
 10
0.0
 20
0.0
 30
0.0
  0
LINE
  5
6D3
330
1F
100
AcDbEntity
  8
GR1-1
  6
CONTINUOUS
 62
     4
100
AcDbLine
 10
736.833661
 20
103.119943
 30
0.0
 11
749.333661
 21
103.119943
 31
0.0
  0
LINE
  5
6D4
330
1F
100
AcDbEntity
  8
GR1-1
  6
CONTINUOUS
 62
     4
100
AcDbLine
 10
745.083661
 20
92.365108
 30
0.0
 11
741.083661
 21
92.964526
 31
0.0
  0
ELLIPSE
  5
6D5
330
1F
100
AcDbEntity
  8
GR1-1
  6
CONTINUOUS
 62
     4
100
AcDbEllipse
 10
736.833661
 20
92.789108
 30
0.0
 11
9.307008289050067E-17
 21
-1.52
 31
0.0
210
0.0
220
0.0
230
1.0
 40
0.657895
 41
0.0
 42
3.141592653589793
  0
LINE
  5
6D6
330
1F
100
AcDbEntity
  8
GR1-1
  6
CONTINUOUS
 62
     4
100
AcDbLine
 10
745.083661
 20
99.565108
 30
0.0
 11
741.083661
 21
98.964526
 31
0.0
  0
TEXT
  5
6D7
330
1F
100
AcDbEntity
  8
GR1-1
  6
CONTINUOUS
 62
     4
100
AcDbText
 10
729.974219
 20
106.466875
 30
0.0
 40
2.0
  1
 C-C 断面図 
 41
0.746667
  7
FX_VECTOR
 72
     5
 11
743.414218
 21
106.466875
 31
0.0
100
AcDbText
  0
LINE
  5
6D8
330
1F
100
AcDbEntity
  8
GR1-1
  6
CONTINUOUS
 62
     4
100
AcDbLine
 10
729.974198
 20
106.266878
 30
0.0
 11
743.414198
 21
106.266878
 31
0.0
  0
ELLIPSE
  5
6D9
330
1F
100
AcDbEntity
  8
GR1-1
  6
CONTINUOUS
 62
     4
100
AcDbEllipse
 10
749.333661
 20
92.789108
 30
0.0
 11
9.307008289050067E-17
 21
-1.52
 31
0.0
210
0.0
220
0.0
230
1.0
 40
0.657895
 41
3.141592653589793
 42
6.283185307179586
  0
ELLIPSE
  5
6DA
330
1F
100
AcDbEntity
  8
GR1-1
  6
CONTINUOUS
 62
     4
100
AcDbEllipse
 10
786.340722
 20
93.289108
 30
0.0
 11
9.307008289050067E-17
 21
-1.52
 31
0.0
210
0.0
220
0.0
230
1.0
 40
0.657895
 41
0.0
 42
3.141592653589793
  0
ELLIPSE
  5
6DB
330
1F
100
AcDbEntity
  8
GR1-1
  6
HIDDEN2
 62
     2
100
AcDbEllipse
 10
786.340722
 20
92.889108
 30
0.0
 11
9.307008289050067E-17
 21
-1.52
 31
0.0
210
0.0
220
0.0
230
1.0
 40
0.657895
 41
0.0
 42
3.141592653589793
  0
LINE
  5
6DC
330
1F
100
AcDbEntity
  8
GR1-1
  6
CONTINUOUS
 62
     4
100
AcDbLine
 10
794.590722
 20
92.365108
 30
0.0
 11
790.590722
 21
92.964526
 31
0.0
  0
LINE
  5
6DD
330
1F
100
AcDbEntity
  8
GR1-1
  6
CONTINUOUS
 62
     4
100
AcDbLine
 10
794.590722
 20
99.565108
 30
0.0
 11
790.590722
 21
98.964526
 31
0.0
  0
TEXT
  5
6DE
330
1F
100
AcDbEntity
  8
GR1-1
  6
CONTINUOUS
 62
     4
100
AcDbText
 10
779.481328
 20
106.466875
 30
0.0
 40
2.0
  1
 D-D 断面図 
 41
0.746667
  7
FX_VECTOR
 72
     5
 11
792.921328
 21
106.466875
 31
0.0
100
AcDbText
  0
LINE
  5
6DF
330
1F
100
AcDbEntity
  8
GR1-1
  6
CONTINUOUS
 62
     4
100
AcDbLine
 10
779.481259
 20
106.266878
 30
0.0
 11
792.921259
 21
106.266878
 31
0.0
  0
LINE
  5
6E0
330
1F
100
AcDbEntity
  8
GR1-1
  6
CONTINUOUS
 62
     4
100
AcDbLine
 10
798.840722
 20
103.119943
 30
0.0
 11
798.840722
 21
88.809108
 31
0.0
  0
INSERT
  5
6E4
330
1F
100
AcDbEntity
  8
0
100
AcDbBlockReference
  2
BLKF109
 10
0.0
 20
0.0
 30
0.0
  0
ELLIPSE
  5
6F0
330
1F
100
AcDbEntity
  8
GR1-1
  6
CONTINUOUS
 62
     4
100
AcDbEllipse
 10
798.840722
 20
93.289108
 30
0.0
 11
9.307008289050067E-17
 21
-1.52
 31
0.0
210
0.0
220
0.0
230
1.0
 40
0.657895
 41
3.141592653589793
 42
6.283185307179586
  0
ELLIPSE
  5
6F1
330
1F
100
AcDbEntity
  8
GR1-1
  6
HIDDEN2
 62
     2
100
AcDbEllipse
 10
798.840722
 20
92.889108
 30
0.0
 11
9.307008289050067E-17
 21
-1.52
 31
0.0
210
0.0
220
0.0
230
1.0
 40
0.657895
 41
3.141592653589793
 42
6.283185307179586
  0
INSERT
  5
6F5
330
1F
100
AcDbEntity
  8
0
100
AcDbBlockReference
  2
BLKF110
 10
0.0
 20
0.0
 30
0.0
  0
LINE
  5
700
330
1F
100
AcDbEntity
  8
GR1-1
  6
CONTINUOUS
 62
     4
100
AcDbLine
 10
809.121501
 20
123.784661
 30
0.0
 11
789.189344
 21
123.784661
 31
0.0
  0
LINE
  5
701
330
1F
100
AcDbEntity
  8
GR1-1
  6
CONTINUOUS
 62
     4
100
AcDbLine
 10
809.121501
 20
130.984661
 30
0.0
 11
789.189344
 21
130.984661
 31
0.0
  0
LINE
  5
702
330
1F
100
AcDbEntity
  8
GR1-1
  6
CONTINUOUS
 62
     4
100
AcDbLine
 10
808.521501
 20
124.384661
 30
0.0
 11
789.789344
 21
124.384661
 31
0.0
  0
LINE
  5
703
330
1F
100
AcDbEntity
  8
GR1-1
  6
CONTINUOUS
 62
     4
100
AcDbLine
 10
808.521501
 20
130.384661
 30
0.0
 11
789.789344
 21
130.384661
 31
0.0
  0
LINE
  5
704
330
1F
100
AcDbEntity
  8
GR1-1
  6
CONTINUOUS
 62
     4
100
AcDbLine
 10
789.189344
 20
124.984661
 30
0.0
 11
789.189344
 21
129.784661
 31
0.0
  0
LINE
  5
705
330
1F
100
AcDbEntity
  8
GR1-1
  6
CONTINUOUS
 62
     4
100
AcDbLine
 10
788.589344
 20
124.384661
 30
0.0
 11
788.589344
 21
130.384661
 31
0.0
  0
ARC
  5
706
330
1F
100
AcDbEntity
  8
GR1-1
  6
CONTINUOUS
 62
     4
100
AcDbCircle
 10
789.789344
 20
124.984661
 30
0.0
 40
0.6
100
AcDbArc
 50
180.0
 51
270.0
  0
LINE
  5
707
330
1F
100
AcDbEntity
  8
GR1-1
  6
CONTINUOUS
 62
     4
100
AcDbLine
 10
789.189344
 20
123.784661
 30
0.0
 11
789.789344
 21
124.384661
 31
0.0
  0
ARC
  5
708
330
1F
100
AcDbEntity
  8
GR1-1
  6
CONTINUOUS
 62
     4
100
AcDbCircle
 10
789.189344
 20
124.384661
 30
0.0
 40
0.6
100
AcDbArc
 50
180.0
 51
270.0
  0
LINE
  5
709
330
1F
100
AcDbEntity
  8
GR1-1
  6
CONTINUOUS
 62
     4
100
AcDbLine
 10
788.589344
 20
124.384661
 30
0.0
 11
789.189344
 21
124.984661
 31
0.0
  0
ARC
  5
70A
330
1F
100
AcDbEntity
  8
GR1-1
  6
CONTINUOUS
 62
     4
100
AcDbCircle
 10
789.789344
 20
129.784661
 30
0.0
 40
0.6
100
AcDbArc
 50
90.0
 51
180.0
  0
LINE
  5
70B
330
1F
100
AcDbEntity
  8
GR1-1
  6
CONTINUOUS
 62
     4
100
AcDbLine
 10
789.189344
 20
130.984661
 30
0.0
 11
789.789344
 21
130.384661
 31
0.0
  0
ARC
  5
70C
330
1F
100
AcDbEntity
  8
GR1-1
  6
CONTINUOUS
 62
     4
100
AcDbCircle
 10
789.189344
 20
130.384661
 30
0.0
 40
0.6
100
AcDbArc
 50
90.0
 51
180.0
  0
LINE
  5
70D
330
1F
100
AcDbEntity
  8
GR1-1
  6
CONTINUOUS
 62
     4
100
AcDbLine
 10
788.589344
 20
130.384661
 30
0.0
 11
789.189344
 21
129.784661
 31
0.0
  0
INSERT
  5
711
330
1F
100
AcDbEntity
  8
0
100
AcDbBlockReference
  2
BLKF111
 10
0.0
 20
0.0
 30
0.0
  0
LINE
  5
716
330
1F
100
AcDbEntity
  8
GR1-1
  6
CONTINUOUS
 62
     4
100
AcDbLine
 10
814.321501
 20
123.784661
 30
0.0
 11
828.66349
 21
123.784661
 31
0.0
  0
LINE
  5
717
330
1F
100
AcDbEntity
  8
GR1-1
  6
CONTINUOUS
 62
     4
100
AcDbLine
 10
814.321501
 20
130.984661
 30
0.0
 11
828.66349
 21
130.984661
 31
0.0
  0
LINE
  5
718
330
1F
100
AcDbEntity
  8
GR1-1
  6
CONTINUOUS
 62
     4
100
AcDbLine
 10
814.921501
 20
124.384661
 30
0.0
 11
828.06349
 21
124.384661
 31
0.0
  0
LINE
  5
719
330
1F
100
AcDbEntity
  8
GR1-1
  6
CONTINUOUS
 62
     4
100
AcDbLine
 10
814.921501
 20
130.384661
 30
0.0
 11
828.06349
 21
130.384661
 31
0.0
  0
INSERT
  5
71D
330
1F
100
AcDbEntity
  8
0
100
AcDbBlockReference
  2
BLKF112
 10
0.0
 20
0.0
 30
0.0
  0
LINE
  5
722
330
1F
100
AcDbEntity
  8
GR1-1
  6
CONTINUOUS
 62
     4
100
AcDbLine
 10
813.721501
 20
130.384661
 30
0.0
 11
813.721501
 21
124.384661
 31
0.0
  0
LINE
  5
723
330
1F
100
AcDbEntity
  8
GR1-1
  6
CONTINUOUS
 62
     4
100
AcDbLine
 10
814.321501
 20
129.784661
 30
0.0
 11
814.321501
 21
124.984661
 31
0.0
  0
LINE
  5
724
330
1F
100
AcDbEntity
  8
GR1-1
  6
CONTINUOUS
 62
     4
100
AcDbLine
 10
809.721501
 20
130.384661
 30
0.0
 11
809.721501
 21
124.384661
 31
0.0
  0
LINE
  5
725
330
1F
100
AcDbEntity
  8
GR1-1
  6
CONTINUOUS
 62
     4
100
AcDbLine
 10
809.121501
 20
129.784661
 30
0.0
 11
809.121501
 21
124.984661
 31
0.0
  0
ARC
  5
726
330
1F
100
AcDbEntity
  8
GR1-1
  6
CONTINUOUS
 62
     4
100
AcDbCircle
 10
809.121501
 20
124.384661
 30
0.0
 40
0.6
100
AcDbArc
 50
270.0
 51
360.0
  0
ARC
  5
727
330
1F
100
AcDbEntity
  8
GR1-1
  6
CONTINUOUS
 62
     4
100
AcDbCircle
 10
808.521501
 20
124.984661
 30
0.0
 40
0.6
100
AcDbArc
 50
270.0
 51
360.0
  0
LINE
  5
728
330
1F
100
AcDbEntity
  8
GR1-1
  6
CONTINUOUS
 62
     4
100
AcDbLine
 10
809.721501
 20
124.384661
 30
0.0
 11
809.121501
 21
124.984661
 31
0.0
  0
LINE
  5
729
330
1F
100
AcDbEntity
  8
GR1-1
  6
CONTINUOUS
 62
     4
100
AcDbLine
 10
808.521501
 20
124.384661
 30
0.0
 11
809.121501
 21
123.784661
 31
0.0
  0
ARC
  5
72A
330
1F
100
AcDbEntity
  8
GR1-1
  6
CONTINUOUS
 62
     4
100
AcDbCircle
 10
814.321501
 20
124.384661
 30
0.0
 40
0.6
100
AcDbArc
 50
180.0
 51
270.0
  0
ARC
  5
72B
330
1F
100
AcDbEntity
  8
GR1-1
  6
CONTINUOUS
 62
     4
100
AcDbCircle
 10
814.921501
 20
124.984661
 30
0.0
 40
0.6
100
AcDbArc
 50
180.0
 51
270.0
  0
LINE
  5
72C
330
1F
100
AcDbEntity
  8
GR1-1
  6
CONTINUOUS
 62
     4
100
AcDbLine
 10
813.721501
 20
124.384661
 30
0.0
 11
814.321501
 21
124.984661
 31
0.0
  0
LINE
  5
72D
330
1F
100
AcDbEntity
  8
GR1-1
  6
CONTINUOUS
 62
     4
100
AcDbLine
 10
814.321501
 20
123.784661
 30
0.0
 11
814.921501
 21
124.384661
 31
0.0
  0
ARC
  5
72E
330
1F
100
AcDbEntity
  8
GR1-1
  6
CONTINUOUS
 62
     4
100
AcDbCircle
 10
809.121501
 20
130.384661
 30
0.0
 40
0.6
100
AcDbArc
 50
0.0
 51
90.0
  0
LINE
  5
72F
330
1F
100
AcDbEntity
  8
GR1-1
  6
CONTINUOUS
 62
     4
100
AcDbLine
 10
809.121501
 20
130.984661
 30
0.0
 11
808.521501
 21
130.384661
 31
0.0
  0
ARC
  5
730
330
1F
100
AcDbEntity
  8
GR1-1
  6
CONTINUOUS
 62
     4
100
AcDbCircle
 10
808.521501
 20
129.784661
 30
0.0
 40
0.6
100
AcDbArc
 50
0.0
 51
90.0
  0
LINE
  5
731
330
1F
100
AcDbEntity
  8
GR1-1
  6
CONTINUOUS
 62
     4
100
AcDbLine
 10
809.121501
 20
129.784661
 30
0.0
 11
809.721501
 21
130.384661
 31
0.0
  0
ARC
  5
732
330
1F
100
AcDbEntity
  8
GR1-1
  6
CONTINUOUS
 62
     4
100
AcDbCircle
 10
814.321501
 20
130.384661
 30
0.0
 40
0.6
100
AcDbArc
 50
90.0
 51
180.0
  0
LINE
  5
733
330
1F
100
AcDbEntity
  8
GR1-1
  6
CONTINUOUS
 62
     4
100
AcDbLine
 10
814.321501
 20
130.984661
 30
0.0
 11
814.921501
 21
130.384661
 31
0.0
  0
ARC
  5
734
330
1F
100
AcDbEntity
  8
GR1-1
  6
CONTINUOUS
 62
     4
100
AcDbCircle
 10
814.921501
 20
129.784661
 30
0.0
 40
0.6
100
AcDbArc
 50
90.0
 51
180.0
  0
LINE
  5
735
330
1F
100
AcDbEntity
  8
GR1-1
  6
CONTINUOUS
 62
     4
100
AcDbLine
 10
813.721501
 20
130.384661
 30
0.0
 11
814.321501
 21
129.784661
 31
0.0
  0
LINE
  5
736
330
1F
100
AcDbEntity
  8
GR1-1
  6
CONTINUOUS
 62
     4
100
AcDbLine
 10
828.66349
 20
124.984661
 30
0.0
 11
828.66349
 21
129.784661
 31
0.0
  0
LINE
  5
737
330
1F
100
AcDbEntity
  8
GR1-1
  6
CONTINUOUS
 62
     4
100
AcDbLine
 10
829.26349
 20
124.384661
 30
0.0
 11
829.26349
 21
130.384661
 31
0.0
  0
ARC
  5
738
330
1F
100
AcDbEntity
  8
GR1-1
  6
CONTINUOUS
 62
     4
100
AcDbCircle
 10
828.66349
 20
124.384661
 30
0.0
 40
0.6
100
AcDbArc
 50
270.0
 51
360.0
  0
LINE
  5
739
330
1F
100
AcDbEntity
  8
GR1-1
  6
CONTINUOUS
 62
     4
100
AcDbLine
 10
828.66349
 20
123.784661
 30
0.0
 11
828.06349
 21
124.384661
 31
0.0
  0
ARC
  5
73A
330
1F
100
AcDbEntity
  8
GR1-1
  6
CONTINUOUS
 62
     4
100
AcDbCircle
 10
828.06349
 20
124.984661
 30
0.0
 40
0.6
100
AcDbArc
 50
270.0
 51
360.0
  0
LINE
  5
73B
330
1F
100
AcDbEntity
  8
GR1-1
  6
CONTINUOUS
 62
     4
100
AcDbLine
 10
829.26349
 20
124.384661
 30
0.0
 11
828.66349
 21
124.984661
 31
0.0
  0
LINE
  5
73C
330
1F
100
AcDbEntity
  8
GR1-1
  6
CONTINUOUS
 62
     4
100
AcDbLine
 10
828.66349
 20
130.984661
 30
0.0
 11
828.06349
 21
130.384661
 31
0.0
  0
ARC
  5
73D
330
1F
100
AcDbEntity
  8
GR1-1
  6
CONTINUOUS
 62
     4
100
AcDbCircle
 10
828.66349
 20
130.384661
 30
0.0
 40
0.6
100
AcDbArc
 50
0.0
 51
90.0
  0
ARC
  5
73E
330
1F
100
AcDbEntity
  8
GR1-1
  6
CONTINUOUS
 62
     4
100
AcDbCircle
 10
828.06349
 20
129.784661
 30
0.0
 40
0.6
100
AcDbArc
 50
0.0
 51
90.0
  0
LINE
  5
73F
330
1F
100
AcDbEntity
  8
GR1-1
  6
CONTINUOUS
 62
     4
100
AcDbLine
 10
829.26349
 20
130.384661
 30
0.0
 11
828.66349
 21
129.784661
 31
0.0
  0
INSERT
  5
743
330
1F
100
AcDbEntity
  8
0
100
AcDbBlockReference
  2
BLKF113
 10
0.0
 20
0.0
 30
0.0
  0
ARC
  5
748
330
1F
100
AcDbEntity
  8
GR1-1
  6
CONTINUOUS
 62
     4
100
AcDbCircle
 10
672.249406
 20
129.784661
 30
0.0
 40
0.6
100
AcDbArc
 50
90.0
 51
180.0
  0
ARC
  5
749
330
1F
100
AcDbEntity
  8
GR1-1
  6
CONTINUOUS
 62
     4
100
AcDbCircle
 10
685.391394
 20
129.784661
 30
0.0
 40
0.6
100
AcDbArc
 50
0.0
 51
90.0
  0
ARC
  5
74A
330
1F
100
AcDbEntity
  8
GR1-1
  6
CONTINUOUS
 62
     4
100
AcDbCircle
 10
685.391394
 20
124.984661
 30
0.0
 40
0.6
100
AcDbArc
 50
270.0
 51
360.0
  0
ARC
  5
74B
330
1F
100
AcDbEntity
  8
GR1-1
  6
CONTINUOUS
 62
     4
100
AcDbCircle
 10
672.249406
 20
124.984661
 30
0.0
 40
0.6
100
AcDbArc
 50
180.0
 51
270.0
  0
ARC
  5
74C
330
1F
100
AcDbEntity
  8
GR1-1
  6
CONTINUOUS
 62
     4
100
AcDbCircle
 10
691.791394
 20
129.784661
 30
0.0
 40
0.6
100
AcDbArc
 50
90.0
 51
180.0
  0
ARC
  5
74D
330
1F
100
AcDbEntity
  8
GR1-1
  6
CONTINUOUS
 62
     4
100
AcDbCircle
 10
710.523552
 20
129.784661
 30
0.0
 40
0.6
100
AcDbArc
 50
0.0
 51
90.0
  0
ARC
  5
74E
330
1F
100
AcDbEntity
  8
GR1-1
  6
CONTINUOUS
 62
     4
100
AcDbCircle
 10
710.523552
 20
124.984661
 30
0.0
 40
0.6
100
AcDbArc
 50
270.0
 51
360.0
  0
ARC
  5
74F
330
1F
100
AcDbEntity
  8
GR1-1
  6
CONTINUOUS
 62
     4
100
AcDbCircle
 10
691.791394
 20
124.984661
 30
0.0
 40
0.6
100
AcDbArc
 50
180.0
 51
270.0
  0
LINE
  5
750
330
1F
100
AcDbEntity
  8
GR1-1
  6
CONTINUOUS
 62
     2
100
AcDbLine
 10
747.333085
 20
174.194456
 30
0.0
 11
757.764507
 21
174.194456
 31
0.0
  0
INSERT
  5
754
330
1F
100
AcDbEntity
  8
0
100
AcDbBlockReference
  2
BLKF114
 10
0.0
 20
0.0
 30
0.0
  0
TEXT
  5
759
330
1F
100
AcDbEntity
  8
GR1-1
  6
CONTINUOUS
 62
     4
100
AcDbText
 10
749.201875
 20
172.399902
 30
0.0
 40
1.5
  1
LKP-75
 41
0.7
  7
FX_VECTOR
 72
     5
 11
755.501875
 21
172.399902
 31
0.0
100
AcDbText
  0
LINE
  5
75A
330
1F
100
AcDbEntity
  8
GR1-1
  6
CONTINUOUS
 62
     2
100
AcDbLine
 10
805.029517
 20
143.437262
 30
0.0
 11
806.513589
 21
146.405405
 31
0.0
  0
LINE
  5
75B
330
1F
100
AcDbEntity
  8
GR1-1
  6
CONTINUOUS
 62
     2
100
AcDbLine
 10
804.087846
 20
146.405405
 30
0.0
 11
807.093918
 21
146.405405
 31
0.0
  0
INSERT
  5
75C
330
1F
100
AcDbEntity
  8
GR1-1
  6
CONTINUOUS
 62
     2
100
AcDbBlockReference
  2
FXTIP_ARROW_S
 10
804.087846
 20
146.405405
 30
0.0
 41
2.0
 42
2.0
 50
180.0
  0
LINE
  5
75D
330
1F
100
AcDbEntity
  8
GR1-1
  6
CONTINUOUS
 62
     2
100
AcDbLine
 10
810.099991
 20
146.405405
 30
0.0
 11
807.093918
 21
146.405405
 31
0.0
  0
INSERT
  5
75E
330
1F
100
AcDbEntity
  8
GR1-1
  6
CONTINUOUS
 62
     2
100
AcDbBlockReference
  2
FXTIP_ARROW_S
 10
810.099991
 20
146.405405
 30
0.0
 41
2.0
 42
2.0
  0
ENDSEC
  0
SECTION
  2
OBJECTS
  0
DICTIONARY
  5
C
330
0
100
AcDbDictionary
  3
ACAD_GROUP
350
D
  3
ACAD_LAYOUT
350
1A
  3
ACAD_MLINESTYLE
350
17
  3
ACAD_PLOTSETTINGS
350
19
1001
ACAD
1000
TREAT_AS_HARD
1070
     0
  0
DICTIONARY
  5
765
330
29
100
AcDbDictionary
  3
ACAD_XREC_ROUNDTRIP
360
766
  0
DICTIONARY
  5
D
102
{ACAD_REACTORS
330
C
102
}
330
C
100
AcDbDictionary
1001
ACAD
1000
TREAT_AS_HARD
1070
     0
  0
DICTIONARY
  5
1A
102
{ACAD_REACTORS
330
C
102
}
330
C
100
AcDbDictionary
1001
ACAD
1000
TREAT_AS_HARD
1070
     0
  0
DICTIONARY
  5
17
102
{ACAD_REACTORS
330
C
102
}
330
C
100
AcDbDictionary
  3
STANDARD
350
18
1001
ACAD
1000
TREAT_AS_HARD
1070
     0
  0
DICTIONARY
  5
19
102
{ACAD_REACTORS
330
C
102
}
330
C
100
AcDbDictionary
1001
ACAD
1000
TREAT_AS_HARD
1070
     0
  0
XRECORD
  5
766
102
{ACAD_REACTORS
330
765
102
}
330
765
100
AcDbXrecord
102
UCS
 74
     0
 71
     1
 10
0.0
 20
0.0
 30
0.0
 10
1.0
 20
0.0
 30
0.0
 10
0.0
 20
1.0
 30
0.0
146
0.0
 79
     0
102
VIEW
281
     0
  0
MLINESTYLE
  5
18
102
{ACAD_REACTORS
330
17
102
}
330
17
100
AcDbMlineStyle
  2
Standard
 70
     0
  3

 62
   256
 51
90.0
 52
90.0
 71
     2
 49
0.5
 62
   256
  6
BYLAYER
 49
-0.5
 62
   256
  6
BYLAYER
  0
ENDSEC
  0
EOF
