  0
SECTION
  2
HEADER
  9
$ACADVER
  1
AC1012
  9
$DWGCODEPAGE
  3
ansi_932
  9
$INSBASE
 10
591.720957
 20
8.11036
 30
0.0
  9
$EXTMIN
 10
591.720957
 20
8.11036
 30
0.0
  9
$EXTMAX
 10
962.970964
 20
270.610366
 30
0.0
  9
$LIMMIN
 10
591.720957
 20
8.11036
  9
$LIMMAX
 10
962.970964
 20
270.610366
  9
$ORTHOMODE
 70
     0
  9
$REGENMODE
 70
     1
  9
$FILLMODE
 70
     1
  9
$QTEXTMODE
 70
     0
  9
$MIRRTEXT
 70
     1
  9
$DRAGMODE
 70
     2
  9
$LTSCALE
 40
1.0
  9
$OSMODE
 70
    37
  9
$ATTMODE
 70
     1
  9
$TEXTSIZE
 40
0.2
  9
$TRACEWID
 40
0.05
  9
$TEXTSTYLE
  7
STYLE1
  9
$CLAYER
  8
0
  9
$CELTYPE
  6
BYLAYER
  9
$CECOLOR
 62
   256
  9
$CELTSCALE
 40
1.0
  9
$DELOBJ
 70
     1
  9
$DISPSILH
 70
     0
  9
$DIMSCALE
 40
1.0
  9
$DIMASZ
 40
2.0
  9
$DIMEXO
 40
2.0
  9
$DIMDLI
 40
7.0
  9
$DIMRND
 40
0.0
  9
$DIMDLE
 40
6.0
  9
$DIMEXE
 40
1.0
  9
$DIMTP
 40
0.0
  9
$DIMTM
 40
0.0
  9
$DIMTXT
 40
3.5
  9
$DIMCEN
 40
2.5
  9
$DIMTSZ
 40
0.0
  9
$DIMTOL
 70
     0
  9
$DIMLIM
 70
     0
  9
$DIMTIH
 70
     0
  9
$DIMTOH
 70
     0
  9
$DIMSE1
 70
     0
  9
$DIMSE2
 70
     0
  9
$DIMTAD
 70
     1
  9
$DIMZIN
 70
     8
  9
$DIMBLK
  1

  9
$DIMASO
 70
     1
  9
$DIMSHO
 70
     1
  9
$DIMPOST
  1

  9
$DIMAPOST
  1

  9
$DIMALT
 70
     0
  9
$DIMALTD
 70
     3
  9
$DIMALTF
 40
0.03937
  9
$DIMLFAC
 40
1.0
  9
$DIMTOFL
 70
     1
  9
$DIMTVP
 40
0.0
  9
$DIMTIX
 70
     0
  9
$DIMSOXD
 70
     0
  9
$DIMSAH
 70
     1
  9
$DIMBLK1
  1
FXTIP_ARROW_S
  9
$DIMBLK2
  1
FXTIP_ARROW_E
  9
$DIMSTYLE
  2
FXDIMINFO
  9
$DIMCLRD
 70
     7
  9
$DIMCLRE
 70
     7
  9
$DIMCLRT
 70
     7
  9
$DIMTFAC
 40
1.0
  9
$DIMGAP
 40
1.0
  9
$DIMJUST
 70
     0
  9
$DIMSD1
 70
     0
  9
$DIMSD2
 70
     0
  9
$DIMTOLJ
 70
     0
  9
$DIMTZIN
 70
     8
  9
$DIMALTZ
 70
     0
  9
$DIMALTTZ
 70
     0
  9
$DIMFIT
 70
     3
  9
$DIMUPT
 70
     0
  9
$DIMUNIT
 70
     2
  9
$DIMDEC
 70
     2
  9
$DIMTDEC
 70
     2
  9
$DIMALTU
 70
     2
  9
$DIMALTTD
 70
     3
  9
$DIMTXSTY
  7
STYLE1
  9
$DIMAUNIT
 70
     0
  9
$LUNITS
 70
     2
  9
$LUPREC
 70
     4
  9
$SKETCHINC
 40
0.1
  9
$FILLETRAD
 40
0.5
  9
$AUNITS
 70
     0
  9
$AUPREC
 70
     0
  9
$MENU
  1
.
  9
$ELEVATION
 40
0.0
  9
$PELEVATION
 40
0.0
  9
$THICKNESS
 40
0.0
  9
$LIMCHECK
 70
     0
  9
$CHAMFERA
 40
0.5
  9
$CHAMFERB
 40
0.5
  9
$CHAMFERC
 40
1.0
  9
$CHAMFERD
 40
0.0
  9
$SKPOLY
 70
     0
  9
$TDCREATE
 40
2455531.642989005
  9
$TDUPDATE
 40
2455531.642989016
  9
$TDINDWG
 40
0.0000000116
  9
$TDUSRTIMER
 40
0.0000000116
  9
$USRTIMER
 70
     1
  9
$ANGBASE
 50
0.0
  9
$ANGDIR
 70
     0
  9
$PDMODE
 70
     0
  9
$PDSIZE
 40
0.0
  9
$PLINEWID
 40
0.0
  9
$COORDS
 70
     1
  9
$SPLFRAME
 70
     0
  9
$SPLINETYPE
 70
     6
  9
$SPLINESEGS
 70
     8
  9
$ATTDIA
 70
     0
  9
$ATTREQ
 70
     1
  9
$HANDLING
 70
     1
  9
$HANDSEED
  5
5C3
  9
$SURFTAB1
 70
     6
  9
$SURFTAB2
 70
     6
  9
$SURFTYPE
 70
     6
  9
$SURFU
 70
     6
  9
$SURFV
 70
     6
  9
$UCSNAME
  2

  9
$UCSORG
 10
0.0
 20
0.0
 30
0.0
  9
$UCSXDIR
 10
1.0
 20
0.0
 30
0.0
  9
$UCSYDIR
 10
0.0
 20
1.0
 30
0.0
  9
$PUCSNAME
  2

  9
$PUCSORG
 10
0.0
 20
0.0
 30
0.0
  9
$PUCSXDIR
 10
1.0
 20
0.0
 30
0.0
  9
$PUCSYDIR
 10
0.0
 20
1.0
 30
0.0
  9
$USERI1
 70
     0
  9
$USERI2
 70
     0
  9
$USERI3
 70
     0
  9
$USERI4
 70
     0
  9
$USERI5
 70
     0
  9
$USERR1
 40
0.0
  9
$USERR2
 40
0.0
  9
$USERR3
 40
0.0
  9
$USERR4
 40
0.0
  9
$USERR5
 40
0.0
  9
$WORLDVIEW
 70
     1
  9
$SHADEDGE
 70
     3
  9
$SHADEDIF
 70
    70
  9
$TILEMODE
 70
     1
  9
$MAXACTVP
 70
    64
  9
$PINSBASE
 10
0.0
 20
0.0
 30
0.0
  9
$PLIMCHECK
 70
     0
  9
$PEXTMIN
 10
1.000000E+20
 20
1.000000E+20
 30
1.000000E+20
  9
$PEXTMAX
 10
-1.000000E+20
 20
-1.000000E+20
 30
-1.000000E+20
  9
$PLIMMIN
 10
0.0
 20
0.0
  9
$PLIMMAX
 10
12.0
 20
9.0
  9
$UNITMODE
 70
     0
  9
$VISRETAIN
 70
     1
  9
$PLINEGEN
 70
     0
  9
$PSLTSCALE
 70
     1
  9
$TREEDEPTH
 70
  3020
  9
$PICKSTYLE
 70
     1
  9
$CMLSTYLE
  2
STANDARD
  9
$CMLJUST
 70
     0
  9
$CMLSCALE
 40
1.0
  9
$SAVEIMAGES
 70
     1
  0
ENDSEC
  0
SECTION
  2
CLASSES
  0
CLASS
  1
ACDBDICTIONARYWDFLT
  2
AcDbDictionaryWithDefault
  3
ObjectDBX Classes
 90
        0
280
     0
281
     0
  0
CLASS
  1
XRECORD
  2
AcDbXrecord
  3
AutoCAD 2000
 90
    32768
280
     0
281
     0
  0
CLASS
  1
LWPOLYLINE
  2
AcDbPolyline
  3
AutoCAD 2000
 90
    32768
280
     0
281
     1
  0
CLASS
  1
HATCH
  2
AcDbHatch
  3
AutoCAD 2000
 90
    32768
280
     0
281
     1
  0
CLASS
  1
ACDBPLACEHOLDER
  2
AcDbPlaceHolder
  3
ObjectDBX Classes
 90
        0
280
     0
281
     0
  0
CLASS
  1
LAYOUT
  2
AcDbLayout
  3
ObjectDBX Classes
 90
        0
280
     0
281
     0
  0
ENDSEC
  0
SECTION
  2
TABLES
  0
TABLE
  2
VPORT
  5
8
330
0
100
AcDbSymbolTable
 70
     1
  0
VPORT
  5
29
102
{ACAD_XDICTIONARY
360
5C1
102
}
330
8
100
AcDbSymbolTableRecord
100
AcDbViewportTableRecord
  2
*ACTIVE
 70
     0
 10
0.0
 20
0.0
 11
1.0
 21
1.0
 12
777.34596
 22
139.360363
 13
0.0
 23
0.0
 14
0.5
 24
0.5
 15
0.5
 25
0.5
 16
0.0
 26
0.0
 36
1.0
 17
0.0
 27
0.0
 37
0.0
 40
262.500005
 41
1.414286
 42
50.0
 43
0.0
 44
0.0
 50
0.0
 51
0.0
 71
     0
 72
   100
 73
     1
 74
     3
 75
     0
 76
     0
 77
     0
 78
     0
  0
ENDTAB
  0
TABLE
  2
LTYPE
  5
5
330
0
100
AcDbSymbolTable
 70
     5
  0
LTYPE
  5
14
330
5
100
AcDbSymbolTableRecord
100
AcDbLinetypeTableRecord
  2
BYBLOCK
 70
     0
  3

 72
    65
 73
     0
 40
0.0
  0
LTYPE
  5
15
330
5
100
AcDbSymbolTableRecord
100
AcDbLinetypeTableRecord
  2
BYLAYER
 70
     0
  3

 72
    65
 73
     0
 40
0.0
  0
LTYPE
  5
16
330
5
100
AcDbSymbolTableRecord
100
AcDbLinetypeTableRecord
  2
CONTINUOUS
 70
     0
  3
--------------------
 72
    65
 73
     0
 40
0.0
  0
LTYPE
  5
A6
330
5
100
AcDbSymbolTableRecord
100
AcDbLinetypeTableRecord
  2
極太の実線
 70
     0
  3

 72
    65
 73
     0
 40
0.0
  0
LTYPE
  5
AF
330
5
100
AcDbSymbolTableRecord
100
AcDbLinetypeTableRecord
  2
太い実線
 70
     0
  3

 72
    65
 73
     0
 40
0.0
  0
LTYPE
  5
B6
330
5
100
AcDbSymbolTableRecord
100
AcDbLinetypeTableRecord
  2
細い実線
 70
     0
  3

 72
    65
 73
     0
 40
0.0
  0
LTYPE
  5
2B5
330
5
100
AcDbSymbolTableRecord
100
AcDbLinetypeTableRecord
  2
細い点線
 70
     0
  3

 72
    65
 73
     2
 40
2.5
 49
2.0
 74
     0
 49
-0.5
 74
     0
  0
ENDTAB
  0
TABLE
  2
LAYER
  5
2
330
0
100
AcDbSymbolTable
 70
    19
  0
LAYER
  5
10
330
2
100
AcDbSymbolTableRecord
100
AcDbLayerTableRecord
  2
0
 70
     0
 62
     7
  6
CONTINUOUS
  0
LAYER
  5
A5
330
2
100
AcDbSymbolTableRecord
100
AcDbLayerTableRecord
  2
GR1-1
 70
     0
 62
     7
  6
CONTINUOUS
  0
ENDTAB
  0
TABLE
  2
STYLE
  5
3
330
0
100
AcDbSymbolTable
 70
     4
  0
STYLE
  5
11
330
3
100
AcDbSymbolTableRecord
100
AcDbTextStyleTableRecord
  2
STANDARD
 70
     0
 40
0.0
 41
1.0
 50
0.0
 71
     0
 42
0.2
  3
txt
  4

  0
STYLE
  5
3C
330
3
100
AcDbSymbolTableRecord
100
AcDbTextStyleTableRecord
  2
STYLE1
 70
     0
 40
0.0
 41
1.0
 50
0.0
 71
     0
 42
0.2
  3
MONOTXT.SHX
  4
extfont.shx
  0
STYLE
  5
3D
330
3
100
AcDbSymbolTableRecord
100
AcDbTextStyleTableRecord
  2
FX_VECTOR
 70
     0
 40
0.0
 41
1.0
 50
0.0
 71
     0
 42
0.2
  3
MONOTXT.SHX
  4
BIGFONT.SHX
  0
ENDTAB
  0
TABLE
  2
VIEW
  5
6
330
0
100
AcDbSymbolTable
 70
     0
  0
ENDTAB
  0
TABLE
  2
UCS
  5
7
330
0
100
AcDbSymbolTable
 70
     0
  0
ENDTAB
  0
TABLE
  2
APPID
  5
9
330
0
100
AcDbSymbolTable
 70
     1
  0
APPID
  5
12
330
9
100
AcDbSymbolTableRecord
100
AcDbRegAppTableRecord
  2
ACAD
 70
     0
  0
ENDTAB
  0
TABLE
  2
DIMSTYLE
  5
A
330
0
100
AcDbSymbolTable
 70
     2
  0
DIMSTYLE
105
27
330
A
100
AcDbSymbolTableRecord
100
AcDbDimStyleTableRecord
  2
STANDARD
 70
     0
  3

  4

  5

  6

  7

 40
1.0
 41
0.18
 42
0.0625
 43
0.38
 44
0.18
 45
0.0
 46
0.0
 47
0.0
 48
0.0
140
0.18
141
0.09
142
0.0
143
25.4
144
1.0
145
0.0
146
1.0
147
0.09
 71
     0
 72
     0
 73
     1
 74
     1
 75
     0
 76
     0
 77
     0
 78
     0
170
     0
171
     2
172
     0
173
     0
174
     0
175
     0
176
     0
177
     0
178
     0
270
     2
271
     4
272
     4
273
     2
274
     2
340
11
275
     0
280
     0
281
     0
282
     0
283
     1
284
     0
285
     0
286
     0
287
     3
288
     0
  0
DIMSTYLE
105
A4
330
A
100
AcDbSymbolTableRecord
100
AcDbDimStyleTableRecord
  2
FXDIMINFO
 70
     0
  3

  4

  5

  6
FXTIP_ARROW_S
  7
FXTIP_ARROW_E
 40
1.0
 41
2.0
 42
2.0
 43
7.0
 44
1.0
 45
0.0
 46
6.0
 47
0.0
 48
0.0
140
3.5
141
2.5
142
0.0
143
0.03937
144
1.0
145
0.0
146
1.0
147
1.0
 71
     0
 72
     0
 73
     0
 74
     0
 75
     0
 76
     0
 77
     1
 78
     8
170
     0
171
     3
172
     1
173
     1
174
     0
175
     0
176
     7
177
     7
178
     7
179
     2
270
     2
271
     2
272
     2
273
     2
274
     3
340
3C
275
     0
280
     0
281
     0
282
     0
283
     0
284
     8
285
     0
286
     0
287
     3
288
     0
  0
ENDTAB
  0
TABLE
  2
BLOCK_RECORD
  5
1
330
0
100
AcDbSymbolTable
 70
    94
  0
BLOCK_RECORD
  5
1F
330
1
100
AcDbSymbolTableRecord
100
AcDbBlockTableRecord
  2
*MODEL_SPACE
  0
BLOCK_RECORD
  5
1B
330
1
100
AcDbSymbolTableRecord
100
AcDbBlockTableRecord
  2
*PAPER_SPACE
  0
BLOCK_RECORD
  5
3E
330
1
100
AcDbSymbolTableRecord
100
AcDbBlockTableRecord
  2
FXTIP_ARROW_S
  0
BLOCK_RECORD
  5
44
330
1
100
AcDbSymbolTableRecord
100
AcDbBlockTableRecord
  2
FXTIP_ARROW_E
  0
BLOCK_RECORD
  5
4A
330
1
100
AcDbSymbolTableRecord
100
AcDbBlockTableRecord
  2
FXTIP_BLACKDOT_S
  0
BLOCK_RECORD
  5
50
330
1
100
AcDbSymbolTableRecord
100
AcDbBlockTableRecord
  2
FXTIP_BLACKDOT_E
  0
BLOCK_RECORD
  5
56
330
1
100
AcDbSymbolTableRecord
100
AcDbBlockTableRecord
  2
FXTIP_TRIANGLE_S
  0
BLOCK_RECORD
  5
5D
330
1
100
AcDbSymbolTableRecord
100
AcDbBlockTableRecord
  2
FXTIP_TRIANGLE_E
  0
BLOCK_RECORD
  5
64
330
1
100
AcDbSymbolTableRecord
100
AcDbBlockTableRecord
  2
FXTIP_ARCHITECT_S
  0
BLOCK_RECORD
  5
6A
330
1
100
AcDbSymbolTableRecord
100
AcDbBlockTableRecord
  2
FXTIP_ARCHITECT_E
  0
BLOCK_RECORD
  5
70
330
1
100
AcDbSymbolTableRecord
100
AcDbBlockTableRecord
  2
FXTIP_CIVIL_S
  0
BLOCK_RECORD
  5
76
330
1
100
AcDbSymbolTableRecord
100
AcDbBlockTableRecord
  2
FXTIP_CIVIL_E
  0
BLOCK_RECORD
  5
7C
330
1
100
AcDbSymbolTableRecord
100
AcDbBlockTableRecord
  2
FXTIP_WHITEDOT_S
  0
BLOCK_RECORD
  5
81
330
1
100
AcDbSymbolTableRecord
100
AcDbBlockTableRecord
  2
FXTIP_WHITEDOT_E
  0
BLOCK_RECORD
  5
86
330
1
100
AcDbSymbolTableRecord
100
AcDbBlockTableRecord
  2
FXTIP_UPARROW_S
  0
BLOCK_RECORD
  5
8B
330
1
100
AcDbSymbolTableRecord
100
AcDbBlockTableRecord
  2
FXTIP_UPARROW_E
  0
BLOCK_RECORD
  5
90
330
1
100
AcDbSymbolTableRecord
100
AcDbBlockTableRecord
  2
FXTIP_DOWNARROW_S
  0
BLOCK_RECORD
  5
95
330
1
100
AcDbSymbolTableRecord
100
AcDbBlockTableRecord
  2
FXTIP_DOWNARROW_E
  0
BLOCK_RECORD
  5
9A
330
1
100
AcDbSymbolTableRecord
100
AcDbBlockTableRecord
  2
FXTIP_BLACKTRIANGLE_S
  0
BLOCK_RECORD
  5
9F
330
1
100
AcDbSymbolTableRecord
100
AcDbBlockTableRecord
  2
FXTIP_BLACKTRIANGLE_E
  0
BLOCK_RECORD
  5
D1
330
1
100
AcDbSymbolTableRecord
100
AcDbBlockTableRecord
  2
BLKF021
  0
BLOCK_RECORD
  5
DF
330
1
100
AcDbSymbolTableRecord
100
AcDbBlockTableRecord
  2
BLKF022
  0
BLOCK_RECORD
  5
ED
330
1
100
AcDbSymbolTableRecord
100
AcDbBlockTableRecord
  2
BLKF023
  0
BLOCK_RECORD
  5
FB
330
1
100
AcDbSymbolTableRecord
100
AcDbBlockTableRecord
  2
BLKF024
  0
BLOCK_RECORD
  5
108
330
1
100
AcDbSymbolTableRecord
100
AcDbBlockTableRecord
  2
BLKF025
  0
BLOCK_RECORD
  5
115
330
1
100
AcDbSymbolTableRecord
100
AcDbBlockTableRecord
  2
BLKF026
  0
BLOCK_RECORD
  5
122
330
1
100
AcDbSymbolTableRecord
100
AcDbBlockTableRecord
  2
BLKF027
  0
BLOCK_RECORD
  5
137
330
1
100
AcDbSymbolTableRecord
100
AcDbBlockTableRecord
  2
BLKF028
  0
BLOCK_RECORD
  5
17F
330
1
100
AcDbSymbolTableRecord
100
AcDbBlockTableRecord
  2
BLKF029
  0
BLOCK_RECORD
  5
189
330
1
100
AcDbSymbolTableRecord
100
AcDbBlockTableRecord
  2
BLKF030
  0
BLOCK_RECORD
  5
197
330
1
100
AcDbSymbolTableRecord
100
AcDbBlockTableRecord
  2
BLKF031
  0
BLOCK_RECORD
  5
1A4
330
1
100
AcDbSymbolTableRecord
100
AcDbBlockTableRecord
  2
BLKF032
  0
BLOCK_RECORD
  5
1B1
330
1
100
AcDbSymbolTableRecord
100
AcDbBlockTableRecord
  2
BLKF033
  0
BLOCK_RECORD
  5
1BA
330
1
100
AcDbSymbolTableRecord
100
AcDbBlockTableRecord
  2
BLKF034
  0
BLOCK_RECORD
  5
1C7
330
1
100
AcDbSymbolTableRecord
100
AcDbBlockTableRecord
  2
BLKF035
  0
BLOCK_RECORD
  5
1D5
330
1
100
AcDbSymbolTableRecord
100
AcDbBlockTableRecord
  2
BLKF036
  0
BLOCK_RECORD
  5
1E3
330
1
100
AcDbSymbolTableRecord
100
AcDbBlockTableRecord
  2
BLKF037
  0
BLOCK_RECORD
  5
1F1
330
1
100
AcDbSymbolTableRecord
100
AcDbBlockTableRecord
  2
BLKF038
  0
BLOCK_RECORD
  5
1FE
330
1
100
AcDbSymbolTableRecord
100
AcDbBlockTableRecord
  2
BLKF039
  0
BLOCK_RECORD
  5
20C
330
1
100
AcDbSymbolTableRecord
100
AcDbBlockTableRecord
  2
BLKF040
  0
BLOCK_RECORD
  5
21A
330
1
100
AcDbSymbolTableRecord
100
AcDbBlockTableRecord
  2
BLKF041
  0
BLOCK_RECORD
  5
228
330
1
100
AcDbSymbolTableRecord
100
AcDbBlockTableRecord
  2
BLKF042
  0
BLOCK_RECORD
  5
235
330
1
100
AcDbSymbolTableRecord
100
AcDbBlockTableRecord
  2
BLKF043
  0
BLOCK_RECORD
  5
242
330
1
100
AcDbSymbolTableRecord
100
AcDbBlockTableRecord
  2
BLKF044
  0
BLOCK_RECORD
  5
24F
330
1
100
AcDbSymbolTableRecord
100
AcDbBlockTableRecord
  2
BLKF045
  0
BLOCK_RECORD
  5
28B
330
1
100
AcDbSymbolTableRecord
100
AcDbBlockTableRecord
  2
BLKF046
  0
BLOCK_RECORD
  5
299
330
1
100
AcDbSymbolTableRecord
100
AcDbBlockTableRecord
  2
BLKF047
  0
BLOCK_RECORD
  5
2A7
330
1
100
AcDbSymbolTableRecord
100
AcDbBlockTableRecord
  2
BLKF048
  0
BLOCK_RECORD
  5
2C2
330
1
100
AcDbSymbolTableRecord
100
AcDbBlockTableRecord
  2
BLKF049
  0
BLOCK_RECORD
  5
2D0
330
1
100
AcDbSymbolTableRecord
100
AcDbBlockTableRecord
  2
BLKF050
  0
BLOCK_RECORD
  5
2DD
330
1
100
AcDbSymbolTableRecord
100
AcDbBlockTableRecord
  2
BLKF051
  0
BLOCK_RECORD
  5
2EB
330
1
100
AcDbSymbolTableRecord
100
AcDbBlockTableRecord
  2
BLKF052
  0
BLOCK_RECORD
  5
2F9
330
1
100
AcDbSymbolTableRecord
100
AcDbBlockTableRecord
  2
BLKF053
  0
BLOCK_RECORD
  5
307
330
1
100
AcDbSymbolTableRecord
100
AcDbBlockTableRecord
  2
BLKF054
  0
BLOCK_RECORD
  5
314
330
1
100
AcDbSymbolTableRecord
100
AcDbBlockTableRecord
  2
BLKF055
  0
BLOCK_RECORD
  5
321
330
1
100
AcDbSymbolTableRecord
100
AcDbBlockTableRecord
  2
BLKF056
  0
BLOCK_RECORD
  5
32E
330
1
100
AcDbSymbolTableRecord
100
AcDbBlockTableRecord
  2
BLKF057
  0
BLOCK_RECORD
  5
33B
330
1
100
AcDbSymbolTableRecord
100
AcDbBlockTableRecord
  2
BLKF058
  0
BLOCK_RECORD
  5
349
330
1
100
AcDbSymbolTableRecord
100
AcDbBlockTableRecord
  2
BLKF059
  0
BLOCK_RECORD
  5
357
330
1
100
AcDbSymbolTableRecord
100
AcDbBlockTableRecord
  2
BLKF060
  0
BLOCK_RECORD
  5
36A
330
1
100
AcDbSymbolTableRecord
100
AcDbBlockTableRecord
  2
BLKF061
  0
BLOCK_RECORD
  5
39A
330
1
100
AcDbSymbolTableRecord
100
AcDbBlockTableRecord
  2
BLKF062
  0
BLOCK_RECORD
  5
3A8
330
1
100
AcDbSymbolTableRecord
100
AcDbBlockTableRecord
  2
BLKF063
  0
BLOCK_RECORD
  5
3B6
330
1
100
AcDbSymbolTableRecord
100
AcDbBlockTableRecord
  2
BLKF064
  0
BLOCK_RECORD
  5
3C3
330
1
100
AcDbSymbolTableRecord
100
AcDbBlockTableRecord
  2
BLKF065
  0
BLOCK_RECORD
  5
3D0
330
1
100
AcDbSymbolTableRecord
100
AcDbBlockTableRecord
  2
BLKF066
  0
BLOCK_RECORD
  5
3DE
330
1
100
AcDbSymbolTableRecord
100
AcDbBlockTableRecord
  2
BLKF067
  0
BLOCK_RECORD
  5
3EC
330
1
100
AcDbSymbolTableRecord
100
AcDbBlockTableRecord
  2
BLKF068
  0
BLOCK_RECORD
  5
3F9
330
1
100
AcDbSymbolTableRecord
100
AcDbBlockTableRecord
  2
BLKF069
  0
BLOCK_RECORD
  5
407
330
1
100
AcDbSymbolTableRecord
100
AcDbBlockTableRecord
  2
BLKF070
  0
BLOCK_RECORD
  5
415
330
1
100
AcDbSymbolTableRecord
100
AcDbBlockTableRecord
  2
BLKF071
  0
BLOCK_RECORD
  5
425
330
1
100
AcDbSymbolTableRecord
100
AcDbBlockTableRecord
  2
BLKF072
  0
BLOCK_RECORD
  5
43A
330
1
100
AcDbSymbolTableRecord
100
AcDbBlockTableRecord
  2
BLKF073
  0
BLOCK_RECORD
  5
448
330
1
100
AcDbSymbolTableRecord
100
AcDbBlockTableRecord
  2
BLKF074
  0
BLOCK_RECORD
  5
456
330
1
100
AcDbSymbolTableRecord
100
AcDbBlockTableRecord
  2
BLKF075
  0
BLOCK_RECORD
  5
464
330
1
100
AcDbSymbolTableRecord
100
AcDbBlockTableRecord
  2
BLKF076
  0
BLOCK_RECORD
  5
472
330
1
100
AcDbSymbolTableRecord
100
AcDbBlockTableRecord
  2
BLKF077
  0
BLOCK_RECORD
  5
480
330
1
100
AcDbSymbolTableRecord
100
AcDbBlockTableRecord
  2
BLKF078
  0
BLOCK_RECORD
  5
48E
330
1
100
AcDbSymbolTableRecord
100
AcDbBlockTableRecord
  2
BLKF079
  0
BLOCK_RECORD
  5
49C
330
1
100
AcDbSymbolTableRecord
100
AcDbBlockTableRecord
  2
BLKF080
  0
BLOCK_RECORD
  5
4C8
330
1
100
AcDbSymbolTableRecord
100
AcDbBlockTableRecord
  2
BLKF081
  0
BLOCK_RECORD
  5
4D2
330
1
100
AcDbSymbolTableRecord
100
AcDbBlockTableRecord
  2
BLKF082
  0
BLOCK_RECORD
  5
4DC
330
1
100
AcDbSymbolTableRecord
100
AcDbBlockTableRecord
  2
BLKF083
  0
BLOCK_RECORD
  5
4E6
330
1
100
AcDbSymbolTableRecord
100
AcDbBlockTableRecord
  2
BLKF084
  0
BLOCK_RECORD
  5
4F0
330
1
100
AcDbSymbolTableRecord
100
AcDbBlockTableRecord
  2
BLKF085
  0
BLOCK_RECORD
  5
4FE
330
1
100
AcDbSymbolTableRecord
100
AcDbBlockTableRecord
  2
BLKF086
  0
BLOCK_RECORD
  5
50C
330
1
100
AcDbSymbolTableRecord
100
AcDbBlockTableRecord
  2
BLKF087
  0
BLOCK_RECORD
  5
519
330
1
100
AcDbSymbolTableRecord
100
AcDbBlockTableRecord
  2
BLKF088
  0
BLOCK_RECORD
  5
526
330
1
100
AcDbSymbolTableRecord
100
AcDbBlockTableRecord
  2
BLKF089
  0
BLOCK_RECORD
  5
533
330
1
100
AcDbSymbolTableRecord
100
AcDbBlockTableRecord
  2
BLKF090
  0
BLOCK_RECORD
  5
540
330
1
100
AcDbSymbolTableRecord
100
AcDbBlockTableRecord
  2
BLKF091
  0
BLOCK_RECORD
  5
54E
330
1
100
AcDbSymbolTableRecord
100
AcDbBlockTableRecord
  2
BLKF092
  0
BLOCK_RECORD
  5
55B
330
1
100
AcDbSymbolTableRecord
100
AcDbBlockTableRecord
  2
BLKF093
  0
BLOCK_RECORD
  5
569
330
1
100
AcDbSymbolTableRecord
100
AcDbBlockTableRecord
  2
BLKF094
  0
BLOCK_RECORD
  5
577
330
1
100
AcDbSymbolTableRecord
100
AcDbBlockTableRecord
  2
BLKF095
  0
ENDTAB
  0
ENDSEC
  0
SECTION
  2
BLOCKS
  0
BLOCK
  5
20
330
1F
100
AcDbEntity
  8
0
100
AcDbBlockBegin
  2
*MODEL_SPACE
 70
     0
 71
     0
 10
0.0
 20
0.0
 30
0.0
  3
*MODEL_SPACE
  1

  0
ENDBLK
  5
21
330
1F
100
AcDbEntity
  8
0
100
AcDbBlockEnd
  0
BLOCK
  5
1C
330
1B
100
AcDbEntity
 67
     1
  8
0
100
AcDbBlockBegin
  2
*PAPER_SPACE
 70
     0
 71
     0
 10
0.0
 20
0.0
 30
0.0
  3
*PAPER_SPACE
  1

  0
ENDBLK
  5
1D
330
1B
100
AcDbEntity
 67
     1
  8
0
100
AcDbBlockEnd
  0
BLOCK
  5
3F
330
3E
100
AcDbEntity
  8
0
100
AcDbBlockBegin
  2
FXTIP_ARROW_S
 70
     0
 71
     0
 10
0.0
 20
0.0
 30
0.0
  3
FXTIP_ARROW_S
  1

  0
LINE
  5
41
330
3E
100
AcDbEntity
  8
0
  6
CONTINUOUS
 62
     0
100
AcDbLine
 10
0.0
 20
0.0
 30
0.0
 11
-1.0
 21
0.0
 31
0.0
  0
LINE
  5
42
330
3E
100
AcDbEntity
  8
0
  6
CONTINUOUS
 62
     0
100
AcDbLine
 10
0.0
 20
0.0
 30
0.0
 11
-0.965926
 21
-0.258819
 31
0.0
  0
LINE
  5
43
330
3E
100
AcDbEntity
  8
0
  6
CONTINUOUS
 62
     0
100
AcDbLine
 10
0.0
 20
0.0
 30
0.0
 11
-0.965926
 21
0.258819
 31
0.0
  0
ENDBLK
  5
40
330
3E
100
AcDbEntity
  8
0
100
AcDbBlockEnd
  0
BLOCK
  5
45
330
44
100
AcDbEntity
  8
0
100
AcDbBlockBegin
  2
FXTIP_ARROW_E
 70
     0
 71
     0
 10
0.0
 20
0.0
 30
0.0
  3
FXTIP_ARROW_E
  1

  0
LINE
  5
47
330
44
100
AcDbEntity
  8
0
  6
CONTINUOUS
 62
     0
100
AcDbLine
 10
0.0
 20
0.0
 30
0.0
 11
-1.0
 21
0.0
 31
0.0
  0
LINE
  5
48
330
44
100
AcDbEntity
  8
0
  6
CONTINUOUS
 62
     0
100
AcDbLine
 10
0.0
 20
0.0
 30
0.0
 11
-0.965926
 21
0.258819
 31
0.0
  0
LINE
  5
49
330
44
100
AcDbEntity
  8
0
  6
CONTINUOUS
 62
     0
100
AcDbLine
 10
0.0
 20
0.0
 30
0.0
 11
-0.965926
 21
-0.258819
 31
0.0
  0
ENDBLK
  5
46
330
44
100
AcDbEntity
  8
0
100
AcDbBlockEnd
  0
BLOCK
  5
4B
330
4A
100
AcDbEntity
  8
0
100
AcDbBlockBegin
  2
FXTIP_BLACKDOT_S
 70
     0
 71
     0
 10
0.0
 20
0.0
 30
0.0
  3
FXTIP_BLACKDOT_S
  1

  0
LINE
  5
4D
330
4A
100
AcDbEntity
  8
0
  6
CONTINUOUS
 62
     0
100
AcDbLine
 10
0.0
 20
0.0
 30
0.0
 11
-1.0
 21
0.0
 31
0.0
  0
POLYLINE
  5
4E
330
4A
100
AcDbEntity
  8
0
  6
CONTINUOUS
 62
     0
100
AcDb2dPolyline
 66
     1
 10
0.0
 20
0.0
 30
0.0
 70
     1
  0
VERTEX
  5
5BC
330
4E
100
AcDbEntity
  8
0
  6
CONTINUOUS
 62
     0
100
AcDbVertex
100
AcDb2dVertex
 10
-0.25
 20
0.0
 30
0.0
 40
0.5
 41
0.5
 42
1.0
  0
VERTEX
  5
5BD
330
4E
100
AcDbEntity
  8
0
  6
CONTINUOUS
 62
     0
100
AcDbVertex
100
AcDb2dVertex
 10
0.25
 20
0.0
 30
0.0
 40
0.5
 41
0.5
 42
1.0
  0
SEQEND
  5
5BB
330
4E
100
AcDbEntity
  8
0
  6
CONTINUOUS
 62
     0
  0
CIRCLE
  5
4F
330
4A
100
AcDbEntity
  8
0
  6
CONTINUOUS
 62
     0
100
AcDbCircle
 10
0.0
 20
0.0
 30
0.0
 40
0.5
  0
ENDBLK
  5
4C
330
4A
100
AcDbEntity
  8
0
100
AcDbBlockEnd
  0
BLOCK
  5
51
330
50
100
AcDbEntity
  8
0
100
AcDbBlockBegin
  2
FXTIP_BLACKDOT_E
 70
     0
 71
     0
 10
0.0
 20
0.0
 30
0.0
  3
FXTIP_BLACKDOT_E
  1

  0
LINE
  5
53
330
50
100
AcDbEntity
  8
0
  6
CONTINUOUS
 62
     0
100
AcDbLine
 10
0.0
 20
0.0
 30
0.0
 11
-1.0
 21
0.0
 31
0.0
  0
POLYLINE
  5
54
330
50
100
AcDbEntity
  8
0
  6
CONTINUOUS
 62
     0
100
AcDb2dPolyline
 66
     1
 10
0.0
 20
0.0
 30
0.0
 70
     1
  0
VERTEX
  5
5BF
330
54
100
AcDbEntity
  8
0
  6
CONTINUOUS
 62
     0
100
AcDbVertex
100
AcDb2dVertex
 10
-0.25
 20
0.0
 30
0.0
 40
0.5
 41
0.5
 42
1.0
  0
VERTEX
  5
5C0
330
54
100
AcDbEntity
  8
0
  6
CONTINUOUS
 62
     0
100
AcDbVertex
100
AcDb2dVertex
 10
0.25
 20
0.0
 30
0.0
 40
0.5
 41
0.5
 42
1.0
  0
SEQEND
  5
5BE
330
54
100
AcDbEntity
  8
0
  6
CONTINUOUS
 62
     0
  0
CIRCLE
  5
55
330
50
100
AcDbEntity
  8
0
  6
CONTINUOUS
 62
     0
100
AcDbCircle
 10
0.0
 20
0.0
 30
0.0
 40
0.5
  0
ENDBLK
  5
52
330
50
100
AcDbEntity
  8
0
100
AcDbBlockEnd
  0
BLOCK
  5
57
330
56
100
AcDbEntity
  8
0
100
AcDbBlockBegin
  2
FXTIP_TRIANGLE_S
 70
     0
 71
     0
 10
0.0
 20
0.0
 30
0.0
  3
FXTIP_TRIANGLE_S
  1

  0
LINE
  5
59
330
56
100
AcDbEntity
  8
0
  6
CONTINUOUS
 62
     0
100
AcDbLine
 10
0.0
 20
0.0
 30
0.0
 11
-1.0
 21
0.0
 31
0.0
  0
LINE
  5
5A
330
56
100
AcDbEntity
  8
0
  6
CONTINUOUS
 62
     0
100
AcDbLine
 10
0.0
 20
0.0
 30
0.0
 11
-0.965926
 21
-0.258819
 31
0.0
  0
LINE
  5
5B
330
56
100
AcDbEntity
  8
0
  6
CONTINUOUS
 62
     0
100
AcDbLine
 10
0.0
 20
0.0
 30
0.0
 11
-0.965926
 21
0.258819
 31
0.0
  0
LINE
  5
5C
330
56
100
AcDbEntity
  8
0
  6
CONTINUOUS
 62
     0
100
AcDbLine
 10
-0.965926
 20
-0.258819
 30
0.0
 11
-0.965926
 21
0.258819
 31
0.0
  0
ENDBLK
  5
58
330
56
100
AcDbEntity
  8
0
100
AcDbBlockEnd
  0
BLOCK
  5
5E
330
5D
100
AcDbEntity
  8
0
100
AcDbBlockBegin
  2
FXTIP_TRIANGLE_E
 70
     0
 71
     0
 10
0.0
 20
0.0
 30
0.0
  3
FXTIP_TRIANGLE_E
  1

  0
LINE
  5
60
330
5D
100
AcDbEntity
  8
0
  6
CONTINUOUS
 62
     0
100
AcDbLine
 10
0.0
 20
0.0
 30
0.0
 11
-1.0
 21
0.0
 31
0.0
  0
LINE
  5
61
330
5D
100
AcDbEntity
  8
0
  6
CONTINUOUS
 62
     0
100
AcDbLine
 10
0.0
 20
0.0
 30
0.0
 11
-0.965926
 21
0.258819
 31
0.0
  0
LINE
  5
62
330
5D
100
AcDbEntity
  8
0
  6
CONTINUOUS
 62
     0
100
AcDbLine
 10
0.0
 20
0.0
 30
0.0
 11
-0.965926
 21
-0.258819
 31
0.0
  0
LINE
  5
63
330
5D
100
AcDbEntity
  8
0
  6
CONTINUOUS
 62
     0
100
AcDbLine
 10
-0.965926
 20
0.258819
 30
0.0
 11
-0.965926
 21
-0.258819
 31
0.0
  0
ENDBLK
  5
5F
330
5D
100
AcDbEntity
  8
0
100
AcDbBlockEnd
  0
BLOCK
  5
65
330
64
100
AcDbEntity
  8
0
100
AcDbBlockBegin
  2
FXTIP_ARCHITECT_S
 70
     0
 71
     0
 10
0.0
 20
0.0
 30
0.0
  3
FXTIP_ARCHITECT_S
  1

  0
LINE
  5
67
330
64
100
AcDbEntity
  8
0
  6
CONTINUOUS
 62
     0
100
AcDbLine
 10
0.0
 20
0.0
 30
0.0
 11
-1.0
 21
0.0
 31
0.0
  0
LINE
  5
68
330
64
100
AcDbEntity
  8
0
  6
CONTINUOUS
 62
     0
100
AcDbLine
 10
0.0
 20
0.0
 30
0.0
 11
-0.707107
 21
-0.707107
 31
0.0
  0
LINE
  5
69
330
64
100
AcDbEntity
  8
0
  6
CONTINUOUS
 62
     0
100
AcDbLine
 10
0.0
 20
0.0
 30
0.0
 11
0.707107
 21
0.707107
 31
0.0
  0
ENDBLK
  5
66
330
64
100
AcDbEntity
  8
0
100
AcDbBlockEnd
  0
BLOCK
  5
6B
330
6A
100
AcDbEntity
  8
0
100
AcDbBlockBegin
  2
FXTIP_ARCHITECT_E
 70
     0
 71
     0
 10
0.0
 20
0.0
 30
0.0
  3
FXTIP_ARCHITECT_E
  1

  0
LINE
  5
6D
330
6A
100
AcDbEntity
  8
0
  6
CONTINUOUS
 62
     0
100
AcDbLine
 10
0.0
 20
0.0
 30
0.0
 11
-1.0
 21
0.0
 31
0.0
  0
LINE
  5
6E
330
6A
100
AcDbEntity
  8
0
  6
CONTINUOUS
 62
     0
100
AcDbLine
 10
0.0
 20
0.0
 30
0.0
 11
0.707107
 21
0.707107
 31
0.0
  0
LINE
  5
6F
330
6A
100
AcDbEntity
  8
0
  6
CONTINUOUS
 62
     0
100
AcDbLine
 10
0.0
 20
0.0
 30
0.0
 11
-0.707107
 21
-0.707107
 31
0.0
  0
ENDBLK
  5
6C
330
6A
100
AcDbEntity
  8
0
100
AcDbBlockEnd
  0
BLOCK
  5
71
330
70
100
AcDbEntity
  8
0
100
AcDbBlockBegin
  2
FXTIP_CIVIL_S
 70
     0
 71
     0
 10
0.0
 20
0.0
 30
0.0
  3
FXTIP_CIVIL_S
  1

  0
LINE
  5
73
330
70
100
AcDbEntity
  8
0
  6
CONTINUOUS
 62
     0
100
AcDbLine
 10
0.0
 20
0.0
 30
0.0
 11
-1.0
 21
0.0
 31
0.0
  0
LINE
  5
74
330
70
100
AcDbEntity
  8
0
  6
CONTINUOUS
 62
     0
100
AcDbLine
 10
0.0
 20
-0.125
 30
0.0
 11
-1.0
 21
-0.125
 31
0.0
  0
LINE
  5
75
330
70
100
AcDbEntity
  8
0
  6
CONTINUOUS
 62
     0
100
AcDbLine
 10
0.0
 20
-0.25
 30
0.0
 11
-1.0
 21
-0.25
 31
0.0
  0
ENDBLK
  5
72
330
70
100
AcDbEntity
  8
0
100
AcDbBlockEnd
  0
BLOCK
  5
77
330
76
100
AcDbEntity
  8
0
100
AcDbBlockBegin
  2
FXTIP_CIVIL_E
 70
     0
 71
     0
 10
0.0
 20
0.0
 30
0.0
  3
FXTIP_CIVIL_E
  1

  0
LINE
  5
79
330
76
100
AcDbEntity
  8
0
  6
CONTINUOUS
 62
     0
100
AcDbLine
 10
0.0
 20
0.0
 30
0.0
 11
-1.0
 21
0.0
 31
0.0
  0
LINE
  5
7A
330
76
100
AcDbEntity
  8
0
  6
CONTINUOUS
 62
     0
100
AcDbLine
 10
0.0
 20
0.125
 30
0.0
 11
-1.0
 21
0.125
 31
0.0
  0
LINE
  5
7B
330
76
100
AcDbEntity
  8
0
  6
CONTINUOUS
 62
     0
100
AcDbLine
 10
0.0
 20
0.25
 30
0.0
 11
-1.0
 21
0.25
 31
0.0
  0
ENDBLK
  5
78
330
76
100
AcDbEntity
  8
0
100
AcDbBlockEnd
  0
BLOCK
  5
7D
330
7C
100
AcDbEntity
  8
0
100
AcDbBlockBegin
  2
FXTIP_WHITEDOT_S
 70
     0
 71
     0
 10
0.0
 20
0.0
 30
0.0
  3
FXTIP_WHITEDOT_S
  1

  0
LINE
  5
7F
330
7C
100
AcDbEntity
  8
0
  6
CONTINUOUS
 62
     0
100
AcDbLine
 10
0.0
 20
0.0
 30
0.0
 11
-1.0
 21
0.0
 31
0.0
  0
CIRCLE
  5
80
330
7C
100
AcDbEntity
  8
0
  6
CONTINUOUS
 62
     0
100
AcDbCircle
 10
0.0
 20
0.0
 30
0.0
 40
0.5
  0
ENDBLK
  5
7E
330
7C
100
AcDbEntity
  8
0
100
AcDbBlockEnd
  0
BLOCK
  5
82
330
81
100
AcDbEntity
  8
0
100
AcDbBlockBegin
  2
FXTIP_WHITEDOT_E
 70
     0
 71
     0
 10
0.0
 20
0.0
 30
0.0
  3
FXTIP_WHITEDOT_E
  1

  0
LINE
  5
84
330
81
100
AcDbEntity
  8
0
  6
CONTINUOUS
 62
     0
100
AcDbLine
 10
0.0
 20
0.0
 30
0.0
 11
-1.0
 21
0.0
 31
0.0
  0
CIRCLE
  5
85
330
81
100
AcDbEntity
  8
0
  6
CONTINUOUS
 62
     0
100
AcDbCircle
 10
0.0
 20
0.0
 30
0.0
 40
0.5
  0
ENDBLK
  5
83
330
81
100
AcDbEntity
  8
0
100
AcDbBlockEnd
  0
BLOCK
  5
87
330
86
100
AcDbEntity
  8
0
100
AcDbBlockBegin
  2
FXTIP_UPARROW_S
 70
     0
 71
     0
 10
0.0
 20
0.0
 30
0.0
  3
FXTIP_UPARROW_S
  1

  0
LINE
  5
89
330
86
100
AcDbEntity
  8
0
  6
CONTINUOUS
 62
     0
100
AcDbLine
 10
0.0
 20
0.0
 30
0.0
 11
-1.0
 21
0.0
 31
0.0
  0
LINE
  5
8A
330
86
100
AcDbEntity
  8
0
  6
CONTINUOUS
 62
     0
100
AcDbLine
 10
0.0
 20
0.0
 30
0.0
 11
-0.965926
 21
-0.258819
 31
0.0
  0
ENDBLK
  5
88
330
86
100
AcDbEntity
  8
0
100
AcDbBlockEnd
  0
BLOCK
  5
8C
330
8B
100
AcDbEntity
  8
0
100
AcDbBlockBegin
  2
FXTIP_UPARROW_E
 70
     0
 71
     0
 10
0.0
 20
0.0
 30
0.0
  3
FXTIP_UPARROW_E
  1

  0
LINE
  5
8E
330
8B
100
AcDbEntity
  8
0
  6
CONTINUOUS
 62
     0
100
AcDbLine
 10
0.0
 20
0.0
 30
0.0
 11
-1.0
 21
0.0
 31
0.0
  0
LINE
  5
8F
330
8B
100
AcDbEntity
  8
0
  6
CONTINUOUS
 62
     0
100
AcDbLine
 10
0.0
 20
0.0
 30
0.0
 11
-0.965926
 21
0.258819
 31
0.0
  0
ENDBLK
  5
8D
330
8B
100
AcDbEntity
  8
0
100
AcDbBlockEnd
  0
BLOCK
  5
91
330
90
100
AcDbEntity
  8
0
100
AcDbBlockBegin
  2
FXTIP_DOWNARROW_S
 70
     0
 71
     0
 10
0.0
 20
0.0
 30
0.0
  3
FXTIP_DOWNARROW_S
  1

  0
LINE
  5
93
330
90
100
AcDbEntity
  8
0
  6
CONTINUOUS
 62
     0
100
AcDbLine
 10
0.0
 20
0.0
 30
0.0
 11
-1.0
 21
0.0
 31
0.0
  0
LINE
  5
94
330
90
100
AcDbEntity
  8
0
  6
CONTINUOUS
 62
     0
100
AcDbLine
 10
0.0
 20
0.0
 30
0.0
 11
-0.965926
 21
0.258819
 31
0.0
  0
ENDBLK
  5
92
330
90
100
AcDbEntity
  8
0
100
AcDbBlockEnd
  0
BLOCK
  5
96
330
95
100
AcDbEntity
  8
0
100
AcDbBlockBegin
  2
FXTIP_DOWNARROW_E
 70
     0
 71
     0
 10
0.0
 20
0.0
 30
0.0
  3
FXTIP_DOWNARROW_E
  1

  0
LINE
  5
98
330
95
100
AcDbEntity
  8
0
  6
CONTINUOUS
 62
     0
100
AcDbLine
 10
0.0
 20
0.0
 30
0.0
 11
-1.0
 21
0.0
 31
0.0
  0
LINE
  5
99
330
95
100
AcDbEntity
  8
0
  6
CONTINUOUS
 62
     0
100
AcDbLine
 10
0.0
 20
0.0
 30
0.0
 11
-0.965926
 21
-0.258819
 31
0.0
  0
ENDBLK
  5
97
330
95
100
AcDbEntity
  8
0
100
AcDbBlockEnd
  0
BLOCK
  5
9B
330
9A
100
AcDbEntity
  8
0
100
AcDbBlockBegin
  2
FXTIP_BLACKTRIANGLE_S
 70
     0
 71
     0
 10
0.0
 20
0.0
 30
0.0
  3
FXTIP_BLACKTRIANGLE_S
  1

  0
LINE
  5
9D
330
9A
100
AcDbEntity
  8
0
  6
CONTINUOUS
 62
     0
100
AcDbLine
 10
0.0
 20
0.0
 30
0.0
 11
-1.0
 21
0.0
 31
0.0
  0
SOLID
  5
9E
330
9A
100
AcDbEntity
  8
0
  6
CONTINUOUS
 62
     0
100
AcDbTrace
 10
0.0
 20
0.0
 30
0.0
 11
-0.965926
 21
-0.258819
 31
0.0
 12
-0.965926
 22
0.258819
 32
0.0
 13
-0.965926
 23
0.258819
 33
0.0
  0
ENDBLK
  5
9C
330
9A
100
AcDbEntity
  8
0
100
AcDbBlockEnd
  0
BLOCK
  5
A0
330
9F
100
AcDbEntity
  8
0
100
AcDbBlockBegin
  2
FXTIP_BLACKTRIANGLE_E
 70
     0
 71
     0
 10
0.0
 20
0.0
 30
0.0
  3
FXTIP_BLACKTRIANGLE_E
  1

  0
LINE
  5
A2
330
9F
100
AcDbEntity
  8
0
  6
CONTINUOUS
 62
     0
100
AcDbLine
 10
0.0
 20
0.0
 30
0.0
 11
-1.0
 21
0.0
 31
0.0
  0
SOLID
  5
A3
330
9F
100
AcDbEntity
  8
0
  6
CONTINUOUS
 62
     0
100
AcDbTrace
 10
0.0
 20
0.0
 30
0.0
 11
-0.965926
 21
0.258819
 31
0.0
 12
-0.965926
 22
-0.258819
 32
0.0
 13
-0.965926
 23
-0.258819
 33
0.0
  0
ENDBLK
  5
A1
330
9F
100
AcDbEntity
  8
0
100
AcDbBlockEnd
  0
BLOCK
  5
D2
330
D1
100
AcDbEntity
  8
0
100
AcDbBlockBegin
  2
BLKF021
 70
     0
 71
     0
 10
0.0
 20
0.0
 30
0.0
  3
BLKF021
  1

  0
LINE
  5
D5
330
D1
100
AcDbEntity
  8
GR1-1
  6
細い実線
 62
     7
100
AcDbLine
 10
724.983411
 20
168.512085
 30
0.0
 11
718.316745
 21
168.512085
 31
0.0
  0
LINE
  5
D6
330
D1
100
AcDbEntity
  8
GR1-1
  6
細い実線
 62
     7
100
AcDbLine
 10
724.983411
 20
181.285419
 30
0.0
 11
718.316745
 21
181.285419
 31
0.0
  0
LINE
  5
D7
330
D1
100
AcDbEntity
  8
GR1-1
  6
細い実線
 62
     7
100
AcDbLine
 10
718.983411
 20
181.285419
 30
0.0
 11
718.983411
 21
168.512085
 31
0.0
  0
LINE
  5
D8
330
D1
100
AcDbEntity
  8
GR1-1
  6
細い実線
 62
     7
100
AcDbLine
 10
718.638319
 20
169.799986
 30
0.0
 11
719.328503
 21
169.799986
 31
0.0
  0
LINE
  5
D9
330
D1
100
AcDbEntity
  8
GR1-1
  6
細い実線
 62
     7
100
AcDbLine
 10
719.328503
 20
169.799986
 30
0.0
 11
718.983411
 21
168.512085
 31
0.0
  0
LINE
  5
DA
330
D1
100
AcDbEntity
  8
GR1-1
  6
細い実線
 62
     7
100
AcDbLine
 10
718.983411
 20
168.512085
 30
0.0
 11
718.638319
 21
169.799986
 31
0.0
  0
LINE
  5
DB
330
D1
100
AcDbEntity
  8
GR1-1
  6
細い実線
 62
     7
100
AcDbLine
 10
719.328503
 20
179.997518
 30
0.0
 11
718.638319
 21
179.997518
 31
0.0
  0
LINE
  5
DC
330
D1
100
AcDbEntity
  8
GR1-1
  6
細い実線
 62
     7
100
AcDbLine
 10
718.638319
 20
179.997518
 30
0.0
 11
718.983411
 21
181.285419
 31
0.0
  0
LINE
  5
DD
330
D1
100
AcDbEntity
  8
GR1-1
  6
細い実線
 62
     7
100
AcDbLine
 10
718.983411
 20
181.285419
 30
0.0
 11
719.328503
 21
179.997518
 31
0.0
  0
TEXT
  5
DE
330
D1
100
AcDbEntity
  8
GR1-1
  6
細い実線
 62
     7
100
AcDbText
 10
718.983398
 20
171.56543
 30
0.0
 40
2.0
  1
３８３．２
 50
90.0
 41
0.666667
  7
FX_VECTOR
 72
     5
 11
718.983398
 21
178.232096
 31
0.0
100
AcDbText
  0
ENDBLK
  5
D3
330
D1
100
AcDbEntity
  8
0
100
AcDbBlockEnd
  0
BLOCK
  5
E0
330
DF
100
AcDbEntity
  8
0
100
AcDbBlockBegin
  2
BLKF022
 70
     0
 71
     0
 10
0.0
 20
0.0
 30
0.0
  3
BLKF022
  1

  0
LINE
  5
E3
330
DF
100
AcDbEntity
  8
GR1-1
  6
細い実線
 62
     7
100
AcDbLine
 10
725.650078
 20
181.952085
 30
0.0
 11
725.650078
 21
193.618752
 31
0.0
  0
LINE
  5
E4
330
DF
100
AcDbEntity
  8
GR1-1
  6
細い実線
 62
     7
100
AcDbLine
 10
767.316745
 20
181.952085
 30
0.0
 11
767.316745
 21
193.618752
 31
0.0
  0
LINE
  5
E5
330
DF
100
AcDbEntity
  8
GR1-1
  6
細い実線
 62
     7
100
AcDbLine
 10
767.316745
 20
192.952085
 30
0.0
 11
725.650078
 21
192.952085
 31
0.0
  0
LINE
  5
E6
330
DF
100
AcDbEntity
  8
GR1-1
  6
細い実線
 62
     7
100
AcDbLine
 10
726.937979
 20
193.297177
 30
0.0
 11
726.937979
 21
192.606993
 31
0.0
  0
LINE
  5
E7
330
DF
100
AcDbEntity
  8
GR1-1
  6
細い実線
 62
     7
100
AcDbLine
 10
726.937979
 20
192.606993
 30
0.0
 11
725.650078
 21
192.952085
 31
0.0
  0
LINE
  5
E8
330
DF
100
AcDbEntity
  8
GR1-1
  6
細い実線
 62
     7
100
AcDbLine
 10
725.650078
 20
192.952085
 30
0.0
 11
726.937979
 21
193.297177
 31
0.0
  0
LINE
  5
E9
330
DF
100
AcDbEntity
  8
GR1-1
  6
細い実線
 62
     7
100
AcDbLine
 10
766.028844
 20
192.606993
 30
0.0
 11
766.028844
 21
193.297177
 31
0.0
  0
LINE
  5
EA
330
DF
100
AcDbEntity
  8
GR1-1
  6
細い実線
 62
     7
100
AcDbLine
 10
766.028844
 20
193.297177
 30
0.0
 11
767.316745
 21
192.952085
 31
0.0
  0
LINE
  5
EB
330
DF
100
AcDbEntity
  8
GR1-1
  6
細い実線
 62
     7
100
AcDbLine
 10
767.316745
 20
192.952085
 30
0.0
 11
766.028844
 21
192.606993
 31
0.0
  0
TEXT
  5
EC
330
DF
100
AcDbEntity
  8
GR1-1
  6
細い実線
 62
     7
100
AcDbText
 10
743.816732
 20
192.9521
 30
0.0
 40
2.0
  1
１２５０
 41
0.666667
  7
FX_VECTOR
 72
     5
 11
749.150065
 21
192.9521
 31
0.0
100
AcDbText
  0
ENDBLK
  5
E1
330
DF
100
AcDbEntity
  8
0
100
AcDbBlockEnd
  0
BLOCK
  5
EE
330
ED
100
AcDbEntity
  8
0
100
AcDbBlockBegin
  2
BLKF023
 70
     0
 71
     0
 10
0.0
 20
0.0
 30
0.0
  3
BLKF023
  1

  0
LINE
  5
F1
330
ED
100
AcDbEntity
  8
GR1-1
  6
細い実線
 62
     7
100
AcDbLine
 10
725.650078
 20
181.952085
 30
0.0
 11
725.650078
 21
190.285419
 31
0.0
  0
LINE
  5
F2
330
ED
100
AcDbEntity
  8
GR1-1
  6
細い実線
 62
     7
100
AcDbLine
 10
736.233411
 20
181.952085
 30
0.0
 11
736.233411
 21
190.285419
 31
0.0
  0
LINE
  5
F3
330
ED
100
AcDbEntity
  8
GR1-1
  6
細い実線
 62
     7
100
AcDbLine
 10
736.233411
 20
189.618752
 30
0.0
 11
725.650078
 21
189.618752
 31
0.0
  0
LINE
  5
F4
330
ED
100
AcDbEntity
  8
GR1-1
  6
細い実線
 62
     7
100
AcDbLine
 10
726.937979
 20
189.963844
 30
0.0
 11
726.937979
 21
189.27366
 31
0.0
  0
LINE
  5
F5
330
ED
100
AcDbEntity
  8
GR1-1
  6
細い実線
 62
     7
100
AcDbLine
 10
726.937979
 20
189.27366
 30
0.0
 11
725.650078
 21
189.618752
 31
0.0
  0
LINE
  5
F6
330
ED
100
AcDbEntity
  8
GR1-1
  6
細い実線
 62
     7
100
AcDbLine
 10
725.650078
 20
189.618752
 30
0.0
 11
726.937979
 21
189.963844
 31
0.0
  0
LINE
  5
F7
330
ED
100
AcDbEntity
  8
GR1-1
  6
細い実線
 62
     7
100
AcDbLine
 10
734.94551
 20
189.27366
 30
0.0
 11
734.94551
 21
189.963844
 31
0.0
  0
LINE
  5
F8
330
ED
100
AcDbEntity
  8
GR1-1
  6
細い実線
 62
     7
100
AcDbLine
 10
734.94551
 20
189.963844
 30
0.0
 11
736.233411
 21
189.618752
 31
0.0
  0
LINE
  5
F9
330
ED
100
AcDbEntity
  8
GR1-1
  6
細い実線
 62
     7
100
AcDbLine
 10
736.233411
 20
189.618752
 30
0.0
 11
734.94551
 21
189.27366
 31
0.0
  0
TEXT
  5
FA
330
ED
100
AcDbEntity
  8
GR1-1
  6
細い実線
 62
     7
100
AcDbText
 10
727.608398
 20
189.618766
 30
0.0
 40
2.0
  1
３１７．５
 41
0.666667
  7
FX_VECTOR
 72
     5
 11
734.275065
 21
189.618766
 31
0.0
100
AcDbText
  0
ENDBLK
  5
EF
330
ED
100
AcDbEntity
  8
0
100
AcDbBlockEnd
  0
BLOCK
  5
FC
330
FB
100
AcDbEntity
  8
0
100
AcDbBlockBegin
  2
BLKF024
 70
     0
 71
     0
 10
0.0
 20
0.0
 30
0.0
  3
BLKF024
  1

  0
LINE
  5
FF
330
FB
100
AcDbEntity
  8
GR1-1
  6
細い実線
 62
     7
100
AcDbLine
 10
739.900078
 20
181.952085
 30
0.0
 11
739.900078
 21
190.285419
 31
0.0
  0
LINE
  5
100
330
FB
100
AcDbEntity
  8
GR1-1
  6
細い実線
 62
     7
100
AcDbLine
 10
739.900078
 20
189.618752
 30
0.0
 11
736.233411
 21
189.618752
 31
0.0
  0
LINE
  5
101
330
FB
100
AcDbEntity
  8
GR1-1
  6
細い実線
 62
     7
100
AcDbLine
 10
737.521312
 20
189.963844
 30
0.0
 11
737.521312
 21
189.27366
 31
0.0
  0
LINE
  5
102
330
FB
100
AcDbEntity
  8
GR1-1
  6
細い実線
 62
     7
100
AcDbLine
 10
737.521312
 20
189.27366
 30
0.0
 11
736.233411
 21
189.618752
 31
0.0
  0
LINE
  5
103
330
FB
100
AcDbEntity
  8
GR1-1
  6
細い実線
 62
     7
100
AcDbLine
 10
736.233411
 20
189.618752
 30
0.0
 11
737.521312
 21
189.963844
 31
0.0
  0
LINE
  5
104
330
FB
100
AcDbEntity
  8
GR1-1
  6
細い実線
 62
     7
100
AcDbLine
 10
738.612177
 20
189.27366
 30
0.0
 11
738.612177
 21
189.963844
 31
0.0
  0
LINE
  5
105
330
FB
100
AcDbEntity
  8
GR1-1
  6
細い実線
 62
     7
100
AcDbLine
 10
738.612177
 20
189.963844
 30
0.0
 11
739.900078
 21
189.618752
 31
0.0
  0
LINE
  5
106
330
FB
100
AcDbEntity
  8
GR1-1
  6
細い実線
 62
     7
100
AcDbLine
 10
739.900078
 20
189.618752
 30
0.0
 11
738.612177
 21
189.27366
 31
0.0
  0
TEXT
  5
107
330
FB
100
AcDbEntity
  8
GR1-1
  6
細い実線
 62
     7
100
AcDbText
 10
736.066732
 20
190.285433
 30
0.0
 40
2.0
  1
１１０
 41
0.666667
  7
FX_VECTOR
 72
     5
 11
740.066732
 21
190.285433
 31
0.0
100
AcDbText
  0
ENDBLK
  5
FD
330
FB
100
AcDbEntity
  8
0
100
AcDbBlockEnd
  0
BLOCK
  5
109
330
108
100
AcDbEntity
  8
0
100
AcDbBlockBegin
  2
BLKF025
 70
     0
 71
     0
 10
0.0
 20
0.0
 30
0.0
  3
BLKF025
  1

  0
LINE
  5
10C
330
108
100
AcDbEntity
  8
GR1-1
  6
細い実線
 62
     7
100
AcDbLine
 10
753.066745
 20
181.952085
 30
0.0
 11
753.066745
 21
190.285419
 31
0.0
  0
LINE
  5
10D
330
108
100
AcDbEntity
  8
GR1-1
  6
細い実線
 62
     7
100
AcDbLine
 10
753.066745
 20
189.618752
 30
0.0
 11
739.900078
 21
189.618752
 31
0.0
  0
LINE
  5
10E
330
108
100
AcDbEntity
  8
GR1-1
  6
細い実線
 62
     7
100
AcDbLine
 10
741.187979
 20
189.963844
 30
0.0
 11
741.187979
 21
189.27366
 31
0.0
  0
LINE
  5
10F
330
108
100
AcDbEntity
  8
GR1-1
  6
細い実線
 62
     7
100
AcDbLine
 10
741.187979
 20
189.27366
 30
0.0
 11
739.900078
 21
189.618752
 31
0.0
  0
LINE
  5
110
330
108
100
AcDbEntity
  8
GR1-1
  6
細い実線
 62
     7
100
AcDbLine
 10
739.900078
 20
189.618752
 30
0.0
 11
741.187979
 21
189.963844
 31
0.0
  0
LINE
  5
111
330
108
100
AcDbEntity
  8
GR1-1
  6
細い実線
 62
     7
100
AcDbLine
 10
751.778844
 20
189.27366
 30
0.0
 11
751.778844
 21
189.963844
 31
0.0
  0
LINE
  5
112
330
108
100
AcDbEntity
  8
GR1-1
  6
細い実線
 62
     7
100
AcDbLine
 10
751.778844
 20
189.963844
 30
0.0
 11
753.066745
 21
189.618752
 31
0.0
  0
LINE
  5
113
330
108
100
AcDbEntity
  8
GR1-1
  6
細い実線
 62
     7
100
AcDbLine
 10
753.066745
 20
189.618752
 30
0.0
 11
751.778844
 21
189.27366
 31
0.0
  0
TEXT
  5
114
330
108
100
AcDbEntity
  8
GR1-1
  6
細い実線
 62
     7
100
AcDbText
 10
744.483398
 20
189.618766
 30
0.0
 40
2.0
  1
３９５
 41
0.666667
  7
FX_VECTOR
 72
     5
 11
748.483398
 21
189.618766
 31
0.0
100
AcDbText
  0
ENDBLK
  5
10A
330
108
100
AcDbEntity
  8
0
100
AcDbBlockEnd
  0
BLOCK
  5
116
330
115
100
AcDbEntity
  8
0
100
AcDbBlockBegin
  2
BLKF026
 70
     0
 71
     0
 10
0.0
 20
0.0
 30
0.0
  3
BLKF026
  1

  0
LINE
  5
119
330
115
100
AcDbEntity
  8
GR1-1
  6
細い実線
 62
     7
100
AcDbLine
 10
756.733411
 20
181.952085
 30
0.0
 11
756.733411
 21
190.285419
 31
0.0
  0
LINE
  5
11A
330
115
100
AcDbEntity
  8
GR1-1
  6
細い実線
 62
     7
100
AcDbLine
 10
756.733411
 20
189.618752
 30
0.0
 11
753.066745
 21
189.618752
 31
0.0
  0
LINE
  5
11B
330
115
100
AcDbEntity
  8
GR1-1
  6
細い実線
 62
     7
100
AcDbLine
 10
754.354646
 20
189.963844
 30
0.0
 11
754.354646
 21
189.27366
 31
0.0
  0
LINE
  5
11C
330
115
100
AcDbEntity
  8
GR1-1
  6
細い実線
 62
     7
100
AcDbLine
 10
754.354646
 20
189.27366
 30
0.0
 11
753.066745
 21
189.618752
 31
0.0
  0
LINE
  5
11D
330
115
100
AcDbEntity
  8
GR1-1
  6
細い実線
 62
     7
100
AcDbLine
 10
753.066745
 20
189.618752
 30
0.0
 11
754.354646
 21
189.963844
 31
0.0
  0
LINE
  5
11E
330
115
100
AcDbEntity
  8
GR1-1
  6
細い実線
 62
     7
100
AcDbLine
 10
755.44551
 20
189.27366
 30
0.0
 11
755.44551
 21
189.963844
 31
0.0
  0
LINE
  5
11F
330
115
100
AcDbEntity
  8
GR1-1
  6
細い実線
 62
     7
100
AcDbLine
 10
755.44551
 20
189.963844
 30
0.0
 11
756.733411
 21
189.618752
 31
0.0
  0
LINE
  5
120
330
115
100
AcDbEntity
  8
GR1-1
  6
細い実線
 62
     7
100
AcDbLine
 10
756.733411
 20
189.618752
 30
0.0
 11
755.44551
 21
189.27366
 31
0.0
  0
TEXT
  5
121
330
115
100
AcDbEntity
  8
GR1-1
  6
細い実線
 62
     7
100
AcDbText
 10
752.900065
 20
190.285433
 30
0.0
 40
2.0
  1
１１０
 41
0.666667
  7
FX_VECTOR
 72
     5
 11
756.900065
 21
190.285433
 31
0.0
100
AcDbText
  0
ENDBLK
  5
117
330
115
100
AcDbEntity
  8
0
100
AcDbBlockEnd
  0
BLOCK
  5
123
330
122
100
AcDbEntity
  8
0
100
AcDbBlockBegin
  2
BLKF027
 70
     0
 71
     0
 10
0.0
 20
0.0
 30
0.0
  3
BLKF027
  1

  0
LINE
  5
126
330
122
100
AcDbEntity
  8
GR1-1
  6
細い実線
 62
     7
100
AcDbLine
 10
767.316745
 20
181.952085
 30
0.0
 11
767.316745
 21
190.285419
 31
0.0
  0
LINE
  5
127
330
122
100
AcDbEntity
  8
GR1-1
  6
細い実線
 62
     7
100
AcDbLine
 10
767.316745
 20
189.618752
 30
0.0
 11
756.733411
 21
189.618752
 31
0.0
  0
LINE
  5
128
330
122
100
AcDbEntity
  8
GR1-1
  6
細い実線
 62
     7
100
AcDbLine
 10
758.021312
 20
189.963844
 30
0.0
 11
758.021312
 21
189.27366
 31
0.0
  0
LINE
  5
129
330
122
100
AcDbEntity
  8
GR1-1
  6
細い実線
 62
     7
100
AcDbLine
 10
758.021312
 20
189.27366
 30
0.0
 11
756.733411
 21
189.618752
 31
0.0
  0
LINE
  5
12A
330
122
100
AcDbEntity
  8
GR1-1
  6
細い実線
 62
     7
100
AcDbLine
 10
756.733411
 20
189.618752
 30
0.0
 11
758.021312
 21
189.963844
 31
0.0
  0
LINE
  5
12B
330
122
100
AcDbEntity
  8
GR1-1
  6
細い実線
 62
     7
100
AcDbLine
 10
766.028844
 20
189.27366
 30
0.0
 11
766.028844
 21
189.963844
 31
0.0
  0
LINE
  5
12C
330
122
100
AcDbEntity
  8
GR1-1
  6
細い実線
 62
     7
100
AcDbLine
 10
766.028844
 20
189.963844
 30
0.0
 11
767.316745
 21
189.618752
 31
0.0
  0
LINE
  5
12D
330
122
100
AcDbEntity
  8
GR1-1
  6
細い実線
 62
     7
100
AcDbLine
 10
767.316745
 20
189.618752
 30
0.0
 11
766.028844
 21
189.27366
 31
0.0
  0
TEXT
  5
12E
330
122
100
AcDbEntity
  8
GR1-1
  6
細い実線
 62
     7
100
AcDbText
 10
758.691732
 20
189.618766
 30
0.0
 40
2.0
  1
３１７．５
 41
0.666667
  7
FX_VECTOR
 72
     5
 11
765.358398
 21
189.618766
 31
0.0
100
AcDbText
  0
ENDBLK
  5
124
330
122
100
AcDbEntity
  8
0
100
AcDbBlockEnd
  0
BLOCK
  5
138
330
137
100
AcDbEntity
  8
0
100
AcDbBlockBegin
  2
BLKF028
 70
     0
 71
     0
 10
0.0
 20
0.0
 30
0.0
  3
BLKF028
  1

  0
LINE
  5
13B
330
137
100
AcDbEntity
  8
GR1-1
  6
細い実線
 62
     7
100
AcDbLine
 10
736.233411
 20
184.618752
 30
0.0
 11
718.316745
 21
184.618752
 31
0.0
  0
LINE
  5
13C
330
137
100
AcDbEntity
  8
GR1-1
  6
細い実線
 62
     7
100
AcDbLine
 10
718.983411
 20
184.618752
 30
0.0
 11
718.983411
 21
181.285419
 31
0.0
  0
LINE
  5
13D
330
137
100
AcDbEntity
  8
GR1-1
  6
細い実線
 62
     7
100
AcDbLine
 10
718.638319
 20
182.57332
 30
0.0
 11
719.328503
 21
182.57332
 31
0.0
  0
LINE
  5
13E
330
137
100
AcDbEntity
  8
GR1-1
  6
細い実線
 62
     7
100
AcDbLine
 10
719.328503
 20
182.57332
 30
0.0
 11
718.983411
 21
181.285419
 31
0.0
  0
LINE
  5
13F
330
137
100
AcDbEntity
  8
GR1-1
  6
細い実線
 62
     7
100
AcDbLine
 10
718.983411
 20
181.285419
 30
0.0
 11
718.638319
 21
182.57332
 31
0.0
  0
LINE
  5
140
330
137
100
AcDbEntity
  8
GR1-1
  6
細い実線
 62
     7
100
AcDbLine
 10
719.328503
 20
183.330851
 30
0.0
 11
718.638319
 21
183.330851
 31
0.0
  0
LINE
  5
141
330
137
100
AcDbEntity
  8
GR1-1
  6
細い実線
 62
     7
100
AcDbLine
 10
718.638319
 20
183.330851
 30
0.0
 11
718.983411
 21
184.618752
 31
0.0
  0
LINE
  5
142
330
137
100
AcDbEntity
  8
GR1-1
  6
細い実線
 62
     7
100
AcDbLine
 10
718.983411
 20
184.618752
 30
0.0
 11
719.328503
 21
183.330851
 31
0.0
  0
TEXT
  5
143
330
137
100
AcDbEntity
  8
GR1-1
  6
細い実線
 62
     7
100
AcDbText
 10
718.316732
 20
180.952083
 30
0.0
 40
2.0
  1
１００
 50
90.0
 41
0.666667
  7
FX_VECTOR
 72
     5
 11
718.316732
 21
184.952083
 31
0.0
100
AcDbText
  0
ENDBLK
  5
139
330
137
100
AcDbEntity
  8
0
100
AcDbBlockEnd
  0
BLOCK
  5
180
330
17F
100
AcDbEntity
  8
0
100
AcDbBlockBegin
  2
BLKF029
 70
     0
 71
     0
 10
0.0
 20
0.0
 30
0.0
  3
BLKF029
  1

  0
LINE
  5
183
330
17F
100
AcDbEntity
  8
GR1-1
  6
細い実線
 62
     7
100
AcDbLine
 10
718.640432
 20
131.948868
 30
0.0
 11
718.967649
 21
131.341181
 31
0.0
  0
LINE
  5
184
330
17F
100
AcDbEntity
  8
GR1-1
  6
細い実線
 62
     7
100
AcDbLine
 10
718.967649
 20
131.341181
 30
0.0
 11
717.670081
 21
131.034431
 31
0.0
  0
LINE
  5
185
330
17F
100
AcDbEntity
  8
GR1-1
  6
細い実線
 62
     7
100
AcDbLine
 10
717.670081
 20
131.034431
 30
0.0
 11
718.640432
 21
131.948868
 31
0.0
  0
TEXT
  5
186
330
17F
100
AcDbEntity
  8
GR1-1
  6
細い実線
 62
     7
100
AcDbText
 10
720.451237
 20
132.531991
 30
0.0
 40
2.0
  1
　転倒防止（突起部）　
 41
0.666667
  7
FX_VECTOR
 72
     5
 11
735.117904
 21
132.531991
 31
0.0
100
AcDbText
  0
LINE
  5
187
330
17F
100
AcDbEntity
  8
GR1-1
  6
細い実線
 62
     7
100
AcDbLine
 10
717.670081
 20
131.034431
 30
0.0
 11
720.451271
 21
132.531995
 31
0.0
  0
LINE
  5
188
330
17F
100
AcDbEntity
  8
GR1-1
  6
細い実線
 62
     7
100
AcDbLine
 10
720.451271
 20
132.531995
 30
0.0
 11
735.117938
 21
132.531995
 31
0.0
  0
ENDBLK
  5
181
330
17F
100
AcDbEntity
  8
0
100
AcDbBlockEnd
  0
BLOCK
  5
18A
330
189
100
AcDbEntity
  8
0
100
AcDbBlockBegin
  2
BLKF030
 70
     0
 71
     0
 10
0.0
 20
0.0
 30
0.0
  3
BLKF030
  1

  0
LINE
  5
18D
330
189
100
AcDbEntity
  8
GR1-1
  6
細い実線
 62
     7
100
AcDbLine
 10
704.960346
 20
132.165111
 30
0.0
 11
703.044694
 21
138.550619
 31
0.0
  0
LINE
  5
18E
330
189
100
AcDbEntity
  8
GR1-1
  6
細い実線
 62
     7
100
AcDbLine
 10
707.354912
 20
132.883481
 30
0.0
 11
705.439259
 21
139.268989
 31
0.0
  0
LINE
  5
18F
330
189
100
AcDbEntity
  8
GR1-1
  6
細い実線
 62
     7
100
AcDbLine
 10
707.546477
 20
139.205134
 30
0.0
 11
701.320606
 21
137.337373
 31
0.0
  0
LINE
  5
190
330
189
100
AcDbEntity
  8
GR1-1
  6
細い実線
 62
     7
100
AcDbLine
 10
702.101835
 20
137.211455
 30
0.0
 11
701.903512
 21
137.872531
 31
0.0
  0
LINE
  5
191
330
189
100
AcDbEntity
  8
GR1-1
  6
細い実線
 62
     7
100
AcDbLine
 10
701.903512
 20
137.872531
 30
0.0
 11
703.236259
 21
137.912069
 31
0.0
  0
LINE
  5
192
330
189
100
AcDbEntity
  8
GR1-1
  6
細い実線
 62
     7
100
AcDbLine
 10
703.236259
 20
137.912069
 30
0.0
 11
702.101835
 21
137.211455
 31
0.0
  0
LINE
  5
193
330
189
100
AcDbEntity
  8
GR1-1
  6
細い実線
 62
     7
100
AcDbLine
 10
706.765249
 20
139.331052
 30
0.0
 11
706.963572
 21
138.669976
 31
0.0
  0
LINE
  5
194
330
189
100
AcDbEntity
  8
GR1-1
  6
細い実線
 62
     7
100
AcDbLine
 10
706.963572
 20
138.669976
 30
0.0
 11
705.630825
 21
138.630438
 31
0.0
  0
LINE
  5
195
330
189
100
AcDbEntity
  8
GR1-1
  6
細い実線
 62
     7
100
AcDbLine
 10
705.630825
 20
138.630438
 30
0.0
 11
706.765249
 21
139.331052
 31
0.0
  0
TEXT
  5
196
330
189
100
AcDbEntity
  8
GR1-1
  6
細い実線
 62
     7
100
AcDbText
 10
702.964779
 20
138.526676
 30
0.0
 40
2.0
  1
７５
 50
16.699244
 41
0.666667
  7
FX_VECTOR
 72
     5
 11
705.518982
 21
139.292937
 31
0.0
100
AcDbText
  0
ENDBLK
  5
18B
330
189
100
AcDbEntity
  8
0
100
AcDbBlockEnd
  0
BLOCK
  5
198
330
197
100
AcDbEntity
  8
0
100
AcDbBlockBegin
  2
BLKF031
 70
     0
 71
     0
 10
0.0
 20
0.0
 30
0.0
  3
BLKF031
  1

  0
LINE
  5
19B
330
197
100
AcDbEntity
  8
GR1-1
  6
細い実線
 62
     7
100
AcDbLine
 10
715.336798
 20
135.278046
 30
0.0
 11
713.421145
 21
141.663555
 31
0.0
  0
LINE
  5
19C
330
197
100
AcDbEntity
  8
GR1-1
  6
細い実線
 62
     7
100
AcDbLine
 10
713.61271
 20
141.025004
 30
0.0
 11
705.630825
 21
138.630438
 31
0.0
  0
LINE
  5
19D
330
197
100
AcDbEntity
  8
GR1-1
  6
細い実線
 62
     7
100
AcDbLine
 10
706.765249
 20
139.331052
 30
0.0
 11
706.963572
 21
138.669976
 31
0.0
  0
LINE
  5
19E
330
197
100
AcDbEntity
  8
GR1-1
  6
細い実線
 62
     7
100
AcDbLine
 10
706.963572
 20
138.669976
 30
0.0
 11
705.630825
 21
138.630438
 31
0.0
  0
LINE
  5
19F
330
197
100
AcDbEntity
  8
GR1-1
  6
細い実線
 62
     7
100
AcDbLine
 10
705.630825
 20
138.630438
 30
0.0
 11
706.765249
 21
139.331052
 31
0.0
  0
LINE
  5
1A0
330
197
100
AcDbEntity
  8
GR1-1
  6
細い実線
 62
     7
100
AcDbLine
 10
712.478286
 20
140.32439
 30
0.0
 11
712.279963
 21
140.985467
 31
0.0
  0
LINE
  5
1A1
330
197
100
AcDbEntity
  8
GR1-1
  6
細い実線
 62
     7
100
AcDbLine
 10
712.279963
 20
140.985467
 30
0.0
 11
713.61271
 21
141.025004
 31
0.0
  0
LINE
  5
1A2
330
197
100
AcDbEntity
  8
GR1-1
  6
細い実線
 62
     7
100
AcDbLine
 10
713.61271
 20
141.025004
 30
0.0
 11
712.478286
 21
140.32439
 31
0.0
  0
TEXT
  5
1A3
330
197
100
AcDbEntity
  8
GR1-1
  6
細い実線
 62
     7
100
AcDbText
 10
707.706055
 20
139.253027
 30
0.0
 40
2.0
  1
２５０
 50
16.699244
 41
0.666667
  7
FX_VECTOR
 72
     5
 11
711.53736
 21
140.402419
 31
0.0
100
AcDbText
  0
ENDBLK
  5
199
330
197
100
AcDbEntity
  8
0
100
AcDbBlockEnd
  0
BLOCK
  5
1A5
330
1A4
100
AcDbEntity
  8
0
100
AcDbBlockBegin
  2
BLKF032
 70
     0
 71
     0
 10
0.0
 20
0.0
 30
0.0
  3
BLKF032
  1

  0
LINE
  5
1A8
330
1A4
100
AcDbEntity
  8
GR1-1
  6
細い実線
 62
     7
100
AcDbLine
 10
717.731363
 20
135.996416
 30
0.0
 11
715.815711
 21
142.381925
 31
0.0
  0
LINE
  5
1A9
330
1A4
100
AcDbEntity
  8
GR1-1
  6
細い実線
 62
     7
100
AcDbLine
 10
717.922929
 20
142.31807
 30
0.0
 11
711.697058
 21
140.450308
 31
0.0
  0
LINE
  5
1AA
330
1A4
100
AcDbEntity
  8
GR1-1
  6
細い実線
 62
     7
100
AcDbLine
 10
712.478286
 20
140.32439
 30
0.0
 11
712.279963
 21
140.985467
 31
0.0
  0
LINE
  5
1AB
330
1A4
100
AcDbEntity
  8
GR1-1
  6
細い実線
 62
     7
100
AcDbLine
 10
712.279963
 20
140.985467
 30
0.0
 11
713.61271
 21
141.025004
 31
0.0
  0
LINE
  5
1AC
330
1A4
100
AcDbEntity
  8
GR1-1
  6
細い実線
 62
     7
100
AcDbLine
 10
713.61271
 20
141.025004
 30
0.0
 11
712.478286
 21
140.32439
 31
0.0
  0
LINE
  5
1AD
330
1A4
100
AcDbEntity
  8
GR1-1
  6
細い実線
 62
     7
100
AcDbLine
 10
717.1417
 20
142.443988
 30
0.0
 11
717.340023
 21
141.782911
 31
0.0
  0
LINE
  5
1AE
330
1A4
100
AcDbEntity
  8
GR1-1
  6
細い実線
 62
     7
100
AcDbLine
 10
717.340023
 20
141.782911
 30
0.0
 11
716.007276
 21
141.743374
 31
0.0
  0
LINE
  5
1AF
330
1A4
100
AcDbEntity
  8
GR1-1
  6
細い実線
 62
     7
100
AcDbLine
 10
716.007276
 20
141.743374
 30
0.0
 11
717.1417
 21
142.443988
 31
0.0
  0
TEXT
  5
1B0
330
1A4
100
AcDbEntity
  8
GR1-1
  6
細い実線
 62
     7
100
AcDbText
 10
713.341276
 20
141.639616
 30
0.0
 40
2.0
  1
７５
 50
16.699244
 41
0.666667
  7
FX_VECTOR
 72
     5
 11
715.895479
 21
142.405877
 31
0.0
100
AcDbText
  0
ENDBLK
  5
1A6
330
1A4
100
AcDbEntity
  8
0
100
AcDbBlockEnd
  0
BLOCK
  5
1B2
330
1B1
100
AcDbEntity
  8
0
100
AcDbBlockBegin
  2
BLKF033
 70
     0
 71
     0
 10
0.0
 20
0.0
 30
0.0
  3
BLKF033
  1

  0
LINE
  5
1B5
330
1B1
100
AcDbEntity
  8
GR1-1
  6
細い実線
 62
     7
100
AcDbLine
 10
707.354912
 20
132.883481
 30
0.0
 11
706.397086
 21
136.076235
 31
0.0
  0
LINE
  5
1B6
330
1B1
100
AcDbEntity
  8
GR1-1
  6
細い実線
 62
     7
100
AcDbLine
 10
707.993463
 20
133.075046
 30
0.0
 11
707.035636
 21
136.2678
 31
0.0
  0
LINE
  5
1B7
330
1B1
100
AcDbEntity
  8
GR1-1
  6
細い実線
 62
     7
100
AcDbLine
 10
708.361626
 20
136.329863
 30
0.0
 11
708.559949
 21
135.668787
 31
0.0
  0
LINE
  5
1B8
330
1B1
100
AcDbEntity
  8
GR1-1
  6
細い実線
 62
     7
100
AcDbLine
 10
708.559949
 20
135.668787
 30
0.0
 11
707.227202
 21
135.629249
 31
0.0
  0
LINE
  5
1B9
330
1B1
100
AcDbEntity
  8
GR1-1
  6
細い実線
 62
     7
100
AcDbLine
 10
707.227202
 20
135.629249
 30
0.0
 11
708.361626
 21
136.329863
 31
0.0
  0
ENDBLK
  5
1B3
330
1B1
100
AcDbEntity
  8
0
100
AcDbBlockEnd
  0
BLOCK
  5
1BB
330
1BA
100
AcDbEntity
  8
0
100
AcDbBlockBegin
  2
BLKF034
 70
     0
 71
     0
 10
0.0
 20
0.0
 30
0.0
  3
BLKF034
  1

  0
LINE
  5
1BE
330
1BA
100
AcDbEntity
  8
GR1-1
  6
細い実線
 62
     7
100
AcDbLine
 10
714.698247
 20
135.086481
 30
0.0
 11
713.74042
 21
138.279235
 31
0.0
  0
LINE
  5
1BF
330
1BA
100
AcDbEntity
  8
GR1-1
  6
細い実線
 62
     7
100
AcDbLine
 10
713.931986
 20
137.640685
 30
0.0
 11
707.227202
 21
135.629249
 31
0.0
  0
LINE
  5
1C0
330
1BA
100
AcDbEntity
  8
GR1-1
  6
細い実線
 62
     7
100
AcDbLine
 10
708.361626
 20
136.329863
 30
0.0
 11
708.559949
 21
135.668787
 31
0.0
  0
LINE
  5
1C1
330
1BA
100
AcDbEntity
  8
GR1-1
  6
細い実線
 62
     7
100
AcDbLine
 10
708.559949
 20
135.668787
 30
0.0
 11
707.227202
 21
135.629249
 31
0.0
  0
LINE
  5
1C2
330
1BA
100
AcDbEntity
  8
GR1-1
  6
細い実線
 62
     7
100
AcDbLine
 10
707.227202
 20
135.629249
 30
0.0
 11
708.361626
 21
136.329863
 31
0.0
  0
LINE
  5
1C3
330
1BA
100
AcDbEntity
  8
GR1-1
  6
細い実線
 62
     7
100
AcDbLine
 10
712.797562
 20
136.940071
 30
0.0
 11
712.599239
 21
137.601147
 31
0.0
  0
LINE
  5
1C4
330
1BA
100
AcDbEntity
  8
GR1-1
  6
細い実線
 62
     7
100
AcDbLine
 10
712.599239
 20
137.601147
 30
0.0
 11
713.931986
 21
137.640685
 31
0.0
  0
LINE
  5
1C5
330
1BA
100
AcDbEntity
  8
GR1-1
  6
細い実線
 62
     7
100
AcDbLine
 10
713.931986
 20
137.640685
 30
0.0
 11
712.797562
 21
136.940071
 31
0.0
  0
TEXT
  5
1C6
330
1BA
100
AcDbEntity
  8
GR1-1
  6
細い実線
 62
     7
100
AcDbText
 10
708.663867
 20
136.060262
 30
0.0
 40
2.0
  1
２１０
 50
16.699244
 41
0.666667
  7
FX_VECTOR
 72
     5
 11
712.495172
 21
137.209654
 31
0.0
100
AcDbText
  0
ENDBLK
  5
1BC
330
1BA
100
AcDbEntity
  8
0
100
AcDbBlockEnd
  0
BLOCK
  5
1C8
330
1C7
100
AcDbEntity
  8
0
100
AcDbBlockBegin
  2
BLKF035
 70
     0
 71
     0
 10
0.0
 20
0.0
 30
0.0
  3
BLKF035
  1

  0
LINE
  5
1CB
330
1C7
100
AcDbEntity
  8
GR1-1
  6
細い実線
 62
     7
100
AcDbLine
 10
708.99465
 20
116.397365
 30
0.0
 11
699.416387
 21
113.523886
 31
0.0
  0
LINE
  5
1CC
330
1C7
100
AcDbEntity
  8
GR1-1
  6
細い実線
 62
     7
100
AcDbLine
 10
706.983214
 20
123.102149
 30
0.0
 11
697.404952
 21
120.22867
 31
0.0
  0
LINE
  5
1CD
330
1C7
100
AcDbEntity
  8
GR1-1
  6
細い実線
 62
     7
100
AcDbLine
 10
698.043502
 20
120.420235
 30
0.0
 11
700.054938
 21
113.715451
 31
0.0
  0
LINE
  5
1CE
330
1C7
100
AcDbEntity
  8
GR1-1
  6
細い実線
 62
     7
100
AcDbLine
 10
699.354324
 20
114.849875
 30
0.0
 11
700.0154
 21
115.048198
 31
0.0
  0
LINE
  5
1CF
330
1C7
100
AcDbEntity
  8
GR1-1
  6
細い実線
 62
     7
100
AcDbLine
 10
700.0154
 20
115.048198
 30
0.0
 11
700.054938
 21
113.715451
 31
0.0
  0
LINE
  5
1D0
330
1C7
100
AcDbEntity
  8
GR1-1
  6
細い実線
 62
     7
100
AcDbLine
 10
700.054938
 20
113.715451
 30
0.0
 11
699.354324
 21
114.849875
 31
0.0
  0
LINE
  5
1D1
330
1C7
100
AcDbEntity
  8
GR1-1
  6
細い実線
 62
     7
100
AcDbLine
 10
698.744116
 20
119.285811
 30
0.0
 11
698.08304
 21
119.087488
 31
0.0
  0
LINE
  5
1D2
330
1C7
100
AcDbEntity
  8
GR1-1
  6
細い実線
 62
     7
100
AcDbLine
 10
698.08304
 20
119.087488
 30
0.0
 11
698.043502
 21
120.420235
 31
0.0
  0
LINE
  5
1D3
330
1C7
100
AcDbEntity
  8
GR1-1
  6
細い実線
 62
     7
100
AcDbLine
 10
698.043502
 20
120.420235
 30
0.0
 11
698.744116
 21
119.285811
 31
0.0
  0
TEXT
  5
1D4
330
1C7
100
AcDbEntity
  8
GR1-1
  6
細い実線
 62
     7
100
AcDbText
 10
698.474479
 20
118.983488
 30
0.0
 40
2.0
  1
２１０
 50
286.699249
 41
0.666667
  7
FX_VECTOR
 72
     5
 11
699.623871
 21
115.152183
 31
0.0
100
AcDbText
  0
ENDBLK
  5
1C9
330
1C7
100
AcDbEntity
  8
0
100
AcDbBlockEnd
  0
BLOCK
  5
1D6
330
1D5
100
AcDbEntity
  8
0
100
AcDbBlockBegin
  2
BLKF036
 70
     0
 71
     0
 10
0.0
 20
0.0
 30
0.0
  3
BLKF036
  1

  0
LINE
  5
1D9
330
1D5
100
AcDbEntity
  8
GR1-1
  6
細い実線
 62
     7
100
AcDbLine
 10
708.99465
 20
116.397365
 30
0.0
 11
704.205518
 21
114.960625
 31
0.0
  0
LINE
  5
1DA
330
1D5
100
AcDbEntity
  8
GR1-1
  6
細い実線
 62
     7
100
AcDbLine
 10
708.707302
 20
117.355191
 30
0.0
 11
703.91817
 21
115.918451
 31
0.0
  0
LINE
  5
1DB
330
1D5
100
AcDbEntity
  8
GR1-1
  6
細い実線
 62
     7
100
AcDbLine
 10
703.982025
 20
118.025669
 30
0.0
 11
705.418765
 21
113.236538
 31
0.0
  0
LINE
  5
1DC
330
1D5
100
AcDbEntity
  8
GR1-1
  6
細い実線
 62
     7
100
AcDbLine
 10
705.544683
 20
114.017766
 30
0.0
 11
704.883606
 21
113.819443
 31
0.0
  0
LINE
  5
1DD
330
1D5
100
AcDbEntity
  8
GR1-1
  6
細い実線
 62
     7
100
AcDbLine
 10
704.883606
 20
113.819443
 30
0.0
 11
704.844069
 21
115.15219
 31
0.0
  0
LINE
  5
1DE
330
1D5
100
AcDbEntity
  8
GR1-1
  6
細い実線
 62
     7
100
AcDbLine
 10
704.844069
 20
115.15219
 30
0.0
 11
705.544683
 21
114.017766
 31
0.0
  0
LINE
  5
1DF
330
1D5
100
AcDbEntity
  8
GR1-1
  6
細い実線
 62
     7
100
AcDbLine
 10
703.856107
 20
117.244441
 30
0.0
 11
704.517184
 21
117.442764
 31
0.0
  0
LINE
  5
1E0
330
1D5
100
AcDbEntity
  8
GR1-1
  6
細い実線
 62
     7
100
AcDbLine
 10
704.517184
 20
117.442764
 30
0.0
 11
704.556721
 21
116.110017
 31
0.0
  0
LINE
  5
1E1
330
1D5
100
AcDbEntity
  8
GR1-1
  6
細い実線
 62
     7
100
AcDbLine
 10
704.556721
 20
116.110017
 30
0.0
 11
703.856107
 21
117.244441
 31
0.0
  0
TEXT
  5
1E2
330
1D5
100
AcDbEntity
  8
GR1-1
  6
細い実線
 62
     7
100
AcDbText
 10
705.299805
 20
113.632967
 30
0.0
 40
2.0
  1
３０
 50
286.699249
 41
0.666667
  7
FX_VECTOR
 72
     5
 11
706.066066
 21
111.078764
 31
0.0
100
AcDbText
  0
ENDBLK
  5
1D7
330
1D5
100
AcDbEntity
  8
0
100
AcDbBlockEnd
  0
BLOCK
  5
1E4
330
1E3
100
AcDbEntity
  8
0
100
AcDbBlockBegin
  2
BLKF037
 70
     0
 71
     0
 10
0.0
 20
0.0
 30
0.0
  3
BLKF037
  1

  0
LINE
  5
1E7
330
1E3
100
AcDbEntity
  8
GR1-1
  6
細い実線
 62
     7
100
AcDbLine
 10
708.707302
 20
117.355191
 30
0.0
 11
703.91817
 21
115.918451
 31
0.0
  0
LINE
  5
1E8
330
1E3
100
AcDbEntity
  8
GR1-1
  6
細い実線
 62
     7
100
AcDbLine
 10
707.270562
 20
122.144322
 30
0.0
 11
702.481431
 21
120.707583
 31
0.0
  0
LINE
  5
1E9
330
1E3
100
AcDbEntity
  8
GR1-1
  6
細い実線
 62
     7
100
AcDbLine
 10
703.119982
 20
120.899148
 30
0.0
 11
704.556721
 21
116.110017
 31
0.0
  0
LINE
  5
1EA
330
1E3
100
AcDbEntity
  8
GR1-1
  6
細い実線
 62
     7
100
AcDbLine
 10
703.856107
 20
117.244441
 30
0.0
 11
704.517184
 21
117.442764
 31
0.0
  0
LINE
  5
1EB
330
1E3
100
AcDbEntity
  8
GR1-1
  6
細い実線
 62
     7
100
AcDbLine
 10
704.517184
 20
117.442764
 30
0.0
 11
704.556721
 21
116.110017
 31
0.0
  0
LINE
  5
1EC
330
1E3
100
AcDbEntity
  8
GR1-1
  6
細い実線
 62
     7
100
AcDbLine
 10
704.556721
 20
116.110017
 30
0.0
 11
703.856107
 21
117.244441
 31
0.0
  0
LINE
  5
1ED
330
1E3
100
AcDbEntity
  8
GR1-1
  6
細い実線
 62
     7
100
AcDbLine
 10
703.820596
 20
119.764724
 30
0.0
 11
703.159519
 21
119.566401
 31
0.0
  0
LINE
  5
1EE
330
1E3
100
AcDbEntity
  8
GR1-1
  6
細い実線
 62
     7
100
AcDbLine
 10
703.159519
 20
119.566401
 30
0.0
 11
703.119982
 21
120.899148
 31
0.0
  0
LINE
  5
1EF
330
1E3
100
AcDbEntity
  8
GR1-1
  6
細い実線
 62
     7
100
AcDbLine
 10
703.119982
 20
120.899148
 30
0.0
 11
703.820596
 21
119.764724
 31
0.0
  0
TEXT
  5
1F0
330
1E3
100
AcDbEntity
  8
GR1-1
  6
細い実線
 62
     7
100
AcDbText
 10
703.263607
 20
120.420223
 30
0.0
 40
2.0
  1
１５０
 50
286.699249
 41
0.666667
  7
FX_VECTOR
 72
     5
 11
704.412999
 21
116.588918
 31
0.0
100
AcDbText
  0
ENDBLK
  5
1E5
330
1E3
100
AcDbEntity
  8
0
100
AcDbBlockEnd
  0
BLOCK
  5
1F2
330
1F1
100
AcDbEntity
  8
0
100
AcDbBlockBegin
  2
BLKF038
 70
     0
 71
     0
 10
0.0
 20
0.0
 30
0.0
  3
BLKF038
  1

  0
LINE
  5
1F5
330
1F1
100
AcDbEntity
  8
GR1-1
  6
細い実線
 62
     7
100
AcDbLine
 10
706.983214
 20
123.102149
 30
0.0
 11
702.194083
 21
121.665409
 31
0.0
  0
LINE
  5
1F6
330
1F1
100
AcDbEntity
  8
GR1-1
  6
細い実線
 62
     7
100
AcDbLine
 10
702.257938
 20
123.772627
 30
0.0
 11
703.694677
 21
118.983496
 31
0.0
  0
LINE
  5
1F7
330
1F1
100
AcDbEntity
  8
GR1-1
  6
細い実線
 62
     7
100
AcDbLine
 10
703.820596
 20
119.764724
 30
0.0
 11
703.159519
 21
119.566401
 31
0.0
  0
LINE
  5
1F8
330
1F1
100
AcDbEntity
  8
GR1-1
  6
細い実線
 62
     7
100
AcDbLine
 10
703.159519
 20
119.566401
 30
0.0
 11
703.119982
 21
120.899148
 31
0.0
  0
LINE
  5
1F9
330
1F1
100
AcDbEntity
  8
GR1-1
  6
細い実線
 62
     7
100
AcDbLine
 10
703.119982
 20
120.899148
 30
0.0
 11
703.820596
 21
119.764724
 31
0.0
  0
LINE
  5
1FA
330
1F1
100
AcDbEntity
  8
GR1-1
  6
細い実線
 62
     7
100
AcDbLine
 10
702.13202
 20
122.991398
 30
0.0
 11
702.793096
 21
123.189721
 31
0.0
  0
LINE
  5
1FB
330
1F1
100
AcDbEntity
  8
GR1-1
  6
細い実線
 62
     7
100
AcDbLine
 10
702.793096
 20
123.189721
 30
0.0
 11
702.832634
 21
121.856974
 31
0.0
  0
LINE
  5
1FC
330
1F1
100
AcDbEntity
  8
GR1-1
  6
細い実線
 62
     7
100
AcDbLine
 10
702.832634
 20
121.856974
 30
0.0
 11
702.13202
 21
122.991398
 31
0.0
  0
TEXT
  5
1FD
330
1F1
100
AcDbEntity
  8
GR1-1
  6
細い実線
 62
     7
100
AcDbText
 10
700.038932
 20
121.888892
 30
0.0
 40
2.0
  1
３０
 50
286.699249
 41
0.666667
  7
FX_VECTOR
 72
     5
 11
700.805194
 21
119.334688
 31
0.0
100
AcDbText
  0
ENDBLK
  5
1F3
330
1F1
100
AcDbEntity
  8
0
100
AcDbBlockEnd
  0
BLOCK
  5
1FF
330
1FE
100
AcDbEntity
  8
0
100
AcDbBlockBegin
  2
BLKF039
 70
     0
 71
     0
 10
0.0
 20
0.0
 30
0.0
  3
BLKF039
  1

  0
LINE
  5
202
330
1FE
100
AcDbEntity
  8
GR1-1
  6
細い実線
 62
     7
100
AcDbLine
 10
709.41322
 20
115.002131
 30
0.0
 11
699.834957
 21
112.128652
 31
0.0
  0
LINE
  5
203
330
1FE
100
AcDbEntity
  8
GR1-1
  6
細い実線
 62
     7
100
AcDbLine
 10
708.99465
 20
116.397365
 30
0.0
 11
699.416387
 21
113.523886
 31
0.0
  0
LINE
  5
204
330
1FE
100
AcDbEntity
  8
GR1-1
  6
細い実線
 62
     7
100
AcDbLine
 10
699.480242
 20
115.631104
 30
0.0
 11
701.048203
 21
110.404565
 31
0.0
  0
LINE
  5
205
330
1FE
100
AcDbEntity
  8
GR1-1
  6
細い実線
 62
     7
100
AcDbLine
 10
701.174122
 20
111.185793
 30
0.0
 11
700.513045
 21
110.98747
 31
0.0
  0
LINE
  5
206
330
1FE
100
AcDbEntity
  8
GR1-1
  6
細い実線
 62
     7
100
AcDbLine
 10
700.513045
 20
110.98747
 30
0.0
 11
700.473508
 21
112.320217
 31
0.0
  0
LINE
  5
207
330
1FE
100
AcDbEntity
  8
GR1-1
  6
細い実線
 62
     7
100
AcDbLine
 10
700.473508
 20
112.320217
 30
0.0
 11
701.174122
 21
111.185793
 31
0.0
  0
LINE
  5
208
330
1FE
100
AcDbEntity
  8
GR1-1
  6
細い実線
 62
     7
100
AcDbLine
 10
699.354324
 20
114.849875
 30
0.0
 11
700.0154
 21
115.048198
 31
0.0
  0
LINE
  5
209
330
1FE
100
AcDbEntity
  8
GR1-1
  6
細い実線
 62
     7
100
AcDbLine
 10
700.0154
 20
115.048198
 30
0.0
 11
700.054938
 21
113.715451
 31
0.0
  0
LINE
  5
20A
330
1FE
100
AcDbEntity
  8
GR1-1
  6
細い実線
 62
     7
100
AcDbLine
 10
700.054938
 20
113.715451
 30
0.0
 11
699.354324
 21
114.849875
 31
0.0
  0
TEXT
  5
20B
330
1FE
100
AcDbEntity
  8
GR1-1
  6
細い実線
 62
     7
100
AcDbText
 10
696.761003
 20
113.801034
 30
0.0
 40
2.0
  1
４３．７
 50
286.699249
 41
0.666667
  7
FX_VECTOR
 72
     5
 11
698.293525
 21
108.692627
 31
0.0
100
AcDbText
  0
ENDBLK
  5
200
330
1FE
100
AcDbEntity
  8
0
100
AcDbBlockEnd
  0
BLOCK
  5
20D
330
20C
100
AcDbEntity
  8
0
100
AcDbBlockBegin
  2
BLKF040
 70
     0
 71
     0
 10
0.0
 20
0.0
 30
0.0
  3
BLKF040
  1

  0
LINE
  5
210
330
20C
100
AcDbEntity
  8
GR1-1
  6
細い実線
 62
     7
100
AcDbLine
 10
724.61073
 20
115.385261
 30
0.0
 11
730.996239
 21
117.300914
 31
0.0
  0
LINE
  5
211
330
20C
100
AcDbEntity
  8
GR1-1
  6
細い実線
 62
     7
100
AcDbLine
 10
720.77873
 20
128.158595
 30
0.0
 11
727.164239
 21
130.074247
 31
0.0
  0
LINE
  5
212
330
20C
100
AcDbEntity
  8
GR1-1
  6
細い実線
 62
     7
100
AcDbLine
 10
726.525688
 20
129.882682
 30
0.0
 11
730.357688
 21
117.109349
 31
0.0
  0
LINE
  5
213
330
20C
100
AcDbEntity
  8
GR1-1
  6
細い実線
 62
     7
100
AcDbLine
 10
729.657074
 20
118.243773
 30
0.0
 11
730.31815
 21
118.442096
 31
0.0
  0
LINE
  5
214
330
20C
100
AcDbEntity
  8
GR1-1
  6
細い実線
 62
     7
100
AcDbLine
 10
730.31815
 20
118.442096
 30
0.0
 11
730.357688
 21
117.109349
 31
0.0
  0
LINE
  5
215
330
20C
100
AcDbEntity
  8
GR1-1
  6
細い実線
 62
     7
100
AcDbLine
 10
730.357688
 20
117.109349
 30
0.0
 11
729.657074
 21
118.243773
 31
0.0
  0
LINE
  5
216
330
20C
100
AcDbEntity
  8
GR1-1
  6
細い実線
 62
     7
100
AcDbLine
 10
727.226302
 20
128.748258
 30
0.0
 11
726.565225
 21
128.549935
 31
0.0
  0
LINE
  5
217
330
20C
100
AcDbEntity
  8
GR1-1
  6
細い実線
 62
     7
100
AcDbLine
 10
726.565225
 20
128.549935
 30
0.0
 11
726.525688
 21
129.882682
 31
0.0
  0
LINE
  5
218
330
20C
100
AcDbEntity
  8
GR1-1
  6
細い実線
 62
     7
100
AcDbLine
 10
726.525688
 20
129.882682
 30
0.0
 11
727.226302
 21
128.748258
 31
0.0
  0
TEXT
  5
219
330
20C
100
AcDbEntity
  8
GR1-1
  6
細い実線
 62
     7
100
AcDbText
 10
727.866927
 20
125.411662
 30
0.0
 40
2.0
  1
４００
 50
286.699249
 41
0.666667
  7
FX_VECTOR
 72
     5
 11
729.016319
 21
121.580357
 31
0.0
100
AcDbText
  0
ENDBLK
  5
20E
330
20C
100
AcDbEntity
  8
0
100
AcDbBlockEnd
  0
BLOCK
  5
21B
330
21A
100
AcDbEntity
  8
0
100
AcDbBlockBegin
  2
BLKF041
 70
     0
 71
     0
 10
0.0
 20
0.0
 30
0.0
  3
BLKF041
  1

  0
LINE
  5
21E
330
21A
100
AcDbEntity
  8
GR1-1
  6
細い実線
 62
     7
100
AcDbLine
 10
711.99397
 20
108.719699
 30
0.0
 11
715.825275
 21
95.948682
 31
0.0
  0
LINE
  5
21F
330
21A
100
AcDbEntity
  8
GR1-1
  6
細い実線
 62
     7
100
AcDbLine
 10
724.764987
 20
112.551004
 30
0.0
 11
728.596292
 21
99.779987
 31
0.0
  0
LINE
  5
220
330
21A
100
AcDbEntity
  8
GR1-1
  6
細い実線
 62
     7
100
AcDbLine
 10
728.404727
 20
100.418538
 30
0.0
 11
715.63371
 21
96.587233
 31
0.0
  0
LINE
  5
221
330
21A
100
AcDbEntity
  8
GR1-1
  6
細い実線
 62
     7
100
AcDbLine
 10
716.768134
 20
97.287847
 30
0.0
 11
716.966457
 21
96.62677
 31
0.0
  0
LINE
  5
222
330
21A
100
AcDbEntity
  8
GR1-1
  6
細い実線
 62
     7
100
AcDbLine
 10
716.966457
 20
96.62677
 30
0.0
 11
715.63371
 21
96.587233
 31
0.0
  0
LINE
  5
223
330
21A
100
AcDbEntity
  8
GR1-1
  6
細い実線
 62
     7
100
AcDbLine
 10
715.63371
 20
96.587233
 30
0.0
 11
716.768134
 21
97.287847
 31
0.0
  0
LINE
  5
224
330
21A
100
AcDbEntity
  8
GR1-1
  6
細い実線
 62
     7
100
AcDbLine
 10
727.270303
 20
99.717924
 30
0.0
 11
727.07198
 21
100.379
 31
0.0
  0
LINE
  5
225
330
21A
100
AcDbEntity
  8
GR1-1
  6
細い実線
 62
     7
100
AcDbLine
 10
727.07198
 20
100.379
 30
0.0
 11
728.404727
 21
100.418538
 31
0.0
  0
LINE
  5
226
330
21A
100
AcDbEntity
  8
GR1-1
  6
細い実線
 62
     7
100
AcDbLine
 10
728.404727
 20
100.418538
 30
0.0
 11
727.270303
 21
99.717924
 31
0.0
  0
TEXT
  5
227
330
21A
100
AcDbEntity
  8
GR1-1
  6
細い実線
 62
     7
100
AcDbText
 10
720.103516
 20
97.928182
 30
0.0
 40
2.0
  1
４００
 50
16.699244
 41
0.666667
  7
FX_VECTOR
 72
     5
 11
723.934821
 21
99.077573
 31
0.0
100
AcDbText
  0
ENDBLK
  5
21C
330
21A
100
AcDbEntity
  8
0
100
AcDbBlockEnd
  0
BLOCK
  5
229
330
228
100
AcDbEntity
  8
0
100
AcDbBlockBegin
  2
BLKF042
 70
     0
 71
     0
 10
0.0
 20
0.0
 30
0.0
  3
BLKF042
  1

  0
LINE
  5
22C
330
228
100
AcDbEntity
  8
GR1-1
  6
細い実線
 62
     7
100
AcDbLine
 10
725.882451
 20
112.886243
 30
0.0
 11
729.713756
 21
100.115226
 31
0.0
  0
LINE
  5
22D
330
228
100
AcDbEntity
  8
GR1-1
  6
細い実線
 62
     7
100
AcDbLine
 10
731.437843
 20
101.328473
 30
0.0
 11
726.489074
 21
99.843842
 31
0.0
  0
LINE
  5
22E
330
228
100
AcDbEntity
  8
GR1-1
  6
細い実線
 62
     7
100
AcDbLine
 10
727.270303
 20
99.717924
 30
0.0
 11
727.07198
 21
100.379
 31
0.0
  0
LINE
  5
22F
330
228
100
AcDbEntity
  8
GR1-1
  6
細い実線
 62
     7
100
AcDbLine
 10
727.07198
 20
100.379
 30
0.0
 11
728.404727
 21
100.418538
 31
0.0
  0
LINE
  5
230
330
228
100
AcDbEntity
  8
GR1-1
  6
細い実線
 62
     7
100
AcDbLine
 10
728.404727
 20
100.418538
 30
0.0
 11
727.270303
 21
99.717924
 31
0.0
  0
LINE
  5
231
330
228
100
AcDbEntity
  8
GR1-1
  6
細い実線
 62
     7
100
AcDbLine
 10
730.656615
 20
101.454391
 30
0.0
 11
730.854938
 21
100.793314
 31
0.0
  0
LINE
  5
232
330
228
100
AcDbEntity
  8
GR1-1
  6
細い実線
 62
     7
100
AcDbLine
 10
730.854938
 20
100.793314
 30
0.0
 11
729.522191
 21
100.753777
 31
0.0
  0
LINE
  5
233
330
228
100
AcDbEntity
  8
GR1-1
  6
細い実線
 62
     7
100
AcDbLine
 10
729.522191
 20
100.753777
 30
0.0
 11
730.656615
 21
101.454391
 31
0.0
  0
TEXT
  5
234
330
228
100
AcDbEntity
  8
GR1-1
  6
細い実線
 62
     7
100
AcDbText
 10
728.452539
 20
97.64882
 30
0.0
 40
2.0
  1
３５
 50
16.699244
 41
0.666667
  7
FX_VECTOR
 72
     5
 11
731.006742
 21
98.415081
 31
0.0
100
AcDbText
  0
ENDBLK
  5
22A
330
228
100
AcDbEntity
  8
0
100
AcDbBlockEnd
  0
BLOCK
  5
236
330
235
100
AcDbEntity
  8
0
100
AcDbBlockBegin
  2
BLKF043
 70
     0
 71
     0
 10
0.0
 20
0.0
 30
0.0
  3
BLKF043
  1

  0
LINE
  5
239
330
235
100
AcDbEntity
  8
GR1-1
  6
細い実線
 62
     7
100
AcDbLine
 10
713.430709
 20
109.150721
 30
0.0
 11
715.346362
 21
102.765212
 31
0.0
  0
LINE
  5
23A
330
235
100
AcDbEntity
  8
GR1-1
  6
細い実線
 62
     7
100
AcDbLine
 10
717.070449
 20
103.978459
 30
0.0
 11
711.802404
 21
102.398045
 31
0.0
  0
LINE
  5
23B
330
235
100
AcDbEntity
  8
GR1-1
  6
細い実線
 62
     7
100
AcDbLine
 10
712.583633
 20
102.272127
 30
0.0
 11
712.38531
 21
102.933204
 31
0.0
  0
LINE
  5
23C
330
235
100
AcDbEntity
  8
GR1-1
  6
細い実線
 62
     7
100
AcDbLine
 10
712.38531
 20
102.933204
 30
0.0
 11
713.718057
 21
102.972741
 31
0.0
  0
LINE
  5
23D
330
235
100
AcDbEntity
  8
GR1-1
  6
細い実線
 62
     7
100
AcDbLine
 10
713.718057
 20
102.972741
 30
0.0
 11
712.583633
 21
102.272127
 31
0.0
  0
LINE
  5
23E
330
235
100
AcDbEntity
  8
GR1-1
  6
細い実線
 62
     7
100
AcDbLine
 10
716.289221
 20
104.104377
 30
0.0
 11
716.487543
 21
103.4433
 31
0.0
  0
LINE
  5
23F
330
235
100
AcDbEntity
  8
GR1-1
  6
細い実線
 62
     7
100
AcDbLine
 10
716.487543
 20
103.4433
 30
0.0
 11
715.154796
 21
103.403763
 31
0.0
  0
LINE
  5
240
330
235
100
AcDbEntity
  8
GR1-1
  6
細い実線
 62
     7
100
AcDbLine
 10
715.154796
 20
103.403763
 30
0.0
 11
716.289221
 21
104.104377
 31
0.0
  0
TEXT
  5
241
330
235
100
AcDbEntity
  8
GR1-1
  6
細い実線
 62
     7
100
AcDbText
 10
714.838932
 20
99.885555
 30
0.0
 40
2.0
  1
４５
 50
16.699244
 41
0.666667
  7
FX_VECTOR
 72
     5
 11
717.393136
 21
100.651816
 31
0.0
100
AcDbText
  0
ENDBLK
  5
237
330
235
100
AcDbEntity
  8
0
100
AcDbBlockEnd
  0
BLOCK
  5
243
330
242
100
AcDbEntity
  8
0
100
AcDbBlockBegin
  2
BLKF044
 70
     0
 71
     0
 10
0.0
 20
0.0
 30
0.0
  3
BLKF044
  1

  0
LINE
  5
246
330
242
100
AcDbEntity
  8
GR1-1
  6
細い実線
 62
     7
100
AcDbLine
 10
723.328247
 20
112.119982
 30
0.0
 11
725.2439
 21
105.734474
 31
0.0
  0
LINE
  5
247
330
242
100
AcDbEntity
  8
GR1-1
  6
細い実線
 62
     7
100
AcDbLine
 10
725.052335
 20
106.373025
 30
0.0
 11
715.154796
 21
103.403763
 31
0.0
  0
LINE
  5
248
330
242
100
AcDbEntity
  8
GR1-1
  6
細い実線
 62
     7
100
AcDbLine
 10
716.289221
 20
104.104377
 30
0.0
 11
716.487543
 21
103.4433
 31
0.0
  0
LINE
  5
249
330
242
100
AcDbEntity
  8
GR1-1
  6
細い実線
 62
     7
100
AcDbLine
 10
716.487543
 20
103.4433
 30
0.0
 11
715.154796
 21
103.403763
 31
0.0
  0
LINE
  5
24A
330
242
100
AcDbEntity
  8
GR1-1
  6
細い実線
 62
     7
100
AcDbLine
 10
715.154796
 20
103.403763
 30
0.0
 11
716.289221
 21
104.104377
 31
0.0
  0
LINE
  5
24B
330
242
100
AcDbEntity
  8
GR1-1
  6
細い実線
 62
     7
100
AcDbLine
 10
723.917911
 20
105.672411
 30
0.0
 11
723.719588
 21
106.333487
 31
0.0
  0
LINE
  5
24C
330
242
100
AcDbEntity
  8
GR1-1
  6
細い実線
 62
     7
100
AcDbLine
 10
723.719588
 20
106.333487
 30
0.0
 11
725.052335
 21
106.373025
 31
0.0
  0
LINE
  5
24D
330
242
100
AcDbEntity
  8
GR1-1
  6
細い実線
 62
     7
100
AcDbLine
 10
725.052335
 20
106.373025
 30
0.0
 11
723.917911
 21
105.672411
 31
0.0
  0
TEXT
  5
24E
330
242
100
AcDbEntity
  8
GR1-1
  6
細い実線
 62
     7
100
AcDbText
 10
718.187826
 20
104.313696
 30
0.0
 40
2.0
  1
３１０
 50
16.699244
 41
0.666667
  7
FX_VECTOR
 72
     5
 11
722.019131
 21
105.463088
 31
0.0
100
AcDbText
  0
ENDBLK
  5
244
330
242
100
AcDbEntity
  8
0
100
AcDbBlockEnd
  0
BLOCK
  5
250
330
24F
100
AcDbEntity
  8
0
100
AcDbBlockBegin
  2
BLKF045
 70
     0
 71
     0
 10
0.0
 20
0.0
 30
0.0
  3
BLKF045
  1

  0
LINE
  5
253
330
24F
100
AcDbEntity
  8
GR1-1
  6
細い実線
 62
     7
100
AcDbLine
 10
728.404727
 20
107.378742
 30
0.0
 11
723.136682
 21
105.798329
 31
0.0
  0
LINE
  5
254
330
24F
100
AcDbEntity
  8
GR1-1
  6
細い実線
 62
     7
100
AcDbLine
 10
723.917911
 20
105.672411
 30
0.0
 11
723.719588
 21
106.333487
 31
0.0
  0
LINE
  5
255
330
24F
100
AcDbEntity
  8
GR1-1
  6
細い実線
 62
     7
100
AcDbLine
 10
723.719588
 20
106.333487
 30
0.0
 11
725.052335
 21
106.373025
 31
0.0
  0
LINE
  5
256
330
24F
100
AcDbEntity
  8
GR1-1
  6
細い実線
 62
     7
100
AcDbLine
 10
725.052335
 20
106.373025
 30
0.0
 11
723.917911
 21
105.672411
 31
0.0
  0
LINE
  5
257
330
24F
100
AcDbEntity
  8
GR1-1
  6
細い実線
 62
     7
100
AcDbLine
 10
727.623498
 20
107.50466
 30
0.0
 11
727.821821
 21
106.843584
 31
0.0
  0
LINE
  5
258
330
24F
100
AcDbEntity
  8
GR1-1
  6
細い実線
 62
     7
100
AcDbLine
 10
727.821821
 20
106.843584
 30
0.0
 11
726.489074
 21
106.804046
 31
0.0
  0
LINE
  5
259
330
24F
100
AcDbEntity
  8
GR1-1
  6
細い実線
 62
     7
100
AcDbLine
 10
726.489074
 20
106.804046
 30
0.0
 11
727.623498
 21
107.50466
 31
0.0
  0
TEXT
  5
25A
330
24F
100
AcDbEntity
  8
GR1-1
  6
細い実線
 62
     7
100
AcDbText
 10
724.711784
 20
103.011808
 30
0.0
 40
2.0
  1
４５
 50
16.699244
 41
0.666667
  7
FX_VECTOR
 72
     5
 11
727.265987
 21
103.778069
 31
0.0
100
AcDbText
  0
ENDBLK
  5
251
330
24F
100
AcDbEntity
  8
0
100
AcDbBlockEnd
  0
BLOCK
  5
28C
330
28B
100
AcDbEntity
  8
0
100
AcDbBlockBegin
  2
BLKF046
 70
     0
 71
     0
 10
0.0
 20
0.0
 30
0.0
  3
BLKF046
  1

  0
LINE
  5
28F
330
28B
100
AcDbEntity
  8
GR1-1
  6
細い実線
 62
     7
100
AcDbLine
 10
709.385104
 20
115.193696
 30
0.0
 11
695.585104
 21
115.193696
 31
0.0
  0
LINE
  5
290
330
28B
100
AcDbEntity
  8
GR1-1
  6
細い実線
 62
     7
100
AcDbLine
 10
705.585104
 20
127.860363
 30
0.0
 11
695.585104
 21
127.860363
 31
0.0
  0
LINE
  5
291
330
28B
100
AcDbEntity
  8
GR1-1
  6
細い実線
 62
     7
100
AcDbLine
 10
696.251771
 20
127.860363
 30
0.0
 11
696.251771
 21
115.193696
 31
0.0
  0
LINE
  5
292
330
28B
100
AcDbEntity
  8
GR1-1
  6
細い実線
 62
     7
100
AcDbLine
 10
695.906678
 20
116.481597
 30
0.0
 11
696.596863
 21
116.481597
 31
0.0
  0
LINE
  5
293
330
28B
100
AcDbEntity
  8
GR1-1
  6
細い実線
 62
     7
100
AcDbLine
 10
696.596863
 20
116.481597
 30
0.0
 11
696.251771
 21
115.193696
 31
0.0
  0
LINE
  5
294
330
28B
100
AcDbEntity
  8
GR1-1
  6
細い実線
 62
     7
100
AcDbLine
 10
696.251771
 20
115.193696
 30
0.0
 11
695.906678
 21
116.481597
 31
0.0
  0
LINE
  5
295
330
28B
100
AcDbEntity
  8
GR1-1
  6
細い実線
 62
     7
100
AcDbLine
 10
696.596863
 20
126.572462
 30
0.0
 11
695.906678
 21
126.572462
 31
0.0
  0
LINE
  5
296
330
28B
100
AcDbEntity
  8
GR1-1
  6
細い実線
 62
     7
100
AcDbLine
 10
695.906678
 20
126.572462
 30
0.0
 11
696.251771
 21
127.860363
 31
0.0
  0
LINE
  5
297
330
28B
100
AcDbEntity
  8
GR1-1
  6
細い実線
 62
     7
100
AcDbLine
 10
696.251771
 20
127.860363
 30
0.0
 11
696.596863
 21
126.572462
 31
0.0
  0
TEXT
  5
298
330
28B
100
AcDbEntity
  8
GR1-1
  6
細い実線
 62
     7
100
AcDbText
 10
696.251693
 20
119.527026
 30
0.0
 40
2.0
  1
３８０
 50
90.0
 41
0.666667
  7
FX_VECTOR
 72
     5
 11
696.251693
 21
123.527026
 31
0.0
100
AcDbText
  0
ENDBLK
  5
28D
330
28B
100
AcDbEntity
  8
0
100
AcDbBlockEnd
  0
BLOCK
  5
29A
330
299
100
AcDbEntity
  8
0
100
AcDbBlockBegin
  2
BLKF047
 70
     0
 71
     0
 10
0.0
 20
0.0
 30
0.0
  3
BLKF047
  1

  0
LINE
  5
29D
330
299
100
AcDbEntity
  8
GR1-1
  6
細い実線
 62
     7
100
AcDbLine
 10
705.585104
 20
127.860363
 30
0.0
 11
695.585104
 21
127.860363
 31
0.0
  0
LINE
  5
29E
330
299
100
AcDbEntity
  8
GR1-1
  6
細い実線
 62
     7
100
AcDbLine
 10
711.769402
 20
131.300363
 30
0.0
 11
695.585104
 21
131.300363
 31
0.0
  0
LINE
  5
29F
330
299
100
AcDbEntity
  8
GR1-1
  6
細い実線
 62
     7
100
AcDbLine
 10
696.251771
 20
131.300363
 30
0.0
 11
696.251771
 21
127.860363
 31
0.0
  0
LINE
  5
2A0
330
299
100
AcDbEntity
  8
GR1-1
  6
細い実線
 62
     7
100
AcDbLine
 10
695.906678
 20
129.148264
 30
0.0
 11
696.596863
 21
129.148264
 31
0.0
  0
LINE
  5
2A1
330
299
100
AcDbEntity
  8
GR1-1
  6
細い実線
 62
     7
100
AcDbLine
 10
696.596863
 20
129.148264
 30
0.0
 11
696.251771
 21
127.860363
 31
0.0
  0
LINE
  5
2A2
330
299
100
AcDbEntity
  8
GR1-1
  6
細い実線
 62
     7
100
AcDbLine
 10
696.251771
 20
127.860363
 30
0.0
 11
695.906678
 21
129.148264
 31
0.0
  0
LINE
  5
2A3
330
299
100
AcDbEntity
  8
GR1-1
  6
細い実線
 62
     7
100
AcDbLine
 10
696.596863
 20
130.012462
 30
0.0
 11
695.906678
 21
130.012462
 31
0.0
  0
LINE
  5
2A4
330
299
100
AcDbEntity
  8
GR1-1
  6
細い実線
 62
     7
100
AcDbLine
 10
695.906678
 20
130.012462
 30
0.0
 11
696.251771
 21
131.300363
 31
0.0
  0
LINE
  5
2A5
330
299
100
AcDbEntity
  8
GR1-1
  6
細い実線
 62
     7
100
AcDbLine
 10
696.251771
 20
131.300363
 30
0.0
 11
696.596863
 21
130.012462
 31
0.0
  0
TEXT
  5
2A6
330
299
100
AcDbEntity
  8
GR1-1
  6
細い実線
 62
     7
100
AcDbText
 10
695.585026
 20
126.24703
 30
0.0
 40
2.0
  1
１０３．２
 50
90.0
 41
0.666667
  7
FX_VECTOR
 72
     5
 11
695.585026
 21
132.913696
 31
0.0
100
AcDbText
  0
ENDBLK
  5
29B
330
299
100
AcDbEntity
  8
0
100
AcDbBlockEnd
  0
BLOCK
  5
2A8
330
2A7
100
AcDbEntity
  8
0
100
AcDbBlockBegin
  2
BLKF048
 70
     0
 71
     0
 10
0.0
 20
0.0
 30
0.0
  3
BLKF048
  1

  0
LINE
  5
2AB
330
2A7
100
AcDbEntity
  8
GR1-1
  6
細い実線
 62
     7
100
AcDbLine
 10
704.960346
 20
132.165111
 30
0.0
 11
702.086867
 21
141.743374
 31
0.0
  0
LINE
  5
2AC
330
2A7
100
AcDbEntity
  8
GR1-1
  6
細い実線
 62
     7
100
AcDbLine
 10
717.731363
 20
135.996416
 30
0.0
 11
714.857884
 21
145.574679
 31
0.0
  0
LINE
  5
2AD
330
2A7
100
AcDbEntity
  8
GR1-1
  6
細い実線
 62
     7
100
AcDbLine
 10
715.04945
 20
144.936128
 30
0.0
 11
702.278433
 21
141.104823
 31
0.0
  0
LINE
  5
2AE
330
2A7
100
AcDbEntity
  8
GR1-1
  6
細い実線
 62
     7
100
AcDbLine
 10
703.412857
 20
141.805437
 30
0.0
 11
703.61118
 21
141.14436
 31
0.0
  0
LINE
  5
2AF
330
2A7
100
AcDbEntity
  8
GR1-1
  6
細い実線
 62
     7
100
AcDbLine
 10
703.61118
 20
141.14436
 30
0.0
 11
702.278433
 21
141.104823
 31
0.0
  0
LINE
  5
2B0
330
2A7
100
AcDbEntity
  8
GR1-1
  6
細い実線
 62
     7
100
AcDbLine
 10
702.278433
 20
141.104823
 30
0.0
 11
703.412857
 21
141.805437
 31
0.0
  0
LINE
  5
2B1
330
2A7
100
AcDbEntity
  8
GR1-1
  6
細い実線
 62
     7
100
AcDbLine
 10
713.915026
 20
144.235514
 30
0.0
 11
713.716703
 21
144.896591
 31
0.0
  0
LINE
  5
2B2
330
2A7
100
AcDbEntity
  8
GR1-1
  6
細い実線
 62
     7
100
AcDbLine
 10
713.716703
 20
144.896591
 30
0.0
 11
715.04945
 21
144.936128
 31
0.0
  0
LINE
  5
2B3
330
2A7
100
AcDbEntity
  8
GR1-1
  6
細い実線
 62
     7
100
AcDbLine
 10
715.04945
 20
144.936128
 30
0.0
 11
713.915026
 21
144.235514
 31
0.0
  0
TEXT
  5
2B4
330
2A7
100
AcDbEntity
  8
GR1-1
  6
細い実線
 62
     7
100
AcDbText
 10
706.748242
 20
142.445785
 30
0.0
 40
2.0
  1
４００
 50
16.699244
 41
0.666667
  7
FX_VECTOR
 72
     5
 11
710.579547
 21
143.595176
 31
0.0
100
AcDbText
  0
ENDBLK
  5
2A9
330
2A7
100
AcDbEntity
  8
0
100
AcDbBlockEnd
  0
BLOCK
  5
2C3
330
2C2
100
AcDbEntity
  8
0
100
AcDbBlockBegin
  2
BLKF049
 70
     0
 71
     0
 10
0.0
 20
0.0
 30
0.0
  3
BLKF049
  1

  0
LINE
  5
2C6
330
2C2
100
AcDbEntity
  8
GR1-1
  6
細い実線
 62
     7
100
AcDbLine
 10
756.512627
 20
128.360363
 30
0.0
 11
756.512627
 21
140.02703
 31
0.0
  0
LINE
  5
2C7
330
2C2
100
AcDbEntity
  8
GR1-1
  6
細い実線
 62
     7
100
AcDbLine
 10
798.179294
 20
128.360363
 30
0.0
 11
798.179294
 21
140.02703
 31
0.0
  0
LINE
  5
2C8
330
2C2
100
AcDbEntity
  8
GR1-1
  6
細い実線
 62
     7
100
AcDbLine
 10
798.179294
 20
139.360363
 30
0.0
 11
756.512627
 21
139.360363
 31
0.0
  0
LINE
  5
2C9
330
2C2
100
AcDbEntity
  8
GR1-1
  6
細い実線
 62
     7
100
AcDbLine
 10
757.800529
 20
139.705455
 30
0.0
 11
757.800529
 21
139.015271
 31
0.0
  0
LINE
  5
2CA
330
2C2
100
AcDbEntity
  8
GR1-1
  6
細い実線
 62
     7
100
AcDbLine
 10
757.800529
 20
139.015271
 30
0.0
 11
756.512627
 21
139.360363
 31
0.0
  0
LINE
  5
2CB
330
2C2
100
AcDbEntity
  8
GR1-1
  6
細い実線
 62
     7
100
AcDbLine
 10
756.512627
 20
139.360363
 30
0.0
 11
757.800529
 21
139.705455
 31
0.0
  0
LINE
  5
2CC
330
2C2
100
AcDbEntity
  8
GR1-1
  6
細い実線
 62
     7
100
AcDbLine
 10
796.891393
 20
139.015271
 30
0.0
 11
796.891393
 21
139.705455
 31
0.0
  0
LINE
  5
2CD
330
2C2
100
AcDbEntity
  8
GR1-1
  6
細い実線
 62
     7
100
AcDbLine
 10
796.891393
 20
139.705455
 30
0.0
 11
798.179294
 21
139.360363
 31
0.0
  0
LINE
  5
2CE
330
2C2
100
AcDbEntity
  8
GR1-1
  6
細い実線
 62
     7
100
AcDbLine
 10
798.179294
 20
139.360363
 30
0.0
 11
796.891393
 21
139.015271
 31
0.0
  0
TEXT
  5
2CF
330
2C2
100
AcDbEntity
  8
GR1-1
  6
細い実線
 62
     7
100
AcDbText
 10
774.679232
 20
139.360368
 30
0.0
 40
2.0
  1
１２５０
 41
0.666667
  7
FX_VECTOR
 72
     5
 11
780.012565
 21
139.360368
 31
0.0
100
AcDbText
  0
ENDBLK
  5
2C4
330
2C2
100
AcDbEntity
  8
0
100
AcDbBlockEnd
  0
BLOCK
  5
2D1
330
2D0
100
AcDbEntity
  8
0
100
AcDbBlockBegin
  2
BLKF050
 70
     0
 71
     0
 10
0.0
 20
0.0
 30
0.0
  3
BLKF050
  1

  0
LINE
  5
2D4
330
2D0
100
AcDbEntity
  8
GR1-1
  6
細い実線
 62
     7
100
AcDbLine
 10
756.512627
 20
114.52703
 30
0.0
 11
756.512627
 21
101.193696
 31
0.0
  0
LINE
  5
2D5
330
2D0
100
AcDbEntity
  8
GR1-1
  6
細い実線
 62
     7
100
AcDbLine
 10
768.929294
 20
101.860363
 30
0.0
 11
756.512627
 21
101.860363
 31
0.0
  0
LINE
  5
2D6
330
2D0
100
AcDbEntity
  8
GR1-1
  6
細い実線
 62
     7
100
AcDbLine
 10
757.800529
 20
102.205455
 30
0.0
 11
757.800529
 21
101.515271
 31
0.0
  0
LINE
  5
2D7
330
2D0
100
AcDbEntity
  8
GR1-1
  6
細い実線
 62
     7
100
AcDbLine
 10
757.800529
 20
101.515271
 30
0.0
 11
756.512627
 21
101.860363
 31
0.0
  0
LINE
  5
2D8
330
2D0
100
AcDbEntity
  8
GR1-1
  6
細い実線
 62
     7
100
AcDbLine
 10
756.512627
 20
101.860363
 30
0.0
 11
757.800529
 21
102.205455
 31
0.0
  0
LINE
  5
2D9
330
2D0
100
AcDbEntity
  8
GR1-1
  6
細い実線
 62
     7
100
AcDbLine
 10
767.641393
 20
101.515271
 30
0.0
 11
767.641393
 21
102.205455
 31
0.0
  0
LINE
  5
2DA
330
2D0
100
AcDbEntity
  8
GR1-1
  6
細い実線
 62
     7
100
AcDbLine
 10
767.641393
 20
102.205455
 30
0.0
 11
768.929294
 21
101.860363
 31
0.0
  0
LINE
  5
2DB
330
2D0
100
AcDbEntity
  8
GR1-1
  6
細い実線
 62
     7
100
AcDbLine
 10
768.929294
 20
101.860363
 30
0.0
 11
767.641393
 21
101.515271
 31
0.0
  0
TEXT
  5
2DC
330
2D0
100
AcDbEntity
  8
GR1-1
  6
細い実線
 62
     7
100
AcDbText
 10
759.387565
 20
101.86036
 30
0.0
 40
2.0
  1
３７２．５
 41
0.666667
  7
FX_VECTOR
 72
     5
 11
766.054232
 21
101.86036
 31
0.0
100
AcDbText
  0
ENDBLK
  5
2D2
330
2D0
100
AcDbEntity
  8
0
100
AcDbBlockEnd
  0
BLOCK
  5
2DE
330
2DD
100
AcDbEntity
  8
0
100
AcDbBlockBegin
  2
BLKF051
 70
     0
 71
     0
 10
0.0
 20
0.0
 30
0.0
  3
BLKF051
  1

  0
LINE
  5
2E1
330
2DD
100
AcDbEntity
  8
GR1-1
  6
細い実線
 62
     7
100
AcDbLine
 10
768.095961
 20
114.52703
 30
0.0
 11
768.095961
 21
106.193696
 31
0.0
  0
LINE
  5
2E2
330
2DD
100
AcDbEntity
  8
GR1-1
  6
細い実線
 62
     7
100
AcDbLine
 10
769.762627
 20
114.52703
 30
0.0
 11
769.762627
 21
106.193696
 31
0.0
  0
LINE
  5
2E3
330
2DD
100
AcDbEntity
  8
GR1-1
  6
細い実線
 62
     7
100
AcDbLine
 10
771.762627
 20
106.860363
 30
0.0
 11
766.095961
 21
106.860363
 31
0.0
  0
LINE
  5
2E4
330
2DD
100
AcDbEntity
  8
GR1-1
  6
細い実線
 62
     7
100
AcDbLine
 10
766.80806
 20
106.515271
 30
0.0
 11
766.80806
 21
107.205455
 31
0.0
  0
LINE
  5
2E5
330
2DD
100
AcDbEntity
  8
GR1-1
  6
細い実線
 62
     7
100
AcDbLine
 10
766.80806
 20
107.205455
 30
0.0
 11
768.095961
 21
106.860363
 31
0.0
  0
LINE
  5
2E6
330
2DD
100
AcDbEntity
  8
GR1-1
  6
細い実線
 62
     7
100
AcDbLine
 10
768.095961
 20
106.860363
 30
0.0
 11
766.80806
 21
106.515271
 31
0.0
  0
LINE
  5
2E7
330
2DD
100
AcDbEntity
  8
GR1-1
  6
細い実線
 62
     7
100
AcDbLine
 10
771.050529
 20
107.205455
 30
0.0
 11
771.050529
 21
106.515271
 31
0.0
  0
LINE
  5
2E8
330
2DD
100
AcDbEntity
  8
GR1-1
  6
細い実線
 62
     7
100
AcDbLine
 10
771.050529
 20
106.515271
 30
0.0
 11
769.762627
 21
106.860363
 31
0.0
  0
LINE
  5
2E9
330
2DD
100
AcDbEntity
  8
GR1-1
  6
細い実線
 62
     7
100
AcDbLine
 10
769.762627
 20
106.860363
 30
0.0
 11
771.050529
 21
107.205455
 31
0.0
  0
TEXT
  5
2EA
330
2DD
100
AcDbEntity
  8
GR1-1
  6
細い実線
 62
     7
100
AcDbText
 10
771.208789
 20
106.86036
 30
0.0
 40
2.0
  1
５０
 41
0.666667
  7
FX_VECTOR
 72
     5
 11
773.875456
 21
106.86036
 31
0.0
100
AcDbText
  0
ENDBLK
  5
2DF
330
2DD
100
AcDbEntity
  8
0
100
AcDbBlockEnd
  0
BLOCK
  5
2EC
330
2EB
100
AcDbEntity
  8
0
100
AcDbBlockBegin
  2
BLKF052
 70
     0
 71
     0
 10
0.0
 20
0.0
 30
0.0
  3
BLKF052
  1

  0
LINE
  5
2EF
330
2EB
100
AcDbEntity
  8
GR1-1
  6
細い実線
 62
     7
100
AcDbLine
 10
784.929294
 20
114.52703
 30
0.0
 11
784.929294
 21
106.193696
 31
0.0
  0
LINE
  5
2F0
330
2EB
100
AcDbEntity
  8
GR1-1
  6
細い実線
 62
     7
100
AcDbLine
 10
786.595961
 20
114.52703
 30
0.0
 11
786.595961
 21
106.193696
 31
0.0
  0
LINE
  5
2F1
330
2EB
100
AcDbEntity
  8
GR1-1
  6
細い実線
 62
     7
100
AcDbLine
 10
788.595961
 20
106.860363
 30
0.0
 11
782.929294
 21
106.860363
 31
0.0
  0
LINE
  5
2F2
330
2EB
100
AcDbEntity
  8
GR1-1
  6
細い実線
 62
     7
100
AcDbLine
 10
783.641393
 20
106.515271
 30
0.0
 11
783.641393
 21
107.205455
 31
0.0
  0
LINE
  5
2F3
330
2EB
100
AcDbEntity
  8
GR1-1
  6
細い実線
 62
     7
100
AcDbLine
 10
783.641393
 20
107.205455
 30
0.0
 11
784.929294
 21
106.860363
 31
0.0
  0
LINE
  5
2F4
330
2EB
100
AcDbEntity
  8
GR1-1
  6
細い実線
 62
     7
100
AcDbLine
 10
784.929294
 20
106.860363
 30
0.0
 11
783.641393
 21
106.515271
 31
0.0
  0
LINE
  5
2F5
330
2EB
100
AcDbEntity
  8
GR1-1
  6
細い実線
 62
     7
100
AcDbLine
 10
787.883862
 20
107.205455
 30
0.0
 11
787.883862
 21
106.515271
 31
0.0
  0
LINE
  5
2F6
330
2EB
100
AcDbEntity
  8
GR1-1
  6
細い実線
 62
     7
100
AcDbLine
 10
787.883862
 20
106.515271
 30
0.0
 11
786.595961
 21
106.860363
 31
0.0
  0
LINE
  5
2F7
330
2EB
100
AcDbEntity
  8
GR1-1
  6
細い実線
 62
     7
100
AcDbLine
 10
786.595961
 20
106.860363
 30
0.0
 11
787.883862
 21
107.205455
 31
0.0
  0
TEXT
  5
2F8
330
2EB
100
AcDbEntity
  8
GR1-1
  6
細い実線
 62
     7
100
AcDbText
 10
788.042122
 20
106.86036
 30
0.0
 40
2.0
  1
５０
 41
0.666667
  7
FX_VECTOR
 72
     5
 11
790.708789
 21
106.86036
 31
0.0
100
AcDbText
  0
ENDBLK
  5
2ED
330
2EB
100
AcDbEntity
  8
0
100
AcDbBlockEnd
  0
BLOCK
  5
2FA
330
2F9
100
AcDbEntity
  8
0
100
AcDbBlockBegin
  2
BLKF053
 70
     0
 71
     0
 10
0.0
 20
0.0
 30
0.0
  3
BLKF053
  1

  0
LINE
  5
2FD
330
2F9
100
AcDbEntity
  8
GR1-1
  6
細い実線
 62
     7
100
AcDbLine
 10
756.512627
 20
128.360363
 30
0.0
 11
756.512627
 21
136.693696
 31
0.0
  0
LINE
  5
2FE
330
2F9
100
AcDbEntity
  8
GR1-1
  6
細い実線
 62
     7
100
AcDbLine
 10
767.095961
 20
128.360363
 30
0.0
 11
767.095961
 21
136.693696
 31
0.0
  0
LINE
  5
2FF
330
2F9
100
AcDbEntity
  8
GR1-1
  6
細い実線
 62
     7
100
AcDbLine
 10
767.095961
 20
136.02703
 30
0.0
 11
756.512627
 21
136.02703
 31
0.0
  0
LINE
  5
300
330
2F9
100
AcDbEntity
  8
GR1-1
  6
細い実線
 62
     7
100
AcDbLine
 10
757.800529
 20
136.372122
 30
0.0
 11
757.800529
 21
135.681937
 31
0.0
  0
LINE
  5
301
330
2F9
100
AcDbEntity
  8
GR1-1
  6
細い実線
 62
     7
100
AcDbLine
 10
757.800529
 20
135.681937
 30
0.0
 11
756.512627
 21
136.02703
 31
0.0
  0
LINE
  5
302
330
2F9
100
AcDbEntity
  8
GR1-1
  6
細い実線
 62
     7
100
AcDbLine
 10
756.512627
 20
136.02703
 30
0.0
 11
757.800529
 21
136.372122
 31
0.0
  0
LINE
  5
303
330
2F9
100
AcDbEntity
  8
GR1-1
  6
細い実線
 62
     7
100
AcDbLine
 10
765.80806
 20
135.681937
 30
0.0
 11
765.80806
 21
136.372122
 31
0.0
  0
LINE
  5
304
330
2F9
100
AcDbEntity
  8
GR1-1
  6
細い実線
 62
     7
100
AcDbLine
 10
765.80806
 20
136.372122
 30
0.0
 11
767.095961
 21
136.02703
 31
0.0
  0
LINE
  5
305
330
2F9
100
AcDbEntity
  8
GR1-1
  6
細い実線
 62
     7
100
AcDbLine
 10
767.095961
 20
136.02703
 30
0.0
 11
765.80806
 21
135.681937
 31
0.0
  0
TEXT
  5
306
330
2F9
100
AcDbEntity
  8
GR1-1
  6
細い実線
 62
     7
100
AcDbText
 10
758.470898
 20
136.027026
 30
0.0
 40
2.0
  1
３１７．５
 41
0.666667
  7
FX_VECTOR
 72
     5
 11
765.137565
 21
136.027026
 31
0.0
100
AcDbText
  0
ENDBLK
  5
2FB
330
2F9
100
AcDbEntity
  8
0
100
AcDbBlockEnd
  0
BLOCK
  5
308
330
307
100
AcDbEntity
  8
0
100
AcDbBlockBegin
  2
BLKF054
 70
     0
 71
     0
 10
0.0
 20
0.0
 30
0.0
  3
BLKF054
  1

  0
LINE
  5
30B
330
307
100
AcDbEntity
  8
GR1-1
  6
細い実線
 62
     7
100
AcDbLine
 10
770.762627
 20
128.360363
 30
0.0
 11
770.762627
 21
136.693696
 31
0.0
  0
LINE
  5
30C
330
307
100
AcDbEntity
  8
GR1-1
  6
細い実線
 62
     7
100
AcDbLine
 10
770.762627
 20
136.02703
 30
0.0
 11
767.095961
 21
136.02703
 31
0.0
  0
LINE
  5
30D
330
307
100
AcDbEntity
  8
GR1-1
  6
細い実線
 62
     7
100
AcDbLine
 10
768.383862
 20
136.372122
 30
0.0
 11
768.383862
 21
135.681937
 31
0.0
  0
LINE
  5
30E
330
307
100
AcDbEntity
  8
GR1-1
  6
細い実線
 62
     7
100
AcDbLine
 10
768.383862
 20
135.681937
 30
0.0
 11
767.095961
 21
136.02703
 31
0.0
  0
LINE
  5
30F
330
307
100
AcDbEntity
  8
GR1-1
  6
細い実線
 62
     7
100
AcDbLine
 10
767.095961
 20
136.02703
 30
0.0
 11
768.383862
 21
136.372122
 31
0.0
  0
LINE
  5
310
330
307
100
AcDbEntity
  8
GR1-1
  6
細い実線
 62
     7
100
AcDbLine
 10
769.474726
 20
135.681937
 30
0.0
 11
769.474726
 21
136.372122
 31
0.0
  0
LINE
  5
311
330
307
100
AcDbEntity
  8
GR1-1
  6
細い実線
 62
     7
100
AcDbLine
 10
769.474726
 20
136.372122
 30
0.0
 11
770.762627
 21
136.02703
 31
0.0
  0
LINE
  5
312
330
307
100
AcDbEntity
  8
GR1-1
  6
細い実線
 62
     7
100
AcDbLine
 10
770.762627
 20
136.02703
 30
0.0
 11
769.474726
 21
135.681937
 31
0.0
  0
TEXT
  5
313
330
307
100
AcDbEntity
  8
GR1-1
  6
細い実線
 62
     7
100
AcDbText
 10
766.929232
 20
136.693701
 30
0.0
 40
2.0
  1
１１０
 41
0.666667
  7
FX_VECTOR
 72
     5
 11
770.929232
 21
136.693701
 31
0.0
100
AcDbText
  0
ENDBLK
  5
309
330
307
100
AcDbEntity
  8
0
100
AcDbBlockEnd
  0
BLOCK
  5
315
330
314
100
AcDbEntity
  8
0
100
AcDbBlockBegin
  2
BLKF055
 70
     0
 71
     0
 10
0.0
 20
0.0
 30
0.0
  3
BLKF055
  1

  0
LINE
  5
318
330
314
100
AcDbEntity
  8
GR1-1
  6
細い実線
 62
     7
100
AcDbLine
 10
783.929294
 20
128.360363
 30
0.0
 11
783.929294
 21
136.693696
 31
0.0
  0
LINE
  5
319
330
314
100
AcDbEntity
  8
GR1-1
  6
細い実線
 62
     7
100
AcDbLine
 10
783.929294
 20
136.02703
 30
0.0
 11
770.762627
 21
136.02703
 31
0.0
  0
LINE
  5
31A
330
314
100
AcDbEntity
  8
GR1-1
  6
細い実線
 62
     7
100
AcDbLine
 10
772.050529
 20
136.372122
 30
0.0
 11
772.050529
 21
135.681937
 31
0.0
  0
LINE
  5
31B
330
314
100
AcDbEntity
  8
GR1-1
  6
細い実線
 62
     7
100
AcDbLine
 10
772.050529
 20
135.681937
 30
0.0
 11
770.762627
 21
136.02703
 31
0.0
  0
LINE
  5
31C
330
314
100
AcDbEntity
  8
GR1-1
  6
細い実線
 62
     7
100
AcDbLine
 10
770.762627
 20
136.02703
 30
0.0
 11
772.050529
 21
136.372122
 31
0.0
  0
LINE
  5
31D
330
314
100
AcDbEntity
  8
GR1-1
  6
細い実線
 62
     7
100
AcDbLine
 10
782.641393
 20
135.681937
 30
0.0
 11
782.641393
 21
136.372122
 31
0.0
  0
LINE
  5
31E
330
314
100
AcDbEntity
  8
GR1-1
  6
細い実線
 62
     7
100
AcDbLine
 10
782.641393
 20
136.372122
 30
0.0
 11
783.929294
 21
136.02703
 31
0.0
  0
LINE
  5
31F
330
314
100
AcDbEntity
  8
GR1-1
  6
細い実線
 62
     7
100
AcDbLine
 10
783.929294
 20
136.02703
 30
0.0
 11
782.641393
 21
135.681937
 31
0.0
  0
TEXT
  5
320
330
314
100
AcDbEntity
  8
GR1-1
  6
細い実線
 62
     7
100
AcDbText
 10
775.345898
 20
136.027026
 30
0.0
 40
2.0
  1
３９５
 41
0.666667
  7
FX_VECTOR
 72
     5
 11
779.345898
 21
136.027026
 31
0.0
100
AcDbText
  0
ENDBLK
  5
316
330
314
100
AcDbEntity
  8
0
100
AcDbBlockEnd
  0
BLOCK
  5
322
330
321
100
AcDbEntity
  8
0
100
AcDbBlockBegin
  2
BLKF056
 70
     0
 71
     0
 10
0.0
 20
0.0
 30
0.0
  3
BLKF056
  1

  0
LINE
  5
325
330
321
100
AcDbEntity
  8
GR1-1
  6
細い実線
 62
     7
100
AcDbLine
 10
787.595961
 20
128.360363
 30
0.0
 11
787.595961
 21
136.693696
 31
0.0
  0
LINE
  5
326
330
321
100
AcDbEntity
  8
GR1-1
  6
細い実線
 62
     7
100
AcDbLine
 10
787.595961
 20
136.02703
 30
0.0
 11
783.929294
 21
136.02703
 31
0.0
  0
LINE
  5
327
330
321
100
AcDbEntity
  8
GR1-1
  6
細い実線
 62
     7
100
AcDbLine
 10
785.217195
 20
136.372122
 30
0.0
 11
785.217195
 21
135.681937
 31
0.0
  0
LINE
  5
328
330
321
100
AcDbEntity
  8
GR1-1
  6
細い実線
 62
     7
100
AcDbLine
 10
785.217195
 20
135.681937
 30
0.0
 11
783.929294
 21
136.02703
 31
0.0
  0
LINE
  5
329
330
321
100
AcDbEntity
  8
GR1-1
  6
細い実線
 62
     7
100
AcDbLine
 10
783.929294
 20
136.02703
 30
0.0
 11
785.217195
 21
136.372122
 31
0.0
  0
LINE
  5
32A
330
321
100
AcDbEntity
  8
GR1-1
  6
細い実線
 62
     7
100
AcDbLine
 10
786.30806
 20
135.681937
 30
0.0
 11
786.30806
 21
136.372122
 31
0.0
  0
LINE
  5
32B
330
321
100
AcDbEntity
  8
GR1-1
  6
細い実線
 62
     7
100
AcDbLine
 10
786.30806
 20
136.372122
 30
0.0
 11
787.595961
 21
136.02703
 31
0.0
  0
LINE
  5
32C
330
321
100
AcDbEntity
  8
GR1-1
  6
細い実線
 62
     7
100
AcDbLine
 10
787.595961
 20
136.02703
 30
0.0
 11
786.30806
 21
135.681937
 31
0.0
  0
TEXT
  5
32D
330
321
100
AcDbEntity
  8
GR1-1
  6
細い実線
 62
     7
100
AcDbText
 10
783.762565
 20
136.693701
 30
0.0
 40
2.0
  1
１１０
 41
0.666667
  7
FX_VECTOR
 72
     5
 11
787.762565
 21
136.693701
 31
0.0
100
AcDbText
  0
ENDBLK
  5
323
330
321
100
AcDbEntity
  8
0
100
AcDbBlockEnd
  0
BLOCK
  5
32F
330
32E
100
AcDbEntity
  8
0
100
AcDbBlockBegin
  2
BLKF057
 70
     0
 71
     0
 10
0.0
 20
0.0
 30
0.0
  3
BLKF057
  1

  0
LINE
  5
332
330
32E
100
AcDbEntity
  8
GR1-1
  6
細い実線
 62
     7
100
AcDbLine
 10
798.179294
 20
128.360363
 30
0.0
 11
798.179294
 21
136.693696
 31
0.0
  0
LINE
  5
333
330
32E
100
AcDbEntity
  8
GR1-1
  6
細い実線
 62
     7
100
AcDbLine
 10
798.179294
 20
136.02703
 30
0.0
 11
787.595961
 21
136.02703
 31
0.0
  0
LINE
  5
334
330
32E
100
AcDbEntity
  8
GR1-1
  6
細い実線
 62
     7
100
AcDbLine
 10
788.883862
 20
136.372122
 30
0.0
 11
788.883862
 21
135.681937
 31
0.0
  0
LINE
  5
335
330
32E
100
AcDbEntity
  8
GR1-1
  6
細い実線
 62
     7
100
AcDbLine
 10
788.883862
 20
135.681937
 30
0.0
 11
787.595961
 21
136.02703
 31
0.0
  0
LINE
  5
336
330
32E
100
AcDbEntity
  8
GR1-1
  6
細い実線
 62
     7
100
AcDbLine
 10
787.595961
 20
136.02703
 30
0.0
 11
788.883862
 21
136.372122
 31
0.0
  0
LINE
  5
337
330
32E
100
AcDbEntity
  8
GR1-1
  6
細い実線
 62
     7
100
AcDbLine
 10
796.891393
 20
135.681937
 30
0.0
 11
796.891393
 21
136.372122
 31
0.0
  0
LINE
  5
338
330
32E
100
AcDbEntity
  8
GR1-1
  6
細い実線
 62
     7
100
AcDbLine
 10
796.891393
 20
136.372122
 30
0.0
 11
798.179294
 21
136.02703
 31
0.0
  0
LINE
  5
339
330
32E
100
AcDbEntity
  8
GR1-1
  6
細い実線
 62
     7
100
AcDbLine
 10
798.179294
 20
136.02703
 30
0.0
 11
796.891393
 21
135.681937
 31
0.0
  0
TEXT
  5
33A
330
32E
100
AcDbEntity
  8
GR1-1
  6
細い実線
 62
     7
100
AcDbText
 10
789.554232
 20
136.027026
 30
0.0
 40
2.0
  1
３１７．５
 41
0.666667
  7
FX_VECTOR
 72
     5
 11
796.220898
 21
136.027026
 31
0.0
100
AcDbText
  0
ENDBLK
  5
330
330
32E
100
AcDbEntity
  8
0
100
AcDbBlockEnd
  0
BLOCK
  5
33C
330
33B
100
AcDbEntity
  8
0
100
AcDbBlockBegin
  2
BLKF058
 70
     0
 71
     0
 10
0.0
 20
0.0
 30
0.0
  3
BLKF058
  1

  0
LINE
  5
33F
330
33B
100
AcDbEntity
  8
GR1-1
  6
細い実線
 62
     7
100
AcDbLine
 10
755.845961
 20
127.860363
 30
0.0
 11
747.095961
 21
127.860363
 31
0.0
  0
LINE
  5
340
330
33B
100
AcDbEntity
  8
GR1-1
  6
細い実線
 62
     7
100
AcDbLine
 10
755.845961
 20
115.193696
 30
0.0
 11
747.095961
 21
115.193696
 31
0.0
  0
LINE
  5
341
330
33B
100
AcDbEntity
  8
GR1-1
  6
細い実線
 62
     7
100
AcDbLine
 10
747.762627
 20
115.193696
 30
0.0
 11
747.762627
 21
127.860363
 31
0.0
  0
LINE
  5
342
330
33B
100
AcDbEntity
  8
GR1-1
  6
細い実線
 62
     7
100
AcDbLine
 10
748.10772
 20
126.572462
 30
0.0
 11
747.417535
 21
126.572462
 31
0.0
  0
LINE
  5
343
330
33B
100
AcDbEntity
  8
GR1-1
  6
細い実線
 62
     7
100
AcDbLine
 10
747.417535
 20
126.572462
 30
0.0
 11
747.762627
 21
127.860363
 31
0.0
  0
LINE
  5
344
330
33B
100
AcDbEntity
  8
GR1-1
  6
細い実線
 62
     7
100
AcDbLine
 10
747.762627
 20
127.860363
 30
0.0
 11
748.10772
 21
126.572462
 31
0.0
  0
LINE
  5
345
330
33B
100
AcDbEntity
  8
GR1-1
  6
細い実線
 62
     7
100
AcDbLine
 10
747.417535
 20
116.481597
 30
0.0
 11
748.10772
 21
116.481597
 31
0.0
  0
LINE
  5
346
330
33B
100
AcDbEntity
  8
GR1-1
  6
細い実線
 62
     7
100
AcDbLine
 10
748.10772
 20
116.481597
 30
0.0
 11
747.762627
 21
115.193696
 31
0.0
  0
LINE
  5
347
330
33B
100
AcDbEntity
  8
GR1-1
  6
細い実線
 62
     7
100
AcDbLine
 10
747.762627
 20
115.193696
 30
0.0
 11
747.417535
 21
116.481597
 31
0.0
  0
TEXT
  5
348
330
33B
100
AcDbEntity
  8
GR1-1
  6
細い実線
 62
     7
100
AcDbText
 10
747.762565
 20
119.527026
 30
0.0
 40
2.0
  1
３８０
 50
90.0
 41
0.666667
  7
FX_VECTOR
 72
     5
 11
747.762565
 21
123.527026
 31
0.0
100
AcDbText
  0
ENDBLK
  5
33D
330
33B
100
AcDbEntity
  8
0
100
AcDbBlockEnd
  0
BLOCK
  5
34A
330
349
100
AcDbEntity
  8
0
100
AcDbBlockBegin
  2
BLKF059
 70
     0
 71
     0
 10
0.0
 20
0.0
 30
0.0
  3
BLKF059
  1

  0
LINE
  5
34D
330
349
100
AcDbEntity
  8
GR1-1
  6
細い実線
 62
     7
100
AcDbLine
 10
768.929294
 20
106.231649
 30
0.0
 11
768.929294
 21
101.193696
 31
0.0
  0
LINE
  5
34E
330
349
100
AcDbEntity
  8
GR1-1
  6
細い実線
 62
     7
100
AcDbLine
 10
785.762627
 20
106.231649
 30
0.0
 11
785.762627
 21
101.193696
 31
0.0
  0
LINE
  5
34F
330
349
100
AcDbEntity
  8
GR1-1
  6
細い実線
 62
     7
100
AcDbLine
 10
785.762627
 20
101.860363
 30
0.0
 11
768.929294
 21
101.860363
 31
0.0
  0
LINE
  5
350
330
349
100
AcDbEntity
  8
GR1-1
  6
細い実線
 62
     7
100
AcDbLine
 10
770.217195
 20
102.205455
 30
0.0
 11
770.217195
 21
101.515271
 31
0.0
  0
LINE
  5
351
330
349
100
AcDbEntity
  8
GR1-1
  6
細い実線
 62
     7
100
AcDbLine
 10
770.217195
 20
101.515271
 30
0.0
 11
768.929294
 21
101.860363
 31
0.0
  0
LINE
  5
352
330
349
100
AcDbEntity
  8
GR1-1
  6
細い実線
 62
     7
100
AcDbLine
 10
768.929294
 20
101.860363
 30
0.0
 11
770.217195
 21
102.205455
 31
0.0
  0
LINE
  5
353
330
349
100
AcDbEntity
  8
GR1-1
  6
細い実線
 62
     7
100
AcDbLine
 10
784.474726
 20
101.515271
 30
0.0
 11
784.474726
 21
102.205455
 31
0.0
  0
LINE
  5
354
330
349
100
AcDbEntity
  8
GR1-1
  6
細い実線
 62
     7
100
AcDbLine
 10
784.474726
 20
102.205455
 30
0.0
 11
785.762627
 21
101.860363
 31
0.0
  0
LINE
  5
355
330
349
100
AcDbEntity
  8
GR1-1
  6
細い実線
 62
     7
100
AcDbLine
 10
785.762627
 20
101.860363
 30
0.0
 11
784.474726
 21
101.515271
 31
0.0
  0
TEXT
  5
356
330
349
100
AcDbEntity
  8
GR1-1
  6
細い実線
 62
     7
100
AcDbText
 10
775.345898
 20
101.86036
 30
0.0
 40
2.0
  1
５０５
 41
0.666667
  7
FX_VECTOR
 72
     5
 11
779.345898
 21
101.86036
 31
0.0
100
AcDbText
  0
ENDBLK
  5
34B
330
349
100
AcDbEntity
  8
0
100
AcDbBlockEnd
  0
BLOCK
  5
358
330
357
100
AcDbEntity
  8
0
100
AcDbBlockBegin
  2
BLKF060
 70
     0
 71
     0
 10
0.0
 20
0.0
 30
0.0
  3
BLKF060
  1

  0
LINE
  5
35B
330
357
100
AcDbEntity
  8
GR1-1
  6
細い実線
 62
     7
100
AcDbLine
 10
798.179294
 20
114.52703
 30
0.0
 11
798.179294
 21
101.193696
 31
0.0
  0
LINE
  5
35C
330
357
100
AcDbEntity
  8
GR1-1
  6
細い実線
 62
     7
100
AcDbLine
 10
798.179294
 20
101.860363
 30
0.0
 11
785.762627
 21
101.860363
 31
0.0
  0
LINE
  5
35D
330
357
100
AcDbEntity
  8
GR1-1
  6
細い実線
 62
     7
100
AcDbLine
 10
787.050529
 20
102.205455
 30
0.0
 11
787.050529
 21
101.515271
 31
0.0
  0
LINE
  5
35E
330
357
100
AcDbEntity
  8
GR1-1
  6
細い実線
 62
     7
100
AcDbLine
 10
787.050529
 20
101.515271
 30
0.0
 11
785.762627
 21
101.860363
 31
0.0
  0
LINE
  5
35F
330
357
100
AcDbEntity
  8
GR1-1
  6
細い実線
 62
     7
100
AcDbLine
 10
785.762627
 20
101.860363
 30
0.0
 11
787.050529
 21
102.205455
 31
0.0
  0
LINE
  5
360
330
357
100
AcDbEntity
  8
GR1-1
  6
細い実線
 62
     7
100
AcDbLine
 10
796.891393
 20
101.515271
 30
0.0
 11
796.891393
 21
102.205455
 31
0.0
  0
LINE
  5
361
330
357
100
AcDbEntity
  8
GR1-1
  6
細い実線
 62
     7
100
AcDbLine
 10
796.891393
 20
102.205455
 30
0.0
 11
798.179294
 21
101.860363
 31
0.0
  0
LINE
  5
362
330
357
100
AcDbEntity
  8
GR1-1
  6
細い実線
 62
     7
100
AcDbLine
 10
798.179294
 20
101.860363
 30
0.0
 11
796.891393
 21
101.515271
 31
0.0
  0
TEXT
  5
363
330
357
100
AcDbEntity
  8
GR1-1
  6
細い実線
 62
     7
100
AcDbText
 10
788.637565
 20
101.86036
 30
0.0
 40
2.0
  1
３７２．５
 41
0.666667
  7
FX_VECTOR
 72
     5
 11
795.304232
 21
101.86036
 31
0.0
100
AcDbText
  0
ENDBLK
  5
359
330
357
100
AcDbEntity
  8
0
100
AcDbBlockEnd
  0
BLOCK
  5
36B
330
36A
100
AcDbEntity
  8
0
100
AcDbBlockBegin
  2
BLKF061
 70
     0
 71
     0
 10
0.0
 20
0.0
 30
0.0
  3
BLKF061
  1

  0
LINE
  5
36E
330
36A
100
AcDbEntity
  8
GR1-1
  6
細い実線
 62
     7
100
AcDbLine
 10
767.095961
 20
131.300363
 30
0.0
 11
747.095961
 21
131.300363
 31
0.0
  0
LINE
  5
36F
330
36A
100
AcDbEntity
  8
GR1-1
  6
細い実線
 62
     7
100
AcDbLine
 10
755.845961
 20
127.860363
 30
0.0
 11
747.095961
 21
127.860363
 31
0.0
  0
LINE
  5
370
330
36A
100
AcDbEntity
  8
GR1-1
  6
細い実線
 62
     7
100
AcDbLine
 10
747.762627
 20
127.860363
 30
0.0
 11
747.762627
 21
131.300363
 31
0.0
  0
LINE
  5
371
330
36A
100
AcDbEntity
  8
GR1-1
  6
細い実線
 62
     7
100
AcDbLine
 10
748.10772
 20
130.012462
 30
0.0
 11
747.417535
 21
130.012462
 31
0.0
  0
LINE
  5
372
330
36A
100
AcDbEntity
  8
GR1-1
  6
細い実線
 62
     7
100
AcDbLine
 10
747.417535
 20
130.012462
 30
0.0
 11
747.762627
 21
131.300363
 31
0.0
  0
LINE
  5
373
330
36A
100
AcDbEntity
  8
GR1-1
  6
細い実線
 62
     7
100
AcDbLine
 10
747.762627
 20
131.300363
 30
0.0
 11
748.10772
 21
130.012462
 31
0.0
  0
LINE
  5
374
330
36A
100
AcDbEntity
  8
GR1-1
  6
細い実線
 62
     7
100
AcDbLine
 10
747.417535
 20
129.148264
 30
0.0
 11
748.10772
 21
129.148264
 31
0.0
  0
LINE
  5
375
330
36A
100
AcDbEntity
  8
GR1-1
  6
細い実線
 62
     7
100
AcDbLine
 10
748.10772
 20
129.148264
 30
0.0
 11
747.762627
 21
127.860363
 31
0.0
  0
LINE
  5
376
330
36A
100
AcDbEntity
  8
GR1-1
  6
細い実線
 62
     7
100
AcDbLine
 10
747.762627
 20
127.860363
 30
0.0
 11
747.417535
 21
129.148264
 31
0.0
  0
TEXT
  5
377
330
36A
100
AcDbEntity
  8
GR1-1
  6
細い実線
 62
     7
100
AcDbText
 10
747.095898
 20
126.24703
 30
0.0
 40
2.0
  1
１０３．２
 50
90.0
 41
0.666667
  7
FX_VECTOR
 72
     5
 11
747.095898
 21
132.913696
 31
0.0
100
AcDbText
  0
ENDBLK
  5
36C
330
36A
100
AcDbEntity
  8
0
100
AcDbBlockEnd
  0
BLOCK
  5
39B
330
39A
100
AcDbEntity
  8
0
100
AcDbBlockBegin
  2
BLKF062
 70
     0
 71
     0
 10
0.0
 20
0.0
 30
0.0
  3
BLKF062
  1

  0
LINE
  5
39E
330
39A
100
AcDbEntity
  8
GR1-1
  6
細い実線
 62
     7
100
AcDbLine
 10
832.252008
 20
128.52703
 30
0.0
 11
832.252008
 21
143.52703
 31
0.0
  0
LINE
  5
39F
330
39A
100
AcDbEntity
  8
GR1-1
  6
細い実線
 62
     7
100
AcDbLine
 10
846.140417
 20
128.52703
 30
0.0
 11
846.140417
 21
143.52703
 31
0.0
  0
LINE
  5
3A0
330
39A
100
AcDbEntity
  8
GR1-1
  6
細い実線
 62
     7
100
AcDbLine
 10
846.140417
 20
142.860363
 30
0.0
 11
832.252008
 21
142.860363
 31
0.0
  0
LINE
  5
3A1
330
39A
100
AcDbEntity
  8
GR1-1
  6
細い実線
 62
     7
100
AcDbLine
 10
833.539909
 20
143.205455
 30
0.0
 11
833.539909
 21
142.515271
 31
0.0
  0
LINE
  5
3A2
330
39A
100
AcDbEntity
  8
GR1-1
  6
細い実線
 62
     7
100
AcDbLine
 10
833.539909
 20
142.515271
 30
0.0
 11
832.252008
 21
142.860363
 31
0.0
  0
LINE
  5
3A3
330
39A
100
AcDbEntity
  8
GR1-1
  6
細い実線
 62
     7
100
AcDbLine
 10
832.252008
 20
142.860363
 30
0.0
 11
833.539909
 21
143.205455
 31
0.0
  0
LINE
  5
3A4
330
39A
100
AcDbEntity
  8
GR1-1
  6
細い実線
 62
     7
100
AcDbLine
 10
844.852516
 20
142.515271
 30
0.0
 11
844.852516
 21
143.205455
 31
0.0
  0
LINE
  5
3A5
330
39A
100
AcDbEntity
  8
GR1-1
  6
細い実線
 62
     7
100
AcDbLine
 10
844.852516
 20
143.205455
 30
0.0
 11
846.140417
 21
142.860363
 31
0.0
  0
LINE
  5
3A6
330
39A
100
AcDbEntity
  8
GR1-1
  6
細い実線
 62
     7
100
AcDbLine
 10
846.140417
 20
142.860363
 30
0.0
 11
844.852516
 21
142.515271
 31
0.0
  0
TEXT
  5
3A7
330
39A
100
AcDbEntity
  8
GR1-1
  6
細い実線
 62
     7
100
AcDbText
 10
835.862826
 20
142.860368
 30
0.0
 40
2.0
  1
４１６．７
 41
0.666667
  7
FX_VECTOR
 72
     5
 11
842.529492
 21
142.860368
 31
0.0
100
AcDbText
  0
ENDBLK
  5
39C
330
39A
100
AcDbEntity
  8
0
100
AcDbBlockEnd
  0
BLOCK
  5
3A9
330
3A8
100
AcDbEntity
  8
0
100
AcDbBlockBegin
  2
BLKF063
 70
     0
 71
     0
 10
0.0
 20
0.0
 30
0.0
  3
BLKF063
  1

  0
LINE
  5
3AC
330
3A8
100
AcDbEntity
  8
GR1-1
  6
細い実線
 62
     7
100
AcDbLine
 10
828.228443
 20
114.555145
 30
0.0
 11
825.354964
 21
104.976883
 31
0.0
  0
LINE
  5
3AD
330
3A8
100
AcDbEntity
  8
GR1-1
  6
細い実線
 62
     7
100
AcDbLine
 10
830.463371
 20
113.884667
 30
0.0
 11
827.589892
 21
104.306404
 31
0.0
  0
LINE
  5
3AE
330
3A8
100
AcDbEntity
  8
GR1-1
  6
細い実線
 62
     7
100
AcDbLine
 10
829.69711
 20
104.370259
 30
0.0
 11
823.630877
 21
106.190129
 31
0.0
  0
LINE
  5
3AF
330
3A8
100
AcDbEntity
  8
GR1-1
  6
細い実線
 62
     7
100
AcDbLine
 10
824.213782
 20
105.654971
 30
0.0
 11
824.412105
 21
106.316047
 31
0.0
  0
LINE
  5
3B0
330
3A8
100
AcDbEntity
  8
GR1-1
  6
細い実線
 62
     7
100
AcDbLine
 10
824.412105
 20
106.316047
 30
0.0
 11
825.546529
 21
105.615433
 31
0.0
  0
LINE
  5
3B1
330
3A8
100
AcDbEntity
  8
GR1-1
  6
細い実線
 62
     7
100
AcDbLine
 10
825.546529
 20
105.615433
 30
0.0
 11
824.213782
 21
105.654971
 31
0.0
  0
LINE
  5
3B2
330
3A8
100
AcDbEntity
  8
GR1-1
  6
細い実線
 62
     7
100
AcDbLine
 10
829.114204
 20
104.905418
 30
0.0
 11
828.915881
 21
104.244341
 31
0.0
  0
LINE
  5
3B3
330
3A8
100
AcDbEntity
  8
GR1-1
  6
細い実線
 62
     7
100
AcDbLine
 10
828.915881
 20
104.244341
 30
0.0
 11
827.781457
 21
104.944955
 31
0.0
  0
LINE
  5
3B4
330
3A8
100
AcDbEntity
  8
GR1-1
  6
細い実線
 62
     7
100
AcDbLine
 10
827.781457
 20
104.944955
 30
0.0
 11
829.114204
 21
104.905418
 31
0.0
  0
TEXT
  5
3B5
330
3A8
100
AcDbEntity
  8
GR1-1
  6
細い実線
 62
     7
100
AcDbText
 10
824.620573
 20
103.109123
 30
0.0
 40
2.0
  1
７０
 50
343.300751
 41
0.666667
  7
FX_VECTOR
 72
     5
 11
827.174776
 21
102.342861
 31
0.0
100
AcDbText
  0
ENDBLK
  5
3AA
330
3A8
100
AcDbEntity
  8
0
100
AcDbBlockEnd
  0
BLOCK
  5
3B7
330
3B6
100
AcDbEntity
  8
0
100
AcDbBlockBegin
  2
BLKF064
 70
     0
 71
     0
 10
0.0
 20
0.0
 30
0.0
  3
BLKF064
  1

  0
LINE
  5
3BA
330
3B6
100
AcDbEntity
  8
GR1-1
  6
細い実線
 62
     7
100
AcDbLine
 10
838.764532
 20
111.394319
 30
0.0
 11
835.891053
 21
101.816056
 31
0.0
  0
LINE
  5
3BB
330
3B6
100
AcDbEntity
  8
GR1-1
  6
細い実線
 62
     7
100
AcDbLine
 10
836.082618
 20
102.454607
 30
0.0
 11
827.781457
 21
104.944955
 31
0.0
  0
LINE
  5
3BC
330
3B6
100
AcDbEntity
  8
GR1-1
  6
細い実線
 62
     7
100
AcDbLine
 10
829.114204
 20
104.905418
 30
0.0
 11
828.915881
 21
104.244341
 31
0.0
  0
LINE
  5
3BD
330
3B6
100
AcDbEntity
  8
GR1-1
  6
細い実線
 62
     7
100
AcDbLine
 10
828.915881
 20
104.244341
 30
0.0
 11
827.781457
 21
104.944955
 31
0.0
  0
LINE
  5
3BE
330
3B6
100
AcDbEntity
  8
GR1-1
  6
細い実線
 62
     7
100
AcDbLine
 10
827.781457
 20
104.944955
 30
0.0
 11
829.114204
 21
104.905418
 31
0.0
  0
LINE
  5
3BF
330
3B6
100
AcDbEntity
  8
GR1-1
  6
細い実線
 62
     7
100
AcDbLine
 10
834.749871
 20
102.494144
 30
0.0
 11
834.948194
 21
103.155221
 31
0.0
  0
LINE
  5
3C0
330
3B6
100
AcDbEntity
  8
GR1-1
  6
細い実線
 62
     7
100
AcDbLine
 10
834.948194
 20
103.155221
 30
0.0
 11
836.082618
 21
102.454607
 31
0.0
  0
LINE
  5
3C1
330
3B6
100
AcDbEntity
  8
GR1-1
  6
細い実線
 62
     7
100
AcDbLine
 10
836.082618
 20
102.454607
 30
0.0
 11
834.749871
 21
102.494144
 31
0.0
  0
TEXT
  5
3C2
330
3B6
100
AcDbEntity
  8
GR1-1
  6
細い実線
 62
     7
100
AcDbText
 10
830.016341
 20
104.274471
 30
0.0
 40
2.0
  1
２６０
 50
343.300751
 41
0.666667
  7
FX_VECTOR
 72
     5
 11
833.847646
 21
103.125079
 31
0.0
100
AcDbText
  0
ENDBLK
  5
3B8
330
3B6
100
AcDbEntity
  8
0
100
AcDbBlockEnd
  0
BLOCK
  5
3C4
330
3C3
100
AcDbEntity
  8
0
100
AcDbBlockBegin
  2
BLKF065
 70
     0
 71
     0
 10
0.0
 20
0.0
 30
0.0
  3
BLKF065
  1

  0
LINE
  5
3C7
330
3C3
100
AcDbEntity
  8
GR1-1
  6
細い実線
 62
     7
100
AcDbLine
 10
840.99946
 20
110.72384
 30
0.0
 11
838.125981
 21
101.145577
 31
0.0
  0
LINE
  5
3C8
330
3C3
100
AcDbEntity
  8
GR1-1
  6
細い実線
 62
     7
100
AcDbLine
 10
840.233199
 20
101.209432
 30
0.0
 11
834.166966
 21
103.029302
 31
0.0
  0
LINE
  5
3C9
330
3C3
100
AcDbEntity
  8
GR1-1
  6
細い実線
 62
     7
100
AcDbLine
 10
834.749871
 20
102.494144
 30
0.0
 11
834.948194
 21
103.155221
 31
0.0
  0
LINE
  5
3CA
330
3C3
100
AcDbEntity
  8
GR1-1
  6
細い実線
 62
     7
100
AcDbLine
 10
834.948194
 20
103.155221
 30
0.0
 11
836.082618
 21
102.454607
 31
0.0
  0
LINE
  5
3CB
330
3C3
100
AcDbEntity
  8
GR1-1
  6
細い実線
 62
     7
100
AcDbLine
 10
836.082618
 20
102.454607
 30
0.0
 11
834.749871
 21
102.494144
 31
0.0
  0
LINE
  5
3CC
330
3C3
100
AcDbEntity
  8
GR1-1
  6
細い実線
 62
     7
100
AcDbLine
 10
839.650293
 20
101.744591
 30
0.0
 11
839.45197
 21
101.083514
 31
0.0
  0
LINE
  5
3CD
330
3C3
100
AcDbEntity
  8
GR1-1
  6
細い実線
 62
     7
100
AcDbLine
 10
839.45197
 20
101.083514
 30
0.0
 11
838.317546
 21
101.784128
 31
0.0
  0
LINE
  5
3CE
330
3C3
100
AcDbEntity
  8
GR1-1
  6
細い実線
 62
     7
100
AcDbLine
 10
838.317546
 20
101.784128
 30
0.0
 11
839.650293
 21
101.744591
 31
0.0
  0
TEXT
  5
3CF
330
3C3
100
AcDbEntity
  8
GR1-1
  6
細い実線
 62
     7
100
AcDbText
 10
835.156706
 20
99.948283
 30
0.0
 40
2.0
  1
７０
 50
343.300751
 41
0.666667
  7
FX_VECTOR
 72
     5
 11
837.710909
 21
99.182022
 31
0.0
100
AcDbText
  0
ENDBLK
  5
3C5
330
3C3
100
AcDbEntity
  8
0
100
AcDbBlockEnd
  0
BLOCK
  5
3D1
330
3D0
100
AcDbEntity
  8
0
100
AcDbBlockBegin
  2
BLKF066
 70
     0
 71
     0
 10
0.0
 20
0.0
 30
0.0
  3
BLKF066
  1

  0
LINE
  5
3D4
330
3D0
100
AcDbEntity
  8
GR1-1
  6
細い実線
 62
     7
100
AcDbLine
 10
828.228443
 20
114.555145
 30
0.0
 11
824.397138
 21
101.784128
 31
0.0
  0
LINE
  5
3D5
330
3D0
100
AcDbEntity
  8
GR1-1
  6
細い実線
 62
     7
100
AcDbLine
 10
840.99946
 20
110.72384
 30
0.0
 11
837.168155
 21
97.952823
 31
0.0
  0
LINE
  5
3D6
330
3D0
100
AcDbEntity
  8
GR1-1
  6
細い実線
 62
     7
100
AcDbLine
 10
837.35972
 20
98.591374
 30
0.0
 11
824.588703
 21
102.422679
 31
0.0
  0
LINE
  5
3D7
330
3D0
100
AcDbEntity
  8
GR1-1
  6
細い実線
 62
     7
100
AcDbLine
 10
825.92145
 20
102.383142
 30
0.0
 11
825.723127
 21
101.722065
 31
0.0
  0
LINE
  5
3D8
330
3D0
100
AcDbEntity
  8
GR1-1
  6
細い実線
 62
     7
100
AcDbLine
 10
825.723127
 20
101.722065
 30
0.0
 11
824.588703
 21
102.422679
 31
0.0
  0
LINE
  5
3D9
330
3D0
100
AcDbEntity
  8
GR1-1
  6
細い実線
 62
     7
100
AcDbLine
 10
824.588703
 20
102.422679
 30
0.0
 11
825.92145
 21
102.383142
 31
0.0
  0
LINE
  5
3DA
330
3D0
100
AcDbEntity
  8
GR1-1
  6
細い実線
 62
     7
100
AcDbLine
 10
836.026973
 20
98.630911
 30
0.0
 11
836.225296
 21
99.291988
 31
0.0
  0
LINE
  5
3DB
330
3D0
100
AcDbEntity
  8
GR1-1
  6
細い実線
 62
     7
100
AcDbLine
 10
836.225296
 20
99.291988
 30
0.0
 11
837.35972
 21
98.591374
 31
0.0
  0
LINE
  5
3DC
330
3D0
100
AcDbEntity
  8
GR1-1
  6
細い実線
 62
     7
100
AcDbLine
 10
837.35972
 20
98.591374
 30
0.0
 11
836.026973
 21
98.630911
 31
0.0
  0
TEXT
  5
3DD
330
3D0
100
AcDbEntity
  8
GR1-1
  6
細い実線
 62
     7
100
AcDbText
 10
829.058529
 20
101.081714
 30
0.0
 40
2.0
  1
４００
 50
343.300751
 41
0.666667
  7
FX_VECTOR
 72
     5
 11
832.889834
 21
99.932322
 31
0.0
100
AcDbText
  0
ENDBLK
  5
3D2
330
3D0
100
AcDbEntity
  8
0
100
AcDbBlockEnd
  0
BLOCK
  5
3DF
330
3DE
100
AcDbEntity
  8
0
100
AcDbBlockBegin
  2
BLKF067
 70
     0
 71
     0
 10
0.0
 20
0.0
 30
0.0
  3
BLKF067
  1

  0
LINE
  5
3E2
330
3DE
100
AcDbEntity
  8
GR1-1
  6
細い実線
 62
     7
100
AcDbLine
 10
842.978968
 20
115.002131
 30
0.0
 11
849.364476
 21
113.086478
 31
0.0
  0
LINE
  5
3E3
330
3DE
100
AcDbEntity
  8
GR1-1
  6
細い実線
 62
     7
100
AcDbLine
 10
843.684886
 20
117.355191
 30
0.0
 11
850.070394
 21
115.439538
 31
0.0
  0
LINE
  5
3E4
330
3DE
100
AcDbEntity
  8
GR1-1
  6
細い実線
 62
     7
100
AcDbLine
 10
850.006539
 20
117.546756
 30
0.0
 11
848.15123
 21
111.362391
 31
0.0
  0
LINE
  5
3E5
330
3DE
100
AcDbEntity
  8
GR1-1
  6
細い実線
 62
     7
100
AcDbLine
 10
848.686388
 20
111.945297
 30
0.0
 11
848.025312
 21
112.14362
 31
0.0
  0
LINE
  5
3E6
330
3DE
100
AcDbEntity
  8
GR1-1
  6
細い実線
 62
     7
100
AcDbLine
 10
848.025312
 20
112.14362
 30
0.0
 11
848.725925
 21
113.278044
 31
0.0
  0
LINE
  5
3E7
330
3DE
100
AcDbEntity
  8
GR1-1
  6
細い実線
 62
     7
100
AcDbLine
 10
848.725925
 20
113.278044
 30
0.0
 11
848.686388
 21
111.945297
 31
0.0
  0
LINE
  5
3E8
330
3DE
100
AcDbEntity
  8
GR1-1
  6
細い実線
 62
     7
100
AcDbLine
 10
849.471381
 20
116.963851
 30
0.0
 11
850.132457
 21
116.765528
 31
0.0
  0
LINE
  5
3E9
330
3DE
100
AcDbEntity
  8
GR1-1
  6
細い実線
 62
     7
100
AcDbLine
 10
850.132457
 20
116.765528
 30
0.0
 11
849.431843
 21
115.631104
 31
0.0
  0
LINE
  5
3EA
330
3DE
100
AcDbEntity
  8
GR1-1
  6
細い実線
 62
     7
100
AcDbLine
 10
849.431843
 20
115.631104
 30
0.0
 11
849.471381
 21
116.963851
 31
0.0
  0
TEXT
  5
3EB
330
3DE
100
AcDbEntity
  8
GR1-1
  6
細い実線
 62
     7
100
AcDbText
 10
850.786914
 20
109.776359
 30
0.0
 40
2.0
  1
７３．７
 50
73.300758
 41
0.666667
  7
FX_VECTOR
 72
     5
 11
852.319436
 21
114.884766
 31
0.0
100
AcDbText
  0
ENDBLK
  5
3E0
330
3DE
100
AcDbEntity
  8
0
100
AcDbBlockEnd
  0
BLOCK
  5
3ED
330
3EC
100
AcDbEntity
  8
0
100
AcDbBlockBegin
  2
BLKF068
 70
     0
 71
     0
 10
0.0
 20
0.0
 30
0.0
  3
BLKF068
  1

  0
LINE
  5
3F0
330
3EC
100
AcDbEntity
  8
GR1-1
  6
細い実線
 62
     7
100
AcDbLine
 10
845.121625
 20
122.144322
 30
0.0
 11
851.507134
 21
120.22867
 31
0.0
  0
LINE
  5
3F1
330
3EC
100
AcDbEntity
  8
GR1-1
  6
細い実線
 62
     7
100
AcDbLine
 10
850.868583
 20
120.420235
 30
0.0
 11
849.431843
 21
115.631104
 31
0.0
  0
LINE
  5
3F2
330
3EC
100
AcDbEntity
  8
GR1-1
  6
細い実線
 62
     7
100
AcDbLine
 10
849.471381
 20
116.963851
 30
0.0
 11
850.132457
 21
116.765528
 31
0.0
  0
LINE
  5
3F3
330
3EC
100
AcDbEntity
  8
GR1-1
  6
細い実線
 62
     7
100
AcDbLine
 10
850.132457
 20
116.765528
 30
0.0
 11
849.431843
 21
115.631104
 31
0.0
  0
LINE
  5
3F4
330
3EC
100
AcDbEntity
  8
GR1-1
  6
細い実線
 62
     7
100
AcDbLine
 10
849.431843
 20
115.631104
 30
0.0
 11
849.471381
 21
116.963851
 31
0.0
  0
LINE
  5
3F5
330
3EC
100
AcDbEntity
  8
GR1-1
  6
細い実線
 62
     7
100
AcDbLine
 10
850.829045
 20
119.087488
 30
0.0
 11
850.167969
 21
119.285811
 31
0.0
  0
LINE
  5
3F6
330
3EC
100
AcDbEntity
  8
GR1-1
  6
細い実線
 62
     7
100
AcDbLine
 10
850.167969
 20
119.285811
 30
0.0
 11
850.868583
 21
120.420235
 31
0.0
  0
LINE
  5
3F7
330
3EC
100
AcDbEntity
  8
GR1-1
  6
細い実線
 62
     7
100
AcDbLine
 10
850.868583
 20
120.420235
 30
0.0
 11
850.829045
 21
119.087488
 31
0.0
  0
TEXT
  5
3F8
330
3EC
100
AcDbEntity
  8
GR1-1
  6
細い実線
 62
     7
100
AcDbText
 10
849.575456
 20
116.110018
 30
0.0
 40
2.0
  1
１５０
 50
73.300758
 41
0.666667
  7
FX_VECTOR
 72
     5
 11
850.724847
 21
119.941323
 31
0.0
100
AcDbText
  0
ENDBLK
  5
3EE
330
3EC
100
AcDbEntity
  8
0
100
AcDbBlockEnd
  0
BLOCK
  5
3FA
330
3F9
100
AcDbEntity
  8
0
100
AcDbBlockBegin
  2
BLKF069
 70
     0
 71
     0
 10
0.0
 20
0.0
 30
0.0
  3
BLKF069
  1

  0
LINE
  5
3FD
330
3F9
100
AcDbEntity
  8
GR1-1
  6
細い実線
 62
     7
100
AcDbLine
 10
828.228443
 20
114.555145
 30
0.0
 11
826.31279
 21
108.169637
 31
0.0
  0
LINE
  5
3FE
330
3F9
100
AcDbEntity
  8
GR1-1
  6
細い実線
 62
     7
100
AcDbLine
 10
829.505545
 20
114.172015
 30
0.0
 11
827.589892
 21
107.786506
 31
0.0
  0
LINE
  5
3FF
330
3F9
100
AcDbEntity
  8
GR1-1
  6
細い実線
 62
     7
100
AcDbLine
 10
829.69711
 20
107.850361
 30
0.0
 11
824.588703
 21
109.382883
 31
0.0
  0
LINE
  5
400
330
3F9
100
AcDbEntity
  8
GR1-1
  6
細い実線
 62
     7
100
AcDbLine
 10
825.171609
 20
108.847725
 30
0.0
 11
825.369932
 21
109.508802
 31
0.0
  0
LINE
  5
401
330
3F9
100
AcDbEntity
  8
GR1-1
  6
細い実線
 62
     7
100
AcDbLine
 10
825.369932
 20
109.508802
 30
0.0
 11
826.504356
 21
108.808188
 31
0.0
  0
LINE
  5
402
330
3F9
100
AcDbEntity
  8
GR1-1
  6
細い実線
 62
     7
100
AcDbLine
 10
826.504356
 20
108.808188
 30
0.0
 11
825.171609
 21
108.847725
 31
0.0
  0
LINE
  5
403
330
3F9
100
AcDbEntity
  8
GR1-1
  6
細い実線
 62
     7
100
AcDbLine
 10
829.114204
 20
108.38552
 30
0.0
 11
828.915881
 21
107.724443
 31
0.0
  0
LINE
  5
404
330
3F9
100
AcDbEntity
  8
GR1-1
  6
細い実線
 62
     7
100
AcDbLine
 10
828.915881
 20
107.724443
 30
0.0
 11
827.781457
 21
108.425057
 31
0.0
  0
LINE
  5
405
330
3F9
100
AcDbEntity
  8
GR1-1
  6
細い実線
 62
     7
100
AcDbLine
 10
827.781457
 20
108.425057
 30
0.0
 11
829.114204
 21
108.38552
 31
0.0
  0
TEXT
  5
406
330
3F9
100
AcDbEntity
  8
GR1-1
  6
細い実線
 62
     7
100
AcDbText
 10
825.099479
 20
106.445549
 30
0.0
 40
2.0
  1
４０
 50
343.300751
 41
0.666667
  7
FX_VECTOR
 72
     5
 11
827.653683
 21
105.679287
 31
0.0
100
AcDbText
  0
ENDBLK
  5
3FB
330
3F9
100
AcDbEntity
  8
0
100
AcDbBlockEnd
  0
BLOCK
  5
408
330
407
100
AcDbEntity
  8
0
100
AcDbBlockBegin
  2
BLKF070
 70
     0
 71
     0
 10
0.0
 20
0.0
 30
0.0
  3
BLKF070
  1

  0
LINE
  5
40B
330
407
100
AcDbEntity
  8
GR1-1
  6
細い実線
 62
     7
100
AcDbLine
 10
839.722358
 20
111.106971
 30
0.0
 11
837.806706
 21
104.721462
 31
0.0
  0
LINE
  5
40C
330
407
100
AcDbEntity
  8
GR1-1
  6
細い実線
 62
     7
100
AcDbLine
 10
840.99946
 20
110.72384
 30
0.0
 11
839.083807
 21
104.338332
 31
0.0
  0
LINE
  5
40D
330
407
100
AcDbEntity
  8
GR1-1
  6
細い実線
 62
     7
100
AcDbLine
 10
841.191025
 20
104.402187
 30
0.0
 11
836.082618
 21
105.934709
 31
0.0
  0
LINE
  5
40E
330
407
100
AcDbEntity
  8
GR1-1
  6
細い実線
 62
     7
100
AcDbLine
 10
836.665524
 20
105.39955
 30
0.0
 11
836.863847
 21
106.060627
 31
0.0
  0
LINE
  5
40F
330
407
100
AcDbEntity
  8
GR1-1
  6
細い実線
 62
     7
100
AcDbLine
 10
836.863847
 20
106.060627
 30
0.0
 11
837.998271
 21
105.360013
 31
0.0
  0
LINE
  5
410
330
407
100
AcDbEntity
  8
GR1-1
  6
細い実線
 62
     7
100
AcDbLine
 10
837.998271
 20
105.360013
 30
0.0
 11
836.665524
 21
105.39955
 31
0.0
  0
LINE
  5
411
330
407
100
AcDbEntity
  8
GR1-1
  6
細い実線
 62
     7
100
AcDbLine
 10
840.60812
 20
104.937345
 30
0.0
 11
840.409797
 21
104.276269
 31
0.0
  0
LINE
  5
412
330
407
100
AcDbEntity
  8
GR1-1
  6
細い実線
 62
     7
100
AcDbLine
 10
840.409797
 20
104.276269
 30
0.0
 11
839.275373
 21
104.976883
 31
0.0
  0
LINE
  5
413
330
407
100
AcDbEntity
  8
GR1-1
  6
細い実線
 62
     7
100
AcDbLine
 10
839.275373
 20
104.976883
 30
0.0
 11
840.60812
 21
104.937345
 31
0.0
  0
TEXT
  5
414
330
407
100
AcDbEntity
  8
GR1-1
  6
細い実線
 62
     7
100
AcDbText
 10
836.593424
 20
102.997371
 30
0.0
 40
2.0
  1
４０
 50
343.300751
 41
0.666667
  7
FX_VECTOR
 72
     5
 11
839.147628
 21
102.23111
 31
0.0
100
AcDbText
  0
ENDBLK
  5
409
330
407
100
AcDbEntity
  8
0
100
AcDbBlockEnd
  0
BLOCK
  5
416
330
415
100
AcDbEntity
  8
0
100
AcDbBlockBegin
  2
BLKF071
 70
     0
 71
     0
 10
0.0
 20
0.0
 30
0.0
  3
BLKF071
  1

  0
LINE
  5
419
330
415
100
AcDbEntity
  8
GR1-1
  6
細い実線
 62
     7
100
AcDbLine
 10
832.219386
 20
113.357862
 30
0.0
 11
831.261559
 21
110.165108
 31
0.0
  0
LINE
  5
41A
330
415
100
AcDbEntity
  8
GR1-1
  6
細い実線
 62
     7
100
AcDbLine
 10
837.008517
 20
111.921123
 30
0.0
 11
836.050691
 21
108.728369
 31
0.0
  0
LINE
  5
41B
330
415
100
AcDbEntity
  8
GR1-1
  6
細い実線
 62
     7
100
AcDbLine
 10
836.242256
 20
109.36692
 30
0.0
 11
831.453125
 21
110.803659
 31
0.0
  0
LINE
  5
41C
330
415
100
AcDbEntity
  8
GR1-1
  6
細い実線
 62
     7
100
AcDbLine
 10
832.785872
 20
110.764122
 30
0.0
 11
832.587549
 21
110.103045
 31
0.0
  0
LINE
  5
41D
330
415
100
AcDbEntity
  8
GR1-1
  6
細い実線
 62
     7
100
AcDbLine
 10
832.587549
 20
110.103045
 30
0.0
 11
831.453125
 21
110.803659
 31
0.0
  0
LINE
  5
41E
330
415
100
AcDbEntity
  8
GR1-1
  6
細い実線
 62
     7
100
AcDbLine
 10
831.453125
 20
110.803659
 30
0.0
 11
832.785872
 21
110.764122
 31
0.0
  0
LINE
  5
41F
330
415
100
AcDbEntity
  8
GR1-1
  6
細い実線
 62
     7
100
AcDbLine
 10
834.909509
 20
109.406457
 30
0.0
 11
835.107832
 21
110.067534
 31
0.0
  0
LINE
  5
420
330
415
100
AcDbEntity
  8
GR1-1
  6
細い実線
 62
     7
100
AcDbLine
 10
835.107832
 20
110.067534
 30
0.0
 11
836.242256
 21
109.36692
 31
0.0
  0
LINE
  5
421
330
415
100
AcDbEntity
  8
GR1-1
  6
細い実線
 62
     7
100
AcDbLine
 10
836.242256
 20
109.36692
 30
0.0
 11
834.909509
 21
109.406457
 31
0.0
  0
TEXT
  5
422
330
415
100
AcDbEntity
  8
GR1-1
  6
細い実線
 62
     7
100
AcDbText
 10
831.931966
 20
110.659985
 30
0.0
 40
2.0
  1
１５０
 50
343.300751
 41
0.666667
  7
FX_VECTOR
 72
     5
 11
835.763271
 21
109.510593
 31
0.0
100
AcDbText
  0
ENDBLK
  5
417
330
415
100
AcDbEntity
  8
0
100
AcDbBlockEnd
  0
BLOCK
  5
426
330
425
100
AcDbEntity
  8
0
100
AcDbBlockBegin
  2
BLKF072
 70
     0
 71
     0
 10
0.0
 20
0.0
 30
0.0
  3
BLKF072
  1

  0
LINE
  5
429
330
425
100
AcDbEntity
  8
GR1-1
  6
細い実線
 62
     7
100
AcDbLine
 10
835.55919
 20
133.52703
 30
0.0
 11
835.55919
 21
136.860363
 31
0.0
  0
LINE
  5
42A
330
425
100
AcDbEntity
  8
GR1-1
  6
細い実線
 62
     7
100
AcDbLine
 10
839.956119
 20
133.52703
 30
0.0
 11
839.956119
 21
136.860363
 31
0.0
  0
LINE
  5
42B
330
425
100
AcDbEntity
  8
GR1-1
  6
細い実線
 62
     7
100
AcDbLine
 10
839.956119
 20
136.193696
 30
0.0
 11
835.55919
 21
136.193696
 31
0.0
  0
LINE
  5
42C
330
425
100
AcDbEntity
  8
GR1-1
  6
細い実線
 62
     7
100
AcDbLine
 10
836.847091
 20
136.538788
 30
0.0
 11
836.847091
 21
135.848604
 31
0.0
  0
LINE
  5
42D
330
425
100
AcDbEntity
  8
GR1-1
  6
細い実線
 62
     7
100
AcDbLine
 10
836.847091
 20
135.848604
 30
0.0
 11
835.55919
 21
136.193696
 31
0.0
  0
LINE
  5
42E
330
425
100
AcDbEntity
  8
GR1-1
  6
細い実線
 62
     7
100
AcDbLine
 10
835.55919
 20
136.193696
 30
0.0
 11
836.847091
 21
136.538788
 31
0.0
  0
LINE
  5
42F
330
425
100
AcDbEntity
  8
GR1-1
  6
細い実線
 62
     7
100
AcDbLine
 10
838.668218
 20
135.848604
 30
0.0
 11
838.668218
 21
136.538788
 31
0.0
  0
LINE
  5
430
330
425
100
AcDbEntity
  8
GR1-1
  6
細い実線
 62
     7
100
AcDbLine
 10
838.668218
 20
136.538788
 30
0.0
 11
839.956119
 21
136.193696
 31
0.0
  0
LINE
  5
431
330
425
100
AcDbEntity
  8
GR1-1
  6
細い実線
 62
     7
100
AcDbLine
 10
839.956119
 20
136.193696
 30
0.0
 11
838.668218
 21
135.848604
 31
0.0
  0
TEXT
  5
432
330
425
100
AcDbEntity
  8
GR1-1
  6
細い実線
 62
     7
100
AcDbText
 10
834.424284
 20
136.860368
 30
0.0
 40
2.0
  1
１３１．９
 41
0.666667
  7
FX_VECTOR
 72
     5
 11
841.090951
 21
136.860368
 31
0.0
100
AcDbText
  0
ENDBLK
  5
427
330
425
100
AcDbEntity
  8
0
100
AcDbBlockEnd
  0
BLOCK
  5
43B
330
43A
100
AcDbEntity
  8
0
100
AcDbBlockBegin
  2
BLKF073
 70
     0
 71
     0
 10
0.0
 20
0.0
 30
0.0
  3
BLKF073
  1

  0
LINE
  5
43E
330
43A
100
AcDbEntity
  8
GR1-1
  6
細い実線
 62
     7
100
AcDbLine
 10
827.753341
 20
115.193696
 30
0.0
 11
817.753341
 21
115.193696
 31
0.0
  0
LINE
  5
43F
330
43A
100
AcDbEntity
  8
GR1-1
  6
細い実線
 62
     7
100
AcDbLine
 10
829.753341
 20
121.860363
 30
0.0
 11
817.753341
 21
121.860363
 31
0.0
  0
LINE
  5
440
330
43A
100
AcDbEntity
  8
GR1-1
  6
細い実線
 62
     7
100
AcDbLine
 10
818.420008
 20
121.860363
 30
0.0
 11
818.420008
 21
115.193696
 31
0.0
  0
LINE
  5
441
330
43A
100
AcDbEntity
  8
GR1-1
  6
細い実線
 62
     7
100
AcDbLine
 10
818.074916
 20
116.481597
 30
0.0
 11
818.7651
 21
116.481597
 31
0.0
  0
LINE
  5
442
330
43A
100
AcDbEntity
  8
GR1-1
  6
細い実線
 62
     7
100
AcDbLine
 10
818.7651
 20
116.481597
 30
0.0
 11
818.420008
 21
115.193696
 31
0.0
  0
LINE
  5
443
330
43A
100
AcDbEntity
  8
GR1-1
  6
細い実線
 62
     7
100
AcDbLine
 10
818.420008
 20
115.193696
 30
0.0
 11
818.074916
 21
116.481597
 31
0.0
  0
LINE
  5
444
330
43A
100
AcDbEntity
  8
GR1-1
  6
細い実線
 62
     7
100
AcDbLine
 10
818.7651
 20
120.572462
 30
0.0
 11
818.074916
 21
120.572462
 31
0.0
  0
LINE
  5
445
330
43A
100
AcDbEntity
  8
GR1-1
  6
細い実線
 62
     7
100
AcDbLine
 10
818.074916
 20
120.572462
 30
0.0
 11
818.420008
 21
121.860363
 31
0.0
  0
LINE
  5
446
330
43A
100
AcDbEntity
  8
GR1-1
  6
細い実線
 62
     7
100
AcDbLine
 10
818.420008
 20
121.860363
 30
0.0
 11
818.7651
 21
120.572462
 31
0.0
  0
TEXT
  5
447
330
43A
100
AcDbEntity
  8
GR1-1
  6
細い実線
 62
     7
100
AcDbText
 10
818.419987
 20
116.527026
 30
0.0
 40
2.0
  1
２００
 50
90.0
 41
0.666667
  7
FX_VECTOR
 72
     5
 11
818.419987
 21
120.527026
 31
0.0
100
AcDbText
  0
ENDBLK
  5
43C
330
43A
100
AcDbEntity
  8
0
100
AcDbBlockEnd
  0
BLOCK
  5
449
330
448
100
AcDbEntity
  8
0
100
AcDbBlockBegin
  2
BLKF074
 70
     0
 71
     0
 10
0.0
 20
0.0
 30
0.0
  3
BLKF074
  1

  0
LINE
  5
44C
330
448
100
AcDbEntity
  8
GR1-1
  6
細い実線
 62
     7
100
AcDbLine
 10
829.753341
 20
121.860363
 30
0.0
 11
817.753341
 21
121.860363
 31
0.0
  0
LINE
  5
44D
330
448
100
AcDbEntity
  8
GR1-1
  6
細い実線
 62
     7
100
AcDbLine
 10
831.585341
 20
127.96703
 30
0.0
 11
817.753341
 21
127.96703
 31
0.0
  0
LINE
  5
44E
330
448
100
AcDbEntity
  8
GR1-1
  6
細い実線
 62
     7
100
AcDbLine
 10
818.420008
 20
127.96703
 30
0.0
 11
818.420008
 21
121.860363
 31
0.0
  0
LINE
  5
44F
330
448
100
AcDbEntity
  8
GR1-1
  6
細い実線
 62
     7
100
AcDbLine
 10
818.074916
 20
123.148264
 30
0.0
 11
818.7651
 21
123.148264
 31
0.0
  0
LINE
  5
450
330
448
100
AcDbEntity
  8
GR1-1
  6
細い実線
 62
     7
100
AcDbLine
 10
818.7651
 20
123.148264
 30
0.0
 11
818.420008
 21
121.860363
 31
0.0
  0
LINE
  5
451
330
448
100
AcDbEntity
  8
GR1-1
  6
細い実線
 62
     7
100
AcDbLine
 10
818.420008
 20
121.860363
 30
0.0
 11
818.074916
 21
123.148264
 31
0.0
  0
LINE
  5
452
330
448
100
AcDbEntity
  8
GR1-1
  6
細い実線
 62
     7
100
AcDbLine
 10
818.7651
 20
126.679128
 30
0.0
 11
818.074916
 21
126.679128
 31
0.0
  0
LINE
  5
453
330
448
100
AcDbEntity
  8
GR1-1
  6
細い実線
 62
     7
100
AcDbLine
 10
818.074916
 20
126.679128
 30
0.0
 11
818.420008
 21
127.96703
 31
0.0
  0
LINE
  5
454
330
448
100
AcDbEntity
  8
GR1-1
  6
細い実線
 62
     7
100
AcDbLine
 10
818.420008
 20
127.96703
 30
0.0
 11
818.7651
 21
126.679128
 31
0.0
  0
TEXT
  5
455
330
448
100
AcDbEntity
  8
GR1-1
  6
細い実線
 62
     7
100
AcDbText
 10
818.419987
 20
121.580363
 30
0.0
 40
2.0
  1
１８３．２
 50
90.0
 41
0.666667
  7
FX_VECTOR
 72
     5
 11
818.419987
 21
128.24703
 31
0.0
100
AcDbText
  0
ENDBLK
  5
44A
330
448
100
AcDbEntity
  8
0
100
AcDbBlockEnd
  0
BLOCK
  5
457
330
456
100
AcDbEntity
  8
0
100
AcDbBlockBegin
  2
BLKF075
 70
     0
 71
     0
 10
0.0
 20
0.0
 30
0.0
  3
BLKF075
  1

  0
LINE
  5
45A
330
456
100
AcDbEntity
  8
GR1-1
  6
細い実線
 62
     7
100
AcDbLine
 10
831.585341
 20
127.96703
 30
0.0
 11
817.753341
 21
127.96703
 31
0.0
  0
LINE
  5
45B
330
456
100
AcDbEntity
  8
GR1-1
  6
細い実線
 62
     7
100
AcDbLine
 10
834.922773
 20
131.300363
 30
0.0
 11
817.753341
 21
131.300363
 31
0.0
  0
LINE
  5
45C
330
456
100
AcDbEntity
  8
GR1-1
  6
細い実線
 62
     7
100
AcDbLine
 10
818.420008
 20
131.300363
 30
0.0
 11
818.420008
 21
127.96703
 31
0.0
  0
LINE
  5
45D
330
456
100
AcDbEntity
  8
GR1-1
  6
細い実線
 62
     7
100
AcDbLine
 10
818.074916
 20
129.254931
 30
0.0
 11
818.7651
 21
129.254931
 31
0.0
  0
LINE
  5
45E
330
456
100
AcDbEntity
  8
GR1-1
  6
細い実線
 62
     7
100
AcDbLine
 10
818.7651
 20
129.254931
 30
0.0
 11
818.420008
 21
127.96703
 31
0.0
  0
LINE
  5
45F
330
456
100
AcDbEntity
  8
GR1-1
  6
細い実線
 62
     7
100
AcDbLine
 10
818.420008
 20
127.96703
 30
0.0
 11
818.074916
 21
129.254931
 31
0.0
  0
LINE
  5
460
330
456
100
AcDbEntity
  8
GR1-1
  6
細い実線
 62
     7
100
AcDbLine
 10
818.7651
 20
130.012462
 30
0.0
 11
818.074916
 21
130.012462
 31
0.0
  0
LINE
  5
461
330
456
100
AcDbEntity
  8
GR1-1
  6
細い実線
 62
     7
100
AcDbLine
 10
818.074916
 20
130.012462
 30
0.0
 11
818.420008
 21
131.300363
 31
0.0
  0
LINE
  5
462
330
456
100
AcDbEntity
  8
GR1-1
  6
細い実線
 62
     7
100
AcDbLine
 10
818.420008
 20
131.300363
 30
0.0
 11
818.7651
 21
130.012462
 31
0.0
  0
TEXT
  5
463
330
456
100
AcDbEntity
  8
GR1-1
  6
細い実線
 62
     7
100
AcDbText
 10
817.897135
 20
128.352938
 30
0.0
 40
2.0
  1
１００
 50
90.0
 41
0.666667
  7
FX_VECTOR
 72
     5
 11
817.897135
 21
132.352938
 31
0.0
100
AcDbText
  0
ENDBLK
  5
458
330
456
100
AcDbEntity
  8
0
100
AcDbBlockEnd
  0
BLOCK
  5
465
330
464
100
AcDbEntity
  8
0
100
AcDbBlockBegin
  2
BLKF076
 70
     0
 71
     0
 10
0.0
 20
0.0
 30
0.0
  3
BLKF076
  1

  0
LINE
  5
468
330
464
100
AcDbEntity
  8
GR1-1
  6
細い実線
 62
     7
100
AcDbLine
 10
827.753341
 20
115.193696
 30
0.0
 11
814.420008
 21
115.193696
 31
0.0
  0
LINE
  5
469
330
464
100
AcDbEntity
  8
GR1-1
  6
細い実線
 62
     7
100
AcDbLine
 10
831.585341
 20
127.96703
 30
0.0
 11
814.420008
 21
127.96703
 31
0.0
  0
LINE
  5
46A
330
464
100
AcDbEntity
  8
GR1-1
  6
細い実線
 62
     7
100
AcDbLine
 10
815.086675
 20
127.96703
 30
0.0
 11
815.086675
 21
115.193696
 31
0.0
  0
LINE
  5
46B
330
464
100
AcDbEntity
  8
GR1-1
  6
細い実線
 62
     7
100
AcDbLine
 10
814.741583
 20
116.481597
 30
0.0
 11
815.431767
 21
116.481597
 31
0.0
  0
LINE
  5
46C
330
464
100
AcDbEntity
  8
GR1-1
  6
細い実線
 62
     7
100
AcDbLine
 10
815.431767
 20
116.481597
 30
0.0
 11
815.086675
 21
115.193696
 31
0.0
  0
LINE
  5
46D
330
464
100
AcDbEntity
  8
GR1-1
  6
細い実線
 62
     7
100
AcDbLine
 10
815.086675
 20
115.193696
 30
0.0
 11
814.741583
 21
116.481597
 31
0.0
  0
LINE
  5
46E
330
464
100
AcDbEntity
  8
GR1-1
  6
細い実線
 62
     7
100
AcDbLine
 10
815.431767
 20
126.679128
 30
0.0
 11
814.741583
 21
126.679128
 31
0.0
  0
LINE
  5
46F
330
464
100
AcDbEntity
  8
GR1-1
  6
細い実線
 62
     7
100
AcDbLine
 10
814.741583
 20
126.679128
 30
0.0
 11
815.086675
 21
127.96703
 31
0.0
  0
LINE
  5
470
330
464
100
AcDbEntity
  8
GR1-1
  6
細い実線
 62
     7
100
AcDbLine
 10
815.086675
 20
127.96703
 30
0.0
 11
815.431767
 21
126.679128
 31
0.0
  0
TEXT
  5
471
330
464
100
AcDbEntity
  8
GR1-1
  6
細い実線
 62
     7
100
AcDbText
 10
815.086654
 20
118.24703
 30
0.0
 40
2.0
  1
３８３．２
 50
90.0
 41
0.666667
  7
FX_VECTOR
 72
     5
 11
815.086654
 21
124.913696
 31
0.0
100
AcDbText
  0
ENDBLK
  5
466
330
464
100
AcDbEntity
  8
0
100
AcDbBlockEnd
  0
BLOCK
  5
473
330
472
100
AcDbEntity
  8
0
100
AcDbBlockBegin
  2
BLKF077
 70
     0
 71
     0
 10
0.0
 20
0.0
 30
0.0
  3
BLKF077
  1

  0
LINE
  5
476
330
472
100
AcDbEntity
  8
GR1-1
  6
細い実線
 62
     7
100
AcDbLine
 10
840.622785
 20
131.300363
 30
0.0
 11
856.807084
 21
131.300363
 31
0.0
  0
LINE
  5
477
330
472
100
AcDbEntity
  8
GR1-1
  6
細い実線
 62
     7
100
AcDbLine
 10
846.807084
 20
127.860363
 30
0.0
 11
856.807084
 21
127.860363
 31
0.0
  0
LINE
  5
478
330
472
100
AcDbEntity
  8
GR1-1
  6
細い実線
 62
     7
100
AcDbLine
 10
856.140417
 20
127.860363
 30
0.0
 11
856.140417
 21
131.300363
 31
0.0
  0
LINE
  5
479
330
472
100
AcDbEntity
  8
GR1-1
  6
細い実線
 62
     7
100
AcDbLine
 10
856.485509
 20
130.012462
 30
0.0
 11
855.795325
 21
130.012462
 31
0.0
  0
LINE
  5
47A
330
472
100
AcDbEntity
  8
GR1-1
  6
細い実線
 62
     7
100
AcDbLine
 10
855.795325
 20
130.012462
 30
0.0
 11
856.140417
 21
131.300363
 31
0.0
  0
LINE
  5
47B
330
472
100
AcDbEntity
  8
GR1-1
  6
細い実線
 62
     7
100
AcDbLine
 10
856.140417
 20
131.300363
 30
0.0
 11
856.485509
 21
130.012462
 31
0.0
  0
LINE
  5
47C
330
472
100
AcDbEntity
  8
GR1-1
  6
細い実線
 62
     7
100
AcDbLine
 10
855.795325
 20
129.148264
 30
0.0
 11
856.485509
 21
129.148264
 31
0.0
  0
LINE
  5
47D
330
472
100
AcDbEntity
  8
GR1-1
  6
細い実線
 62
     7
100
AcDbLine
 10
856.485509
 20
129.148264
 30
0.0
 11
856.140417
 21
127.860363
 31
0.0
  0
LINE
  5
47E
330
472
100
AcDbEntity
  8
GR1-1
  6
細い実線
 62
     7
100
AcDbLine
 10
856.140417
 20
127.860363
 30
0.0
 11
855.795325
 21
129.148264
 31
0.0
  0
TEXT
  5
47F
330
472
100
AcDbEntity
  8
GR1-1
  6
細い実線
 62
     7
100
AcDbText
 10
859.196549
 20
127.693791
 30
0.0
 40
2.0
  1
１０３．２
 50
90.0
 41
0.666667
  7
FX_VECTOR
 72
     5
 11
859.196549
 21
134.360457
 31
0.0
100
AcDbText
  0
ENDBLK
  5
474
330
472
100
AcDbEntity
  8
0
100
AcDbBlockEnd
  0
BLOCK
  5
481
330
480
100
AcDbEntity
  8
0
100
AcDbBlockBegin
  2
BLKF078
 70
     0
 71
     0
 10
0.0
 20
0.0
 30
0.0
  3
BLKF078
  1

  0
LINE
  5
484
330
480
100
AcDbEntity
  8
GR1-1
  6
細い実線
 62
     7
100
AcDbLine
 10
846.807084
 20
127.860363
 30
0.0
 11
856.807084
 21
127.860363
 31
0.0
  0
LINE
  5
485
330
480
100
AcDbEntity
  8
GR1-1
  6
細い実線
 62
     7
100
AcDbLine
 10
845.007084
 20
121.860363
 30
0.0
 11
856.807084
 21
121.860363
 31
0.0
  0
LINE
  5
486
330
480
100
AcDbEntity
  8
GR1-1
  6
細い実線
 62
     7
100
AcDbLine
 10
856.140417
 20
121.860363
 30
0.0
 11
856.140417
 21
127.860363
 31
0.0
  0
LINE
  5
487
330
480
100
AcDbEntity
  8
GR1-1
  6
細い実線
 62
     7
100
AcDbLine
 10
856.485509
 20
126.572462
 30
0.0
 11
855.795325
 21
126.572462
 31
0.0
  0
LINE
  5
488
330
480
100
AcDbEntity
  8
GR1-1
  6
細い実線
 62
     7
100
AcDbLine
 10
855.795325
 20
126.572462
 30
0.0
 11
856.140417
 21
127.860363
 31
0.0
  0
LINE
  5
489
330
480
100
AcDbEntity
  8
GR1-1
  6
細い実線
 62
     7
100
AcDbLine
 10
856.140417
 20
127.860363
 30
0.0
 11
856.485509
 21
126.572462
 31
0.0
  0
LINE
  5
48A
330
480
100
AcDbEntity
  8
GR1-1
  6
細い実線
 62
     7
100
AcDbLine
 10
855.795325
 20
123.148264
 30
0.0
 11
856.485509
 21
123.148264
 31
0.0
  0
LINE
  5
48B
330
480
100
AcDbEntity
  8
GR1-1
  6
細い実線
 62
     7
100
AcDbLine
 10
856.485509
 20
123.148264
 30
0.0
 11
856.140417
 21
121.860363
 31
0.0
  0
LINE
  5
48C
330
480
100
AcDbEntity
  8
GR1-1
  6
細い実線
 62
     7
100
AcDbLine
 10
856.140417
 20
121.860363
 30
0.0
 11
855.795325
 21
123.148264
 31
0.0
  0
TEXT
  5
48D
330
480
100
AcDbEntity
  8
GR1-1
  6
細い実線
 62
     7
100
AcDbText
 10
856.140365
 20
122.86036
 30
0.0
 40
2.0
  1
１８０
 50
90.0
 41
0.666667
  7
FX_VECTOR
 72
     5
 11
856.140365
 21
126.86036
 31
0.0
100
AcDbText
  0
ENDBLK
  5
482
330
480
100
AcDbEntity
  8
0
100
AcDbBlockEnd
  0
BLOCK
  5
48F
330
48E
100
AcDbEntity
  8
0
100
AcDbBlockBegin
  2
BLKF079
 70
     0
 71
     0
 10
0.0
 20
0.0
 30
0.0
  3
BLKF079
  1

  0
LINE
  5
492
330
48E
100
AcDbEntity
  8
GR1-1
  6
細い実線
 62
     7
100
AcDbLine
 10
845.007084
 20
121.860363
 30
0.0
 11
856.807084
 21
121.860363
 31
0.0
  0
LINE
  5
493
330
48E
100
AcDbEntity
  8
GR1-1
  6
細い実線
 62
     7
100
AcDbLine
 10
843.007084
 20
115.193696
 30
0.0
 11
856.807084
 21
115.193696
 31
0.0
  0
LINE
  5
494
330
48E
100
AcDbEntity
  8
GR1-1
  6
細い実線
 62
     7
100
AcDbLine
 10
856.140417
 20
115.193696
 30
0.0
 11
856.140417
 21
121.860363
 31
0.0
  0
LINE
  5
495
330
48E
100
AcDbEntity
  8
GR1-1
  6
細い実線
 62
     7
100
AcDbLine
 10
856.485509
 20
120.572462
 30
0.0
 11
855.795325
 21
120.572462
 31
0.0
  0
LINE
  5
496
330
48E
100
AcDbEntity
  8
GR1-1
  6
細い実線
 62
     7
100
AcDbLine
 10
855.795325
 20
120.572462
 30
0.0
 11
856.140417
 21
121.860363
 31
0.0
  0
LINE
  5
497
330
48E
100
AcDbEntity
  8
GR1-1
  6
細い実線
 62
     7
100
AcDbLine
 10
856.140417
 20
121.860363
 30
0.0
 11
856.485509
 21
120.572462
 31
0.0
  0
LINE
  5
498
330
48E
100
AcDbEntity
  8
GR1-1
  6
細い実線
 62
     7
100
AcDbLine
 10
855.795325
 20
116.481597
 30
0.0
 11
856.485509
 21
116.481597
 31
0.0
  0
LINE
  5
499
330
48E
100
AcDbEntity
  8
GR1-1
  6
細い実線
 62
     7
100
AcDbLine
 10
856.485509
 20
116.481597
 30
0.0
 11
856.140417
 21
115.193696
 31
0.0
  0
LINE
  5
49A
330
48E
100
AcDbEntity
  8
GR1-1
  6
細い実線
 62
     7
100
AcDbLine
 10
856.140417
 20
115.193696
 30
0.0
 11
855.795325
 21
116.481597
 31
0.0
  0
TEXT
  5
49B
330
48E
100
AcDbEntity
  8
GR1-1
  6
細い実線
 62
     7
100
AcDbText
 10
856.140365
 20
116.527026
 30
0.0
 40
2.0
  1
２００
 50
90.0
 41
0.666667
  7
FX_VECTOR
 72
     5
 11
856.140365
 21
120.527026
 31
0.0
100
AcDbText
  0
ENDBLK
  5
490
330
48E
100
AcDbEntity
  8
0
100
AcDbBlockEnd
  0
BLOCK
  5
49D
330
49C
100
AcDbEntity
  8
0
100
AcDbBlockBegin
  2
BLKF080
 70
     0
 71
     0
 10
0.0
 20
0.0
 30
0.0
  3
BLKF080
  1

  0
LINE
  5
4A0
330
49C
100
AcDbEntity
  8
GR1-1
  6
細い実線
 62
     7
100
AcDbLine
 10
846.807084
 20
127.860363
 30
0.0
 11
860.140417
 21
127.860363
 31
0.0
  0
LINE
  5
4A1
330
49C
100
AcDbEntity
  8
GR1-1
  6
細い実線
 62
     7
100
AcDbLine
 10
843.007084
 20
115.193696
 30
0.0
 11
860.140417
 21
115.193696
 31
0.0
  0
LINE
  5
4A2
330
49C
100
AcDbEntity
  8
GR1-1
  6
細い実線
 62
     7
100
AcDbLine
 10
859.47375
 20
115.193696
 30
0.0
 11
859.47375
 21
127.860363
 31
0.0
  0
LINE
  5
4A3
330
49C
100
AcDbEntity
  8
GR1-1
  6
細い実線
 62
     7
100
AcDbLine
 10
859.818842
 20
126.572462
 30
0.0
 11
859.128658
 21
126.572462
 31
0.0
  0
LINE
  5
4A4
330
49C
100
AcDbEntity
  8
GR1-1
  6
細い実線
 62
     7
100
AcDbLine
 10
859.128658
 20
126.572462
 30
0.0
 11
859.47375
 21
127.860363
 31
0.0
  0
LINE
  5
4A5
330
49C
100
AcDbEntity
  8
GR1-1
  6
細い実線
 62
     7
100
AcDbLine
 10
859.47375
 20
127.860363
 30
0.0
 11
859.818842
 21
126.572462
 31
0.0
  0
LINE
  5
4A6
330
49C
100
AcDbEntity
  8
GR1-1
  6
細い実線
 62
     7
100
AcDbLine
 10
859.128658
 20
116.481597
 30
0.0
 11
859.818842
 21
116.481597
 31
0.0
  0
LINE
  5
4A7
330
49C
100
AcDbEntity
  8
GR1-1
  6
細い実線
 62
     7
100
AcDbLine
 10
859.818842
 20
116.481597
 30
0.0
 11
859.47375
 21
115.193696
 31
0.0
  0
LINE
  5
4A8
330
49C
100
AcDbEntity
  8
GR1-1
  6
細い実線
 62
     7
100
AcDbLine
 10
859.47375
 20
115.193696
 30
0.0
 11
859.128658
 21
116.481597
 31
0.0
  0
TEXT
  5
4A9
330
49C
100
AcDbEntity
  8
GR1-1
  6
細い実線
 62
     7
100
AcDbText
 10
859.473698
 20
119.527026
 30
0.0
 40
2.0
  1
３８０
 50
90.0
 41
0.666667
  7
FX_VECTOR
 72
     5
 11
859.473698
 21
123.527026
 31
0.0
100
AcDbText
  0
ENDBLK
  5
49E
330
49C
100
AcDbEntity
  8
0
100
AcDbBlockEnd
  0
BLOCK
  5
4C9
330
4C8
100
AcDbEntity
  8
0
100
AcDbBlockBegin
  2
BLKF081
 70
     0
 71
     0
 10
0.0
 20
0.0
 30
0.0
  3
BLKF081
  1

  0
LINE
  5
4CC
330
4C8
100
AcDbEntity
  8
GR1-1
  6
細い実線
 62
     7
100
AcDbLine
 10
810.464352
 20
162.910505
 30
0.0
 11
810.464352
 21
162.220321
 31
0.0
  0
LINE
  5
4CD
330
4C8
100
AcDbEntity
  8
GR1-1
  6
細い実線
 62
     7
100
AcDbLine
 10
810.464352
 20
162.220321
 30
0.0
 11
809.176451
 21
162.565413
 31
0.0
  0
LINE
  5
4CE
330
4C8
100
AcDbEntity
  8
GR1-1
  6
細い実線
 62
     7
100
AcDbLine
 10
809.176451
 20
162.565413
 30
0.0
 11
810.464352
 21
162.910505
 31
0.0
  0
LINE
  5
4CF
330
4C8
100
AcDbEntity
  8
GR1-1
  6
細い実線
 62
     7
100
AcDbLine
 10
809.176451
 20
162.565413
 30
0.0
 11
814.835576
 21
162.565413
 31
0.0
  0
LINE
  5
4D0
330
4C8
100
AcDbEntity
  8
GR1-1
  6
細い実線
 62
     7
100
AcDbLine
 10
814.835576
 20
162.565413
 30
0.0
 11
814.835576
 21
166.884071
 31
0.0
  0
ENDBLK
  5
4CA
330
4C8
100
AcDbEntity
  8
0
100
AcDbBlockEnd
  0
BLOCK
  5
4D3
330
4D2
100
AcDbEntity
  8
0
100
AcDbBlockBegin
  2
BLKF082
 70
     0
 71
     0
 10
0.0
 20
0.0
 30
0.0
  3
BLKF082
  1

  0
LINE
  5
4D6
330
4D2
100
AcDbEntity
  8
GR1-1
  6
細い実線
 62
     7
100
AcDbLine
 10
818.952739
 20
162.910505
 30
0.0
 11
818.952739
 21
162.220321
 31
0.0
  0
LINE
  5
4D7
330
4D2
100
AcDbEntity
  8
GR1-1
  6
細い実線
 62
     7
100
AcDbLine
 10
818.952739
 20
162.220321
 30
0.0
 11
817.664838
 21
162.565413
 31
0.0
  0
LINE
  5
4D8
330
4D2
100
AcDbEntity
  8
GR1-1
  6
細い実線
 62
     7
100
AcDbLine
 10
817.664838
 20
162.565413
 30
0.0
 11
818.952739
 21
162.910505
 31
0.0
  0
LINE
  5
4D9
330
4D2
100
AcDbEntity
  8
GR1-1
  6
細い実線
 62
     7
100
AcDbLine
 10
817.664838
 20
162.565413
 30
0.0
 11
823.323963
 21
162.565413
 31
0.0
  0
LINE
  5
4DA
330
4D2
100
AcDbEntity
  8
GR1-1
  6
細い実線
 62
     7
100
AcDbLine
 10
823.323963
 20
162.565413
 30
0.0
 11
823.323963
 21
166.884071
 31
0.0
  0
ENDBLK
  5
4D4
330
4D2
100
AcDbEntity
  8
0
100
AcDbBlockEnd
  0
BLOCK
  5
4DD
330
4DC
100
AcDbEntity
  8
0
100
AcDbBlockBegin
  2
BLKF083
 70
     0
 71
     0
 10
0.0
 20
0.0
 30
0.0
  3
BLKF083
  1

  0
LINE
  5
4E0
330
4DC
100
AcDbEntity
  8
GR1-1
  6
細い実線
 62
     7
100
AcDbLine
 10
810.464352
 20
190.420632
 30
0.0
 11
810.464352
 21
189.730448
 31
0.0
  0
LINE
  5
4E1
330
4DC
100
AcDbEntity
  8
GR1-1
  6
細い実線
 62
     7
100
AcDbLine
 10
810.464352
 20
189.730448
 30
0.0
 11
809.176451
 21
190.07554
 31
0.0
  0
LINE
  5
4E2
330
4DC
100
AcDbEntity
  8
GR1-1
  6
細い実線
 62
     7
100
AcDbLine
 10
809.176451
 20
190.07554
 30
0.0
 11
810.464352
 21
190.420632
 31
0.0
  0
LINE
  5
4E3
330
4DC
100
AcDbEntity
  8
GR1-1
  6
細い実線
 62
     7
100
AcDbLine
 10
809.176451
 20
190.07554
 30
0.0
 11
814.835576
 21
190.07554
 31
0.0
  0
LINE
  5
4E4
330
4DC
100
AcDbEntity
  8
GR1-1
  6
細い実線
 62
     7
100
AcDbLine
 10
814.835576
 20
190.07554
 30
0.0
 11
814.835576
 21
187.598171
 31
0.0
  0
ENDBLK
  5
4DE
330
4DC
100
AcDbEntity
  8
0
100
AcDbBlockEnd
  0
BLOCK
  5
4E7
330
4E6
100
AcDbEntity
  8
0
100
AcDbBlockBegin
  2
BLKF084
 70
     0
 71
     0
 10
0.0
 20
0.0
 30
0.0
  3
BLKF084
  1

  0
LINE
  5
4EA
330
4E6
100
AcDbEntity
  8
GR1-1
  6
細い実線
 62
     7
100
AcDbLine
 10
818.952739
 20
190.420632
 30
0.0
 11
818.952739
 21
189.730448
 31
0.0
  0
LINE
  5
4EB
330
4E6
100
AcDbEntity
  8
GR1-1
  6
細い実線
 62
     7
100
AcDbLine
 10
818.952739
 20
189.730448
 30
0.0
 11
817.664838
 21
190.07554
 31
0.0
  0
LINE
  5
4EC
330
4E6
100
AcDbEntity
  8
GR1-1
  6
細い実線
 62
     7
100
AcDbLine
 10
817.664838
 20
190.07554
 30
0.0
 11
818.952739
 21
190.420632
 31
0.0
  0
LINE
  5
4ED
330
4E6
100
AcDbEntity
  8
GR1-1
  6
細い実線
 62
     7
100
AcDbLine
 10
817.664838
 20
190.07554
 30
0.0
 11
823.323963
 21
190.07554
 31
0.0
  0
LINE
  5
4EE
330
4E6
100
AcDbEntity
  8
GR1-1
  6
細い実線
 62
     7
100
AcDbLine
 10
823.323963
 20
190.07554
 30
0.0
 11
823.323963
 21
187.598171
 31
0.0
  0
ENDBLK
  5
4E8
330
4E6
100
AcDbEntity
  8
0
100
AcDbBlockEnd
  0
BLOCK
  5
4F1
330
4F0
100
AcDbEntity
  8
0
100
AcDbBlockBegin
  2
BLKF085
 70
     0
 71
     0
 10
0.0
 20
0.0
 30
0.0
  3
BLKF085
  1

  0
LINE
  5
4F4
330
4F0
100
AcDbEntity
  8
GR1-1
  6
細い実線
 62
     7
100
AcDbLine
 10
794.002242
 20
186.931161
 30
0.0
 11
794.002242
 21
196.931161
 31
0.0
  0
LINE
  5
4F5
330
4F0
100
AcDbEntity
  8
GR1-1
  6
細い実線
 62
     7
100
AcDbLine
 10
835.668909
 20
186.931161
 30
0.0
 11
835.668909
 21
196.931161
 31
0.0
  0
LINE
  5
4F6
330
4F0
100
AcDbEntity
  8
GR1-1
  6
細い実線
 62
     7
100
AcDbLine
 10
835.668909
 20
196.264494
 30
0.0
 11
794.002242
 21
196.264494
 31
0.0
  0
LINE
  5
4F7
330
4F0
100
AcDbEntity
  8
GR1-1
  6
細い実線
 62
     7
100
AcDbLine
 10
795.290143
 20
196.609586
 30
0.0
 11
795.290143
 21
195.919402
 31
0.0
  0
LINE
  5
4F8
330
4F0
100
AcDbEntity
  8
GR1-1
  6
細い実線
 62
     7
100
AcDbLine
 10
795.290143
 20
195.919402
 30
0.0
 11
794.002242
 21
196.264494
 31
0.0
  0
LINE
  5
4F9
330
4F0
100
AcDbEntity
  8
GR1-1
  6
細い実線
 62
     7
100
AcDbLine
 10
794.002242
 20
196.264494
 30
0.0
 11
795.290143
 21
196.609586
 31
0.0
  0
LINE
  5
4FA
330
4F0
100
AcDbEntity
  8
GR1-1
  6
細い実線
 62
     7
100
AcDbLine
 10
834.381008
 20
195.919402
 30
0.0
 11
834.381008
 21
196.609586
 31
0.0
  0
LINE
  5
4FB
330
4F0
100
AcDbEntity
  8
GR1-1
  6
細い実線
 62
     7
100
AcDbLine
 10
834.381008
 20
196.609586
 30
0.0
 11
835.668909
 21
196.264494
 31
0.0
  0
LINE
  5
4FC
330
4F0
100
AcDbEntity
  8
GR1-1
  6
細い実線
 62
     7
100
AcDbLine
 10
835.668909
 20
196.264494
 30
0.0
 11
834.381008
 21
195.919402
 31
0.0
  0
TEXT
  5
4FD
330
4F0
100
AcDbEntity
  8
GR1-1
  6
細い実線
 62
     7
100
AcDbText
 10
812.168815
 20
196.264518
 30
0.0
 40
2.0
  1
１２５０
 41
0.666667
  7
FX_VECTOR
 72
     5
 11
817.502148
 21
196.264518
 31
0.0
100
AcDbText
  0
ENDBLK
  5
4F2
330
4F0
100
AcDbEntity
  8
0
100
AcDbBlockEnd
  0
BLOCK
  5
4FF
330
4FE
100
AcDbEntity
  8
0
100
AcDbBlockBegin
  2
BLKF086
 70
     0
 71
     0
 10
0.0
 20
0.0
 30
0.0
  3
BLKF086
  1

  0
LINE
  5
502
330
4FE
100
AcDbEntity
  8
GR1-1
  6
細い実線
 62
     7
100
AcDbLine
 10
794.002242
 20
186.931161
 30
0.0
 11
794.002242
 21
193.597827
 31
0.0
  0
LINE
  5
503
330
4FE
100
AcDbEntity
  8
GR1-1
  6
細い実線
 62
     7
100
AcDbLine
 10
804.585576
 20
186.931161
 30
0.0
 11
804.585576
 21
193.597827
 31
0.0
  0
LINE
  5
504
330
4FE
100
AcDbEntity
  8
GR1-1
  6
細い実線
 62
     7
100
AcDbLine
 10
804.585576
 20
192.931161
 30
0.0
 11
794.002242
 21
192.931161
 31
0.0
  0
LINE
  5
505
330
4FE
100
AcDbEntity
  8
GR1-1
  6
細い実線
 62
     7
100
AcDbLine
 10
795.290143
 20
193.276253
 30
0.0
 11
795.290143
 21
192.586069
 31
0.0
  0
LINE
  5
506
330
4FE
100
AcDbEntity
  8
GR1-1
  6
細い実線
 62
     7
100
AcDbLine
 10
795.290143
 20
192.586069
 30
0.0
 11
794.002242
 21
192.931161
 31
0.0
  0
LINE
  5
507
330
4FE
100
AcDbEntity
  8
GR1-1
  6
細い実線
 62
     7
100
AcDbLine
 10
794.002242
 20
192.931161
 30
0.0
 11
795.290143
 21
193.276253
 31
0.0
  0
LINE
  5
508
330
4FE
100
AcDbEntity
  8
GR1-1
  6
細い実線
 62
     7
100
AcDbLine
 10
803.297675
 20
192.586069
 30
0.0
 11
803.297675
 21
193.276253
 31
0.0
  0
LINE
  5
509
330
4FE
100
AcDbEntity
  8
GR1-1
  6
細い実線
 62
     7
100
AcDbLine
 10
803.297675
 20
193.276253
 30
0.0
 11
804.585576
 21
192.931161
 31
0.0
  0
LINE
  5
50A
330
4FE
100
AcDbEntity
  8
GR1-1
  6
細い実線
 62
     7
100
AcDbLine
 10
804.585576
 20
192.931161
 30
0.0
 11
803.297675
 21
192.586069
 31
0.0
  0
TEXT
  5
50B
330
4FE
100
AcDbEntity
  8
GR1-1
  6
細い実線
 62
     7
100
AcDbText
 10
795.960482
 20
192.931185
 30
0.0
 40
2.0
  1
３１７．５
 41
0.666667
  7
FX_VECTOR
 72
     5
 11
802.627148
 21
192.931185
 31
0.0
100
AcDbText
  0
ENDBLK
  5
500
330
4FE
100
AcDbEntity
  8
0
100
AcDbBlockEnd
  0
BLOCK
  5
50D
330
50C
100
AcDbEntity
  8
0
100
AcDbBlockBegin
  2
BLKF087
 70
     0
 71
     0
 10
0.0
 20
0.0
 30
0.0
  3
BLKF087
  1

  0
LINE
  5
510
330
50C
100
AcDbEntity
  8
GR1-1
  6
細い実線
 62
     7
100
AcDbLine
 10
808.252242
 20
186.931161
 30
0.0
 11
808.252242
 21
193.597827
 31
0.0
  0
LINE
  5
511
330
50C
100
AcDbEntity
  8
GR1-1
  6
細い実線
 62
     7
100
AcDbLine
 10
808.252242
 20
192.931161
 30
0.0
 11
804.585576
 21
192.931161
 31
0.0
  0
LINE
  5
512
330
50C
100
AcDbEntity
  8
GR1-1
  6
細い実線
 62
     7
100
AcDbLine
 10
805.873477
 20
193.276253
 30
0.0
 11
805.873477
 21
192.586069
 31
0.0
  0
LINE
  5
513
330
50C
100
AcDbEntity
  8
GR1-1
  6
細い実線
 62
     7
100
AcDbLine
 10
805.873477
 20
192.586069
 30
0.0
 11
804.585576
 21
192.931161
 31
0.0
  0
LINE
  5
514
330
50C
100
AcDbEntity
  8
GR1-1
  6
細い実線
 62
     7
100
AcDbLine
 10
804.585576
 20
192.931161
 30
0.0
 11
805.873477
 21
193.276253
 31
0.0
  0
LINE
  5
515
330
50C
100
AcDbEntity
  8
GR1-1
  6
細い実線
 62
     7
100
AcDbLine
 10
806.964341
 20
192.586069
 30
0.0
 11
806.964341
 21
193.276253
 31
0.0
  0
LINE
  5
516
330
50C
100
AcDbEntity
  8
GR1-1
  6
細い実線
 62
     7
100
AcDbLine
 10
806.964341
 20
193.276253
 30
0.0
 11
808.252242
 21
192.931161
 31
0.0
  0
LINE
  5
517
330
50C
100
AcDbEntity
  8
GR1-1
  6
細い実線
 62
     7
100
AcDbLine
 10
808.252242
 20
192.931161
 30
0.0
 11
806.964341
 21
192.586069
 31
0.0
  0
TEXT
  5
518
330
50C
100
AcDbEntity
  8
GR1-1
  6
細い実線
 62
     7
100
AcDbText
 10
804.418815
 20
193.597852
 30
0.0
 40
2.0
  1
１１０
 41
0.666667
  7
FX_VECTOR
 72
     5
 11
808.418815
 21
193.597852
 31
0.0
100
AcDbText
  0
ENDBLK
  5
50E
330
50C
100
AcDbEntity
  8
0
100
AcDbBlockEnd
  0
BLOCK
  5
51A
330
519
100
AcDbEntity
  8
0
100
AcDbBlockBegin
  2
BLKF088
 70
     0
 71
     0
 10
0.0
 20
0.0
 30
0.0
  3
BLKF088
  1

  0
LINE
  5
51D
330
519
100
AcDbEntity
  8
GR1-1
  6
細い実線
 62
     7
100
AcDbLine
 10
821.418909
 20
186.931161
 30
0.0
 11
821.418909
 21
193.597827
 31
0.0
  0
LINE
  5
51E
330
519
100
AcDbEntity
  8
GR1-1
  6
細い実線
 62
     7
100
AcDbLine
 10
821.418909
 20
192.931161
 30
0.0
 11
808.252242
 21
192.931161
 31
0.0
  0
LINE
  5
51F
330
519
100
AcDbEntity
  8
GR1-1
  6
細い実線
 62
     7
100
AcDbLine
 10
809.540143
 20
193.276253
 30
0.0
 11
809.540143
 21
192.586069
 31
0.0
  0
LINE
  5
520
330
519
100
AcDbEntity
  8
GR1-1
  6
細い実線
 62
     7
100
AcDbLine
 10
809.540143
 20
192.586069
 30
0.0
 11
808.252242
 21
192.931161
 31
0.0
  0
LINE
  5
521
330
519
100
AcDbEntity
  8
GR1-1
  6
細い実線
 62
     7
100
AcDbLine
 10
808.252242
 20
192.931161
 30
0.0
 11
809.540143
 21
193.276253
 31
0.0
  0
LINE
  5
522
330
519
100
AcDbEntity
  8
GR1-1
  6
細い実線
 62
     7
100
AcDbLine
 10
820.131008
 20
192.586069
 30
0.0
 11
820.131008
 21
193.276253
 31
0.0
  0
LINE
  5
523
330
519
100
AcDbEntity
  8
GR1-1
  6
細い実線
 62
     7
100
AcDbLine
 10
820.131008
 20
193.276253
 30
0.0
 11
821.418909
 21
192.931161
 31
0.0
  0
LINE
  5
524
330
519
100
AcDbEntity
  8
GR1-1
  6
細い実線
 62
     7
100
AcDbLine
 10
821.418909
 20
192.931161
 30
0.0
 11
820.131008
 21
192.586069
 31
0.0
  0
TEXT
  5
525
330
519
100
AcDbEntity
  8
GR1-1
  6
細い実線
 62
     7
100
AcDbText
 10
812.835482
 20
192.931185
 30
0.0
 40
2.0
  1
３９５
 41
0.666667
  7
FX_VECTOR
 72
     5
 11
816.835482
 21
192.931185
 31
0.0
100
AcDbText
  0
ENDBLK
  5
51B
330
519
100
AcDbEntity
  8
0
100
AcDbBlockEnd
  0
BLOCK
  5
527
330
526
100
AcDbEntity
  8
0
100
AcDbBlockBegin
  2
BLKF089
 70
     0
 71
     0
 10
0.0
 20
0.0
 30
0.0
  3
BLKF089
  1

  0
LINE
  5
52A
330
526
100
AcDbEntity
  8
GR1-1
  6
細い実線
 62
     7
100
AcDbLine
 10
825.085576
 20
186.931161
 30
0.0
 11
825.085576
 21
193.597827
 31
0.0
  0
LINE
  5
52B
330
526
100
AcDbEntity
  8
GR1-1
  6
細い実線
 62
     7
100
AcDbLine
 10
825.085576
 20
192.931161
 30
0.0
 11
821.418909
 21
192.931161
 31
0.0
  0
LINE
  5
52C
330
526
100
AcDbEntity
  8
GR1-1
  6
細い実線
 62
     7
100
AcDbLine
 10
822.70681
 20
193.276253
 30
0.0
 11
822.70681
 21
192.586069
 31
0.0
  0
LINE
  5
52D
330
526
100
AcDbEntity
  8
GR1-1
  6
細い実線
 62
     7
100
AcDbLine
 10
822.70681
 20
192.586069
 30
0.0
 11
821.418909
 21
192.931161
 31
0.0
  0
LINE
  5
52E
330
526
100
AcDbEntity
  8
GR1-1
  6
細い実線
 62
     7
100
AcDbLine
 10
821.418909
 20
192.931161
 30
0.0
 11
822.70681
 21
193.276253
 31
0.0
  0
LINE
  5
52F
330
526
100
AcDbEntity
  8
GR1-1
  6
細い実線
 62
     7
100
AcDbLine
 10
823.797675
 20
192.586069
 30
0.0
 11
823.797675
 21
193.276253
 31
0.0
  0
LINE
  5
530
330
526
100
AcDbEntity
  8
GR1-1
  6
細い実線
 62
     7
100
AcDbLine
 10
823.797675
 20
193.276253
 30
0.0
 11
825.085576
 21
192.931161
 31
0.0
  0
LINE
  5
531
330
526
100
AcDbEntity
  8
GR1-1
  6
細い実線
 62
     7
100
AcDbLine
 10
825.085576
 20
192.931161
 30
0.0
 11
823.797675
 21
192.586069
 31
0.0
  0
TEXT
  5
532
330
526
100
AcDbEntity
  8
GR1-1
  6
細い実線
 62
     7
100
AcDbText
 10
821.252148
 20
193.597852
 30
0.0
 40
2.0
  1
１１０
 41
0.666667
  7
FX_VECTOR
 72
     5
 11
825.252148
 21
193.597852
 31
0.0
100
AcDbText
  0
ENDBLK
  5
528
330
526
100
AcDbEntity
  8
0
100
AcDbBlockEnd
  0
BLOCK
  5
534
330
533
100
AcDbEntity
  8
0
100
AcDbBlockBegin
  2
BLKF090
 70
     0
 71
     0
 10
0.0
 20
0.0
 30
0.0
  3
BLKF090
  1

  0
LINE
  5
537
330
533
100
AcDbEntity
  8
GR1-1
  6
細い実線
 62
     7
100
AcDbLine
 10
835.668909
 20
186.931161
 30
0.0
 11
835.668909
 21
193.597827
 31
0.0
  0
LINE
  5
538
330
533
100
AcDbEntity
  8
GR1-1
  6
細い実線
 62
     7
100
AcDbLine
 10
835.668909
 20
192.931161
 30
0.0
 11
825.085576
 21
192.931161
 31
0.0
  0
LINE
  5
539
330
533
100
AcDbEntity
  8
GR1-1
  6
細い実線
 62
     7
100
AcDbLine
 10
826.373477
 20
193.276253
 30
0.0
 11
826.373477
 21
192.586069
 31
0.0
  0
LINE
  5
53A
330
533
100
AcDbEntity
  8
GR1-1
  6
細い実線
 62
     7
100
AcDbLine
 10
826.373477
 20
192.586069
 30
0.0
 11
825.085576
 21
192.931161
 31
0.0
  0
LINE
  5
53B
330
533
100
AcDbEntity
  8
GR1-1
  6
細い実線
 62
     7
100
AcDbLine
 10
825.085576
 20
192.931161
 30
0.0
 11
826.373477
 21
193.276253
 31
0.0
  0
LINE
  5
53C
330
533
100
AcDbEntity
  8
GR1-1
  6
細い実線
 62
     7
100
AcDbLine
 10
834.381008
 20
192.586069
 30
0.0
 11
834.381008
 21
193.276253
 31
0.0
  0
LINE
  5
53D
330
533
100
AcDbEntity
  8
GR1-1
  6
細い実線
 62
     7
100
AcDbLine
 10
834.381008
 20
193.276253
 30
0.0
 11
835.668909
 21
192.931161
 31
0.0
  0
LINE
  5
53E
330
533
100
AcDbEntity
  8
GR1-1
  6
細い実線
 62
     7
100
AcDbLine
 10
835.668909
 20
192.931161
 30
0.0
 11
834.381008
 21
192.586069
 31
0.0
  0
TEXT
  5
53F
330
533
100
AcDbEntity
  8
GR1-1
  6
細い実線
 62
     7
100
AcDbText
 10
827.043815
 20
192.931185
 30
0.0
 40
2.0
  1
３１７．５
 41
0.666667
  7
FX_VECTOR
 72
     5
 11
833.710482
 21
192.931185
 31
0.0
100
AcDbText
  0
ENDBLK
  5
535
330
533
100
AcDbEntity
  8
0
100
AcDbBlockEnd
  0
BLOCK
  5
541
330
540
100
AcDbEntity
  8
0
100
AcDbBlockBegin
  2
BLKF091
 70
     0
 71
     0
 10
0.0
 20
0.0
 30
0.0
  3
BLKF091
  1

  0
LINE
  5
544
330
540
100
AcDbEntity
  8
GR1-1
  6
細い実線
 62
     7
100
AcDbLine
 10
793.335576
 20
186.232494
 30
0.0
 11
786.668909
 21
186.232494
 31
0.0
  0
LINE
  5
545
330
540
100
AcDbEntity
  8
GR1-1
  6
細い実線
 62
     7
100
AcDbLine
 10
793.335576
 20
172.344085
 30
0.0
 11
786.668909
 21
172.344085
 31
0.0
  0
LINE
  5
546
330
540
100
AcDbEntity
  8
GR1-1
  6
細い実線
 62
     7
100
AcDbLine
 10
787.335576
 20
172.344085
 30
0.0
 11
787.335576
 21
186.232494
 31
0.0
  0
LINE
  5
547
330
540
100
AcDbEntity
  8
GR1-1
  6
細い実線
 62
     7
100
AcDbLine
 10
787.680668
 20
184.944593
 30
0.0
 11
786.990484
 21
184.944593
 31
0.0
  0
LINE
  5
548
330
540
100
AcDbEntity
  8
GR1-1
  6
細い実線
 62
     7
100
AcDbLine
 10
786.990484
 20
184.944593
 30
0.0
 11
787.335576
 21
186.232494
 31
0.0
  0
LINE
  5
549
330
540
100
AcDbEntity
  8
GR1-1
  6
細い実線
 62
     7
100
AcDbLine
 10
787.335576
 20
186.232494
 30
0.0
 11
787.680668
 21
184.944593
 31
0.0
  0
LINE
  5
54A
330
540
100
AcDbEntity
  8
GR1-1
  6
細い実線
 62
     7
100
AcDbLine
 10
786.990484
 20
173.631986
 30
0.0
 11
787.680668
 21
173.631986
 31
0.0
  0
LINE
  5
54B
330
540
100
AcDbEntity
  8
GR1-1
  6
細い実線
 62
     7
100
AcDbLine
 10
787.680668
 20
173.631986
 30
0.0
 11
787.335576
 21
172.344085
 31
0.0
  0
LINE
  5
54C
330
540
100
AcDbEntity
  8
GR1-1
  6
細い実線
 62
     7
100
AcDbLine
 10
787.335576
 20
172.344085
 30
0.0
 11
786.990484
 21
173.631986
 31
0.0
  0
TEXT
  5
54D
330
540
100
AcDbEntity
  8
GR1-1
  6
細い実線
 62
     7
100
AcDbText
 10
787.335482
 20
175.954964
 30
0.0
 40
2.0
  1
４１６．７
 50
90.0
 41
0.666667
  7
FX_VECTOR
 72
     5
 11
787.335482
 21
182.621631
 31
0.0
100
AcDbText
  0
ENDBLK
  5
542
330
540
100
AcDbEntity
  8
0
100
AcDbBlockEnd
  0
BLOCK
  5
54F
330
54E
100
AcDbEntity
  8
0
100
AcDbBlockBegin
  2
BLKF092
 70
     0
 71
     0
 10
0.0
 20
0.0
 30
0.0
  3
BLKF092
  1

  0
LINE
  5
552
330
54E
100
AcDbEntity
  8
GR1-1
  6
細い実線
 62
     7
100
AcDbLine
 10
793.335576
 20
168.512085
 30
0.0
 11
786.668909
 21
168.512085
 31
0.0
  0
LINE
  5
553
330
54E
100
AcDbEntity
  8
GR1-1
  6
細い実線
 62
     7
100
AcDbLine
 10
787.335576
 20
168.512085
 30
0.0
 11
787.335576
 21
172.344085
 31
0.0
  0
LINE
  5
554
330
54E
100
AcDbEntity
  8
GR1-1
  6
細い実線
 62
     7
100
AcDbLine
 10
787.680668
 20
171.056184
 30
0.0
 11
786.990484
 21
171.056184
 31
0.0
  0
LINE
  5
555
330
54E
100
AcDbEntity
  8
GR1-1
  6
細い実線
 62
     7
100
AcDbLine
 10
786.990484
 20
171.056184
 30
0.0
 11
787.335576
 21
172.344085
 31
0.0
  0
LINE
  5
556
330
54E
100
AcDbEntity
  8
GR1-1
  6
細い実線
 62
     7
100
AcDbLine
 10
787.335576
 20
172.344085
 30
0.0
 11
787.680668
 21
171.056184
 31
0.0
  0
LINE
  5
557
330
54E
100
AcDbEntity
  8
GR1-1
  6
細い実線
 62
     7
100
AcDbLine
 10
786.990484
 20
169.799986
 30
0.0
 11
787.680668
 21
169.799986
 31
0.0
  0
LINE
  5
558
330
54E
100
AcDbEntity
  8
GR1-1
  6
細い実線
 62
     7
100
AcDbLine
 10
787.680668
 20
169.799986
 30
0.0
 11
787.335576
 21
168.512085
 31
0.0
  0
LINE
  5
559
330
54E
100
AcDbEntity
  8
GR1-1
  6
細い実線
 62
     7
100
AcDbLine
 10
787.335576
 20
168.512085
 30
0.0
 11
786.990484
 21
169.799986
 31
0.0
  0
TEXT
  5
55A
330
54E
100
AcDbEntity
  8
GR1-1
  6
細い実線
 62
     7
100
AcDbText
 10
786.668815
 20
168.428092
 30
0.0
 40
2.0
  1
１１５
 50
90.0
 41
0.666667
  7
FX_VECTOR
 72
     5
 11
786.668815
 21
172.428092
 31
0.0
100
AcDbText
  0
ENDBLK
  5
550
330
54E
100
AcDbEntity
  8
0
100
AcDbBlockEnd
  0
BLOCK
  5
55C
330
55B
100
AcDbEntity
  8
0
100
AcDbBlockBegin
  2
BLKF093
 70
     0
 71
     0
 10
0.0
 20
0.0
 30
0.0
  3
BLKF093
  1

  0
LINE
  5
55F
330
55B
100
AcDbEntity
  8
GR1-1
  6
細い実線
 62
     7
100
AcDbLine
 10
793.335576
 20
186.232494
 30
0.0
 11
790.002242
 21
186.232494
 31
0.0
  0
LINE
  5
560
330
55B
100
AcDbEntity
  8
GR1-1
  6
細い実線
 62
     7
100
AcDbLine
 10
793.335576
 20
184.666448
 30
0.0
 11
790.002242
 21
184.666448
 31
0.0
  0
LINE
  5
561
330
55B
100
AcDbEntity
  8
GR1-1
  6
細い実線
 62
     7
100
AcDbLine
 10
790.668909
 20
182.666448
 30
0.0
 11
790.668909
 21
188.232494
 31
0.0
  0
LINE
  5
562
330
55B
100
AcDbEntity
  8
GR1-1
  6
細い実線
 62
     7
100
AcDbLine
 10
790.323817
 20
187.520395
 30
0.0
 11
791.014001
 21
187.520395
 31
0.0
  0
LINE
  5
563
330
55B
100
AcDbEntity
  8
GR1-1
  6
細い実線
 62
     7
100
AcDbLine
 10
791.014001
 20
187.520395
 30
0.0
 11
790.668909
 21
186.232494
 31
0.0
  0
LINE
  5
564
330
55B
100
AcDbEntity
  8
GR1-1
  6
細い実線
 62
     7
100
AcDbLine
 10
790.668909
 20
186.232494
 30
0.0
 11
790.323817
 21
187.520395
 31
0.0
  0
LINE
  5
565
330
55B
100
AcDbEntity
  8
GR1-1
  6
細い実線
 62
     7
100
AcDbLine
 10
791.014001
 20
183.378547
 30
0.0
 11
790.323817
 21
183.378547
 31
0.0
  0
LINE
  5
566
330
55B
100
AcDbEntity
  8
GR1-1
  6
細い実線
 62
     7
100
AcDbLine
 10
790.323817
 20
183.378547
 30
0.0
 11
790.668909
 21
184.666448
 31
0.0
  0
LINE
  5
567
330
55B
100
AcDbEntity
  8
GR1-1
  6
細い実線
 62
     7
100
AcDbLine
 10
790.668909
 20
184.666448
 30
0.0
 11
791.014001
 21
183.378547
 31
0.0
  0
TEXT
  5
568
330
55B
100
AcDbEntity
  8
GR1-1
  6
細い実線
 62
     7
100
AcDbText
 10
790.076823
 20
186.504753
 30
0.0
 40
2.0
  1
４７
 50
90.0
 41
0.666667
  7
FX_VECTOR
 72
     5
 11
790.076823
 21
189.171419
 31
0.0
100
AcDbText
  0
ENDBLK
  5
55D
330
55B
100
AcDbEntity
  8
0
100
AcDbBlockEnd
  0
BLOCK
  5
56A
330
569
100
AcDbEntity
  8
0
100
AcDbBlockBegin
  2
BLKF094
 70
     0
 71
     0
 10
0.0
 20
0.0
 30
0.0
  3
BLKF094
  1

  0
LINE
  5
56D
330
569
100
AcDbEntity
  8
GR1-1
  6
細い実線
 62
     7
100
AcDbLine
 10
793.335576
 20
184.666448
 30
0.0
 11
790.002242
 21
184.666448
 31
0.0
  0
LINE
  5
56E
330
569
100
AcDbEntity
  8
GR1-1
  6
細い実線
 62
     7
100
AcDbLine
 10
793.335576
 20
173.910131
 30
0.0
 11
790.002242
 21
173.910131
 31
0.0
  0
LINE
  5
56F
330
569
100
AcDbEntity
  8
GR1-1
  6
細い実線
 62
     7
100
AcDbLine
 10
790.668909
 20
173.910131
 30
0.0
 11
790.668909
 21
184.666448
 31
0.0
  0
LINE
  5
570
330
569
100
AcDbEntity
  8
GR1-1
  6
細い実線
 62
     7
100
AcDbLine
 10
791.014001
 20
183.378547
 30
0.0
 11
790.323817
 21
183.378547
 31
0.0
  0
LINE
  5
571
330
569
100
AcDbEntity
  8
GR1-1
  6
細い実線
 62
     7
100
AcDbLine
 10
790.323817
 20
183.378547
 30
0.0
 11
790.668909
 21
184.666448
 31
0.0
  0
LINE
  5
572
330
569
100
AcDbEntity
  8
GR1-1
  6
細い実線
 62
     7
100
AcDbLine
 10
790.668909
 20
184.666448
 30
0.0
 11
791.014001
 21
183.378547
 31
0.0
  0
LINE
  5
573
330
569
100
AcDbEntity
  8
GR1-1
  6
細い実線
 62
     7
100
AcDbLine
 10
790.323817
 20
175.198032
 30
0.0
 11
791.014001
 21
175.198032
 31
0.0
  0
LINE
  5
574
330
569
100
AcDbEntity
  8
GR1-1
  6
細い実線
 62
     7
100
AcDbLine
 10
791.014001
 20
175.198032
 30
0.0
 11
790.668909
 21
173.910131
 31
0.0
  0
LINE
  5
575
330
569
100
AcDbEntity
  8
GR1-1
  6
細い実線
 62
     7
100
AcDbLine
 10
790.668909
 20
173.910131
 30
0.0
 11
790.323817
 21
175.198032
 31
0.0
  0
TEXT
  5
576
330
569
100
AcDbEntity
  8
GR1-1
  6
細い実線
 62
     7
100
AcDbText
 10
790.668815
 20
175.954964
 30
0.0
 40
2.0
  1
３２２．７
 50
90.0
 41
0.666667
  7
FX_VECTOR
 72
     5
 11
790.668815
 21
182.621631
 31
0.0
100
AcDbText
  0
ENDBLK
  5
56B
330
569
100
AcDbEntity
  8
0
100
AcDbBlockEnd
  0
BLOCK
  5
578
330
577
100
AcDbEntity
  8
0
100
AcDbBlockBegin
  2
BLKF095
 70
     0
 71
     0
 10
0.0
 20
0.0
 30
0.0
  3
BLKF095
  1

  0
LINE
  5
57B
330
577
100
AcDbEntity
  8
GR1-1
  6
細い実線
 62
     7
100
AcDbLine
 10
793.335576
 20
172.344085
 30
0.0
 11
790.002242
 21
172.344085
 31
0.0
  0
LINE
  5
57C
330
577
100
AcDbEntity
  8
GR1-1
  6
細い実線
 62
     7
100
AcDbLine
 10
790.668909
 20
170.344085
 30
0.0
 11
790.668909
 21
175.910131
 31
0.0
  0
LINE
  5
57D
330
577
100
AcDbEntity
  8
GR1-1
  6
細い実線
 62
     7
100
AcDbLine
 10
790.323817
 20
175.198032
 30
0.0
 11
791.014001
 21
175.198032
 31
0.0
  0
LINE
  5
57E
330
577
100
AcDbEntity
  8
GR1-1
  6
細い実線
 62
     7
100
AcDbLine
 10
791.014001
 20
175.198032
 30
0.0
 11
790.668909
 21
173.910131
 31
0.0
  0
LINE
  5
57F
330
577
100
AcDbEntity
  8
GR1-1
  6
細い実線
 62
     7
100
AcDbLine
 10
790.668909
 20
173.910131
 30
0.0
 11
790.323817
 21
175.198032
 31
0.0
  0
LINE
  5
580
330
577
100
AcDbEntity
  8
GR1-1
  6
細い実線
 62
     7
100
AcDbLine
 10
791.014001
 20
171.056184
 30
0.0
 11
790.323817
 21
171.056184
 31
0.0
  0
LINE
  5
581
330
577
100
AcDbEntity
  8
GR1-1
  6
細い実線
 62
     7
100
AcDbLine
 10
790.323817
 20
171.056184
 30
0.0
 11
790.668909
 21
172.344085
 31
0.0
  0
LINE
  5
582
330
577
100
AcDbEntity
  8
GR1-1
  6
細い実線
 62
     7
100
AcDbLine
 10
790.668909
 20
172.344085
 30
0.0
 11
791.014001
 21
171.056184
 31
0.0
  0
TEXT
  5
583
330
577
100
AcDbEntity
  8
GR1-1
  6
細い実線
 62
     7
100
AcDbText
 10
790.375391
 20
169.55446
 30
0.0
 40
2.0
  1
４７
 50
90.0
 41
0.666667
  7
FX_VECTOR
 72
     5
 11
790.375391
 21
172.221126
 31
0.0
100
AcDbText
  0
ENDBLK
  5
579
330
577
100
AcDbEntity
  8
0
100
AcDbBlockEnd
  0
ENDSEC
  0
SECTION
  2
ENTITIES
  0
LINE
  5
A7
330
1F
100
AcDbEntity
  8
GR1-1
  6
極太の実線
 62
     3
100
AcDbLine
 10
915.845963
 20
234.360363
 30
0.0
 11
638.845974
 21
234.360363
 31
0.0
  0
LINE
  5
A8
330
1F
100
AcDbEntity
  8
GR1-1
  6
極太の実線
 62
     3
100
AcDbLine
 10
638.845974
 20
234.360363
 30
0.0
 11
638.845958
 21
44.360363
 31
0.0
  0
LINE
  5
A9
330
1F
100
AcDbEntity
  8
GR1-1
  6
極太の実線
 62
     3
100
AcDbLine
 10
638.845958
 20
44.360363
 30
0.0
 11
915.845958
 21
44.360363
 31
0.0
  0
LINE
  5
AA
330
1F
100
AcDbEntity
  8
GR1-1
  6
極太の実線
 62
     3
100
AcDbLine
 10
915.845958
 20
44.360363
 30
0.0
 11
915.845963
 21
234.360363
 31
0.0
  0
LINE
  5
AB
330
1F
100
AcDbEntity
  8
GR1-1
  6
極太の実線
 62
     3
100
AcDbLine
 10
914.845963
 20
233.360363
 30
0.0
 11
639.845974
 21
233.360363
 31
0.0
  0
LINE
  5
AC
330
1F
100
AcDbEntity
  8
GR1-1
  6
極太の実線
 62
     3
100
AcDbLine
 10
639.845974
 20
233.360363
 30
0.0
 11
639.845958
 21
45.360363
 31
0.0
  0
LINE
  5
AD
330
1F
100
AcDbEntity
  8
GR1-1
  6
極太の実線
 62
     3
100
AcDbLine
 10
639.845958
 20
45.360363
 30
0.0
 11
914.845958
 21
45.360363
 31
0.0
  0
LINE
  5
AE
330
1F
100
AcDbEntity
  8
GR1-1
  6
極太の実線
 62
     3
100
AcDbLine
 10
914.845958
 20
45.360363
 30
0.0
 11
914.845963
 21
233.360363
 31
0.0
  0
LINE
  5
B0
330
1F
100
AcDbEntity
  8
GR1-1
  6
太い実線
 62
     4
100
AcDbLine
 10
836.793212
 20
66.861168
 30
0.0
 11
911.793237
 21
66.861168
 31
0.0
  0
LINE
  5
B1
330
1F
100
AcDbEntity
  8
GR1-1
  6
太い実線
 62
     4
100
AcDbLine
 10
911.793237
 20
60.861168
 30
0.0
 11
836.793212
 21
60.861168
 31
0.0
  0
LINE
  5
B2
330
1F
100
AcDbEntity
  8
GR1-1
  6
太い実線
 62
     4
100
AcDbLine
 10
836.793212
 20
54.861172
 30
0.0
 11
911.793237
 21
54.861172
 31
0.0
  0
LINE
  5
B3
330
1F
100
AcDbEntity
  8
GR1-1
  6
太い実線
 62
     4
100
AcDbLine
 10
836.793212
 20
48.86117
 30
0.0
 11
836.793212
 21
66.861168
 31
0.0
  0
LINE
  5
B4
330
1F
100
AcDbEntity
  8
GR1-1
  6
太い実線
 62
     4
100
AcDbLine
 10
851.793212
 20
66.861168
 30
0.0
 11
851.793212
 21
54.861172
 31
0.0
  0
LINE
  5
B5
330
1F
100
AcDbEntity
  8
GR1-1
  6
太い実線
 62
     4
100
AcDbLine
 10
874.293224
 20
54.861172
 30
0.0
 11
874.293224
 21
60.861168
 31
0.0
  0
TEXT
  5
B7
330
1F
100
AcDbEntity
  8
GR1-1
  6
細い実線
 62
     7
100
AcDbText
 10
841.743229
 20
61.932613
 30
0.0
 40
3.5
  1
図名
 41
0.728571
  7
STYLE1
 72
     5
 11
846.843229
 21
61.932613
 31
0.0
100
AcDbText
  0
TEXT
  5
B8
330
1F
100
AcDbEntity
  8
GR1-1
  6
細い実線
 62
     7
100
AcDbText
 10
841.743229
 20
55.901058
 30
0.0
 40
3.5
  1
尺度
 41
0.728571
  7
STYLE1
 72
     5
 11
846.843229
 21
55.901058
 31
0.0
100
AcDbText
  0
TEXT
  5
B9
330
1F
100
AcDbEntity
  8
GR1-1
  6
細い実線
 62
     7
100
AcDbText
 10
876.443229
 20
55.901058
 30
0.0
 40
3.5
  1
参考重量
 41
0.764286
  7
STYLE1
 72
     5
 11
887.143229
 21
55.901058
 31
0.0
100
AcDbText
  0
TEXT
  5
BA
330
1F
100
AcDbEntity
  8
GR1-1
  6
細い実線
 62
     7
100
AcDbText
 10
854.943229
 20
49.869503
 30
0.0
 40
3.5
  1
小倉セメント製品工業株式会社
 41
0.789796
  7
STYLE1
 72
     5
 11
893.643229
 21
49.869503
 31
0.0
100
AcDbText
  0
LINE
  5
BB
330
1F
100
AcDbEntity
  8
GR1-1
  6
太い実線
 62
     4
100
AcDbLine
 10
889.293273
 20
60.861168
 30
0.0
 11
889.293273
 21
54.861172
 31
0.0
  0
TEXT
  5
BC
330
1F
100
AcDbEntity
  8
GR1-1
  6
細い実線
 62
     7
100
AcDbText
 10
858.443229
 20
56.064075
 30
0.0
 40
3.5
  1
1/30
 41
0.657143
  7
STYLE1
 72
     5
 11
867.643229
 21
56.064075
 31
0.0
100
AcDbText
  0
TEXT
  5
BD
330
1F
100
AcDbEntity
  8
GR1-1
  6
細い実線
 62
     7
100
AcDbText
 10
892.451823
 20
55.901058
 30
0.0
 40
3.5
  1
224　ｋｇ
 41
0.657143
  7
STYLE1
 72
     5
 11
906.251823
 21
55.901058
 31
0.0
100
AcDbText
  0
TEXT
  5
BE
330
1F
100
AcDbEntity
  8
GR1-1
  6
細い実線
 62
     7
100
AcDbText
 10
858.793229
 20
61.85887
 30
0.0
 40
3.5
  1
KP大型ブロック　400C　（低擁壁用）
 41
0.657143
  7
STYLE1
 72
     5
 11
904.793229
 21
61.85887
 31
0.0
100
AcDbText
  0
LINE
  5
BF
330
1F
100
AcDbEntity
  8
GR1-1
  6
太い実線
 62
     4
100
AcDbLine
 10
911.793237
 20
66.861168
 30
0.0
 11
911.793237
 21
48.86117
 31
0.0
  0
LINE
  5
C0
330
1F
100
AcDbEntity
  8
GR1-1
  6
太い実線
 62
     4
100
AcDbLine
 10
836.793212
 20
48.86117
 30
0.0
 11
911.793237
 21
48.86117
 31
0.0
  0
LINE
  5
C1
330
1F
100
AcDbEntity
  8
GR1-1
  6
細い実線
 62
     7
100
AcDbLine
 10
822.145684
 20
204.25905
 30
0.0
 11
807.732903
 21
204.25905
 31
0.0
  0
TEXT
  5
C2
330
1F
100
AcDbEntity
  8
GR1-1
  6
細い実線
 62
     7
100
AcDbText
 10
808.706185
 20
204.259049
 30
0.0
 40
3.0
  1
平　面　図
 41
0.851556
  7
STYLE1
 72
     5
 11
821.479518
 21
204.259049
 31
0.0
100
AcDbText
  0
LINE
  5
C3
330
1F
100
AcDbEntity
  8
GR1-1
  6
細い実線
 62
     7
100
AcDbLine
 10
847.925158
 20
148.212251
 30
0.0
 11
829.285326
 21
148.212251
 31
0.0
  0
TEXT
  5
C4
330
1F
100
AcDbEntity
  8
GR1-1
  6
細い実線
 62
     7
100
AcDbText
 10
830.11862
 20
148.212256
 30
0.0
 40
3.0
  1
Ａ－Ａ断面図
 41
0.933333
  7
STYLE1
 72
     5
 11
846.91862
 21
148.212256
 31
0.0
100
AcDbText
  0
LINE
  5
C5
330
1F
100
AcDbEntity
  8
GR1-1
  6
細い実線
 62
     7
100
AcDbLine
 10
785.260349
 20
147.950055
 30
0.0
 11
771.13725
 21
147.950055
 31
0.0
  0
TEXT
  5
C6
330
1F
100
AcDbEntity
  8
GR1-1
  6
細い実線
 62
     7
100
AcDbText
 10
772.110547
 20
147.950049
 30
0.0
 40
3.0
  1
正　面　図
 41
0.851556
  7
STYLE1
 72
     5
 11
784.88388
 21
147.950049
 31
0.0
100
AcDbText
  0
LINE
  5
C7
330
1F
100
AcDbEntity
  8
GR1-1
  6
細い実線
 62
     7
100
AcDbLine
 10
718.924798
 20
151.096405
 30
0.0
 11
705.426618
 21
151.096405
 31
0.0
  0
TEXT
  5
C8
330
1F
100
AcDbEntity
  8
GR1-1
  6
細い実線
 62
     7
100
AcDbText
 10
706.39987
 20
151.096403
 30
0.0
 40
3.0
  1
側　面　図
 41
0.851556
  7
STYLE1
 72
     5
 11
719.173203
 21
151.096403
 31
0.0
100
AcDbText
  0
LINE
  5
C9
330
1F
100
AcDbEntity
  8
GR1-1
  6
細い実線
 62
     7
100
AcDbLine
 10
759.304501
 20
205.021345
 30
0.0
 11
739.759425
 21
205.021345
 31
0.0
  0
TEXT
  5
CA
330
1F
100
AcDbEntity
  8
GR1-1
  6
細い実線
 62
     7
100
AcDbText
 10
740.732682
 20
205.021338
 30
0.0
 40
3.0
  1
正面図（模様部）
 41
0.851556
  7
STYLE1
 72
     5
 11
761.170015
 21
205.021338
 31
0.0
100
AcDbText
  0
LINE
  5
CB
330
1F
100
AcDbEntity
  8
GR1-1
  6
極太の実線
 62
     3
100
AcDbLine
 10
725.650078
 20
181.285419
 30
0.0
 11
746.483411
 21
181.285419
 31
0.0
  0
LINE
  5
CC
330
1F
100
AcDbEntity
  8
GR1-1
  6
極太の実線
 62
     3
100
AcDbLine
 10
725.650078
 20
168.512085
 30
0.0
 11
746.935254
 21
168.512085
 31
0.0
  0
LINE
  5
CD
330
1F
100
AcDbEntity
  8
GR1-1
  6
極太の実線
 62
     3
100
AcDbLine
 10
767.316745
 20
181.285419
 30
0.0
 11
746.483411
 21
181.285419
 31
0.0
  0
LINE
  5
CE
330
1F
100
AcDbEntity
  8
GR1-1
  6
極太の実線
 62
     3
100
AcDbLine
 10
767.316745
 20
168.512085
 30
0.0
 11
746.935254
 21
168.512085
 31
0.0
  0
LINE
  5
CF
330
1F
100
AcDbEntity
  8
GR1-1
  6
極太の実線
 62
     3
100
AcDbLine
 10
725.650078
 20
168.512085
 30
0.0
 11
725.650078
 21
181.285419
 31
0.0
  0
LINE
  5
D0
330
1F
100
AcDbEntity
  8
GR1-1
  6
極太の実線
 62
     3
100
AcDbLine
 10
767.316745
 20
168.512085
 30
0.0
 11
767.316745
 21
181.285419
 31
0.0
  0
INSERT
  5
D4
330
1F
100
AcDbEntity
  8
0
100
AcDbBlockReference
  2
BLKF021
 10
0.0
 20
0.0
 30
0.0
  0
INSERT
  5
E2
330
1F
100
AcDbEntity
  8
0
100
AcDbBlockReference
  2
BLKF022
 10
0.0
 20
0.0
 30
0.0
  0
INSERT
  5
F0
330
1F
100
AcDbEntity
  8
0
100
AcDbBlockReference
  2
BLKF023
 10
0.0
 20
0.0
 30
0.0
  0
INSERT
  5
FE
330
1F
100
AcDbEntity
  8
0
100
AcDbBlockReference
  2
BLKF024
 10
0.0
 20
0.0
 30
0.0
  0
INSERT
  5
10B
330
1F
100
AcDbEntity
  8
0
100
AcDbBlockReference
  2
BLKF025
 10
0.0
 20
0.0
 30
0.0
  0
INSERT
  5
118
330
1F
100
AcDbEntity
  8
0
100
AcDbBlockReference
  2
BLKF026
 10
0.0
 20
0.0
 30
0.0
  0
INSERT
  5
125
330
1F
100
AcDbEntity
  8
0
100
AcDbBlockReference
  2
BLKF027
 10
0.0
 20
0.0
 30
0.0
  0
LINE
  5
12F
330
1F
100
AcDbEntity
  8
GR1-1
  6
極太の実線
 62
     3
100
AcDbLine
 10
739.900078
 20
181.285419
 30
0.0
 11
736.233411
 21
181.285419
 31
0.0
  0
LINE
  5
130
330
1F
100
AcDbEntity
  8
GR1-1
  6
極太の実線
 62
     3
100
AcDbLine
 10
736.233411
 20
181.285419
 30
0.0
 11
736.677856
 21
184.618752
 31
0.0
  0
LINE
  5
131
330
1F
100
AcDbEntity
  8
GR1-1
  6
極太の実線
 62
     3
100
AcDbLine
 10
739.455634
 20
184.618752
 30
0.0
 11
739.900078
 21
181.285419
 31
0.0
  0
LINE
  5
132
330
1F
100
AcDbEntity
  8
GR1-1
  6
極太の実線
 62
     3
100
AcDbLine
 10
739.455634
 20
184.618752
 30
0.0
 11
736.677856
 21
184.618752
 31
0.0
  0
LINE
  5
133
330
1F
100
AcDbEntity
  8
GR1-1
  6
極太の実線
 62
     3
100
AcDbLine
 10
756.733411
 20
181.285419
 30
0.0
 11
753.066745
 21
181.285419
 31
0.0
  0
LINE
  5
134
330
1F
100
AcDbEntity
  8
GR1-1
  6
極太の実線
 62
     3
100
AcDbLine
 10
753.066745
 20
181.285419
 30
0.0
 11
753.511189
 21
184.618752
 31
0.0
  0
LINE
  5
135
330
1F
100
AcDbEntity
  8
GR1-1
  6
極太の実線
 62
     3
100
AcDbLine
 10
756.288967
 20
184.618752
 30
0.0
 11
756.733411
 21
181.285419
 31
0.0
  0
LINE
  5
136
330
1F
100
AcDbEntity
  8
GR1-1
  6
極太の実線
 62
     3
100
AcDbLine
 10
756.288967
 20
184.618752
 30
0.0
 11
753.511189
 21
184.618752
 31
0.0
  0
INSERT
  5
13A
330
1F
100
AcDbEntity
  8
0
100
AcDbBlockReference
  2
BLKF028
 10
0.0
 20
0.0
 30
0.0
  0
LINE
  5
144
330
1F
100
AcDbEntity
  8
GR1-1
  6
細い実線
 62
     7
100
AcDbLine
 10
754.4943
 20
180.002888
 30
0.0
 11
755.865352
 21
176.448307
 31
0.0
  0
LINE
  5
145
330
1F
100
AcDbEntity
  8
GR1-1
  6
細い実線
 62
     7
100
AcDbLine
 10
762.942267
 20
173.504781
 30
0.0
 11
758.008519
 21
171.654626
 31
0.0
  0
LINE
  5
146
330
1F
100
AcDbEntity
  8
GR1-1
  6
細い実線
 62
     7
100
AcDbLine
 10
759.611987
 20
170.976236
 30
0.0
 11
757.885175
 21
170.051158
 31
0.0
  0
LINE
  5
147
330
1F
100
AcDbEntity
  8
GR1-1
  6
細い実線
 62
     7
100
AcDbLine
 10
758.008519
 20
171.654626
 30
0.0
 11
757.905471
 21
174.230816
 31
0.0
  0
LINE
  5
148
330
1F
100
AcDbEntity
  8
GR1-1
  6
細い実線
 62
     7
100
AcDbLine
 10
755.865352
 20
176.448307
 30
0.0
 11
757.905471
 21
174.230816
 31
0.0
  0
LINE
  5
149
330
1F
100
AcDbEntity
  8
GR1-1
  6
細い実線
 62
     7
100
AcDbLine
 10
741.412113
 20
175.666422
 30
0.0
 11
736.236595
 21
171.317315
 31
0.0
  0
LINE
  5
14A
330
1F
100
AcDbEntity
  8
GR1-1
  6
細い実線
 62
     7
100
AcDbLine
 10
741.607663
 20
171.345675
 30
0.0
 11
740.997746
 21
173.456467
 31
0.0
  0
LINE
  5
14B
330
1F
100
AcDbEntity
  8
GR1-1
  6
細い実線
 62
     7
100
AcDbLine
 10
740.997746
 20
173.456467
 30
0.0
 11
744.588924
 21
176.840461
 31
0.0
  0
LINE
  5
14C
330
1F
100
AcDbEntity
  8
GR1-1
  6
細い実線
 62
     7
100
AcDbLine
 10
736.236595
 20
171.317315
 30
0.0
 11
730.655097
 21
171.820153
 31
0.0
  0
LINE
  5
14D
330
1F
100
AcDbEntity
  8
GR1-1
  6
細い実線
 62
     7
100
AcDbLine
 10
767.316745
 20
172.055485
 30
0.0
 11
765.546692
 21
174.167469
 31
0.0
  0
LINE
  5
14E
330
1F
100
AcDbEntity
  8
GR1-1
  6
細い実線
 62
     7
100
AcDbLine
 10
762.05432
 20
170.817642
 30
0.0
 11
759.611987
 21
170.976236
 31
0.0
  0
LINE
  5
14F
330
1F
100
AcDbEntity
  8
GR1-1
  6
細い実線
 62
     7
100
AcDbLine
 10
762.05432
 20
170.817642
 30
0.0
 11
765.546692
 21
174.167469
 31
0.0
  0
LINE
  5
150
330
1F
100
AcDbEntity
  8
GR1-1
  6
細い実線
 62
     7
100
AcDbLine
 10
767.316745
 20
174.211025
 30
0.0
 11
766.087957
 21
175.118907
 31
0.0
  0
LINE
  5
151
330
1F
100
AcDbEntity
  8
GR1-1
  6
細い実線
 62
     7
100
AcDbLine
 10
766.087957
 20
175.118907
 30
0.0
 11
766.2437
 21
175.936556
 31
0.0
  0
LINE
  5
152
330
1F
100
AcDbEntity
  8
GR1-1
  6
細い実線
 62
     7
100
AcDbLine
 10
732.169151
 20
169.259797
 30
0.0
 11
730.127296
 21
171.127348
 31
0.0
  0
LINE
  5
153
330
1F
100
AcDbEntity
  8
GR1-1
  6
細い実線
 62
     7
100
AcDbLine
 10
744.588924
 20
176.840461
 30
0.0
 11
751.868191
 21
178.533595
 31
0.0
  0
LINE
  5
154
330
1F
100
AcDbEntity
  8
GR1-1
  6
細い実線
 62
     7
100
AcDbLine
 10
753.926168
 20
178.282622
 30
0.0
 11
755.662233
 21
174.620237
 31
0.0
  0
LINE
  5
155
330
1F
100
AcDbEntity
  8
GR1-1
  6
細い実線
 62
     7
100
AcDbLine
 10
751.868191
 20
178.533595
 30
0.0
 11
753.926168
 21
178.282622
 31
0.0
  0
LINE
  5
156
330
1F
100
AcDbEntity
  8
GR1-1
  6
細い実線
 62
     7
100
AcDbLine
 10
729.788249
 20
174.532598
 30
0.0
 11
730.655097
 21
171.820153
 31
0.0
  0
LINE
  5
157
330
1F
100
AcDbEntity
  8
GR1-1
  6
細い実線
 62
     7
100
AcDbLine
 10
730.127296
 20
171.127348
 30
0.0
 11
727.652754
 21
175.349111
 31
0.0
  0
LINE
  5
158
330
1F
100
AcDbEntity
  8
GR1-1
  6
細い実線
 62
     7
100
AcDbLine
 10
727.652754
 20
175.349111
 30
0.0
 11
728.986066
 21
180.30141
 31
0.0
  0
LINE
  5
159
330
1F
100
AcDbEntity
  8
GR1-1
  6
細い実線
 62
     7
100
AcDbLine
 10
741.607663
 20
171.345675
 30
0.0
 11
746.369734
 21
169.256671
 31
0.0
  0
LINE
  5
15A
330
1F
100
AcDbEntity
  8
GR1-1
  6
細い実線
 62
     7
100
AcDbLine
 10
743.668962
 20
178.677969
 30
0.0
 11
744.045814
 21
177.484605
 31
0.0
  0
LINE
  5
15B
330
1F
100
AcDbEntity
  8
GR1-1
  6
細い実線
 62
     7
100
AcDbLine
 10
734.379409
 20
170.604166
 30
0.0
 11
733.815005
 21
169.3953
 31
0.0
  0
LINE
  5
15C
330
1F
100
AcDbEntity
  8
GR1-1
  6
細い実線
 62
     7
100
AcDbLine
 10
734.379409
 20
170.604166
 30
0.0
 11
740.54154
 21
170.304387
 31
0.0
  0
LINE
  5
15D
330
1F
100
AcDbEntity
  8
GR1-1
  6
細い実線
 62
     7
100
AcDbLine
 10
752.987301
 20
179.612546
 30
0.0
 11
747.947086
 21
179.17761
 31
0.0
  0
LINE
  5
15E
330
1F
100
AcDbEntity
  8
GR1-1
  6
細い実線
 62
     7
100
AcDbLine
 10
744.045814
 20
177.484605
 30
0.0
 11
747.947086
 21
179.17761
 31
0.0
  0
LINE
  5
15F
330
1F
100
AcDbEntity
  8
GR1-1
  6
細い実線
 62
     7
100
AcDbLine
 10
732.169151
 20
168.520786
 30
0.0
 11
732.169151
 21
169.259797
 31
0.0
  0
LINE
  5
160
330
1F
100
AcDbEntity
  8
GR1-1
  6
細い実線
 62
     7
100
AcDbLine
 10
733.815005
 20
169.3953
 30
0.0
 11
733.757471
 21
168.520786
 31
0.0
  0
LINE
  5
161
330
1F
100
AcDbEntity
  8
GR1-1
  6
細い実線
 62
     7
100
AcDbLine
 10
740.54154
 20
170.304387
 30
0.0
 11
744.060536
 21
168.520786
 31
0.0
  0
LINE
  5
162
330
1F
100
AcDbEntity
  8
GR1-1
  6
細い実線
 62
     7
100
AcDbLine
 10
746.369734
 20
169.256671
 30
0.0
 11
746.790239
 21
168.520786
 31
0.0
  0
LINE
  5
163
330
1F
100
AcDbEntity
  8
GR1-1
  6
細い実線
 62
     7
100
AcDbLine
 10
755.662233
 20
174.620237
 30
0.0
 11
756.252503
 21
168.520786
 31
0.0
  0
LINE
  5
164
330
1F
100
AcDbEntity
  8
GR1-1
  6
細い実線
 62
     7
100
AcDbLine
 10
757.885175
 20
170.051158
 30
0.0
 11
757.885175
 21
168.520786
 31
0.0
  0
LINE
  5
165
330
1F
100
AcDbEntity
  8
GR1-1
  6
細い実線
 62
     7
100
AcDbLine
 10
766.43701
 20
181.285419
 30
0.0
 11
766.298064
 21
180.976071
 31
0.0
  0
LINE
  5
166
330
1F
100
AcDbEntity
  8
GR1-1
  6
細い実線
 62
     7
100
AcDbLine
 10
766.298064
 20
180.976071
 30
0.0
 11
762.942267
 21
173.504781
 31
0.0
  0
LINE
  5
167
330
1F
100
AcDbEntity
  8
GR1-1
  6
細い実線
 62
     7
100
AcDbLine
 10
766.2437
 20
175.936556
 30
0.0
 11
767.316745
 21
178.829371
 31
0.0
  0
LINE
  5
168
330
1F
100
AcDbEntity
  8
GR1-1
  6
細い実線
 62
     7
100
AcDbLine
 10
753.458187
 20
180.945617
 30
0.0
 11
752.994228
 21
181.285419
 31
0.0
  0
LINE
  5
169
330
1F
100
AcDbEntity
  8
GR1-1
  6
細い実線
 62
     7
100
AcDbLine
 10
752.987301
 20
179.612546
 30
0.0
 11
753.480491
 21
180.976071
 31
0.0
  0
LINE
  5
16A
330
1F
100
AcDbEntity
  8
GR1-1
  6
細い実線
 62
     7
100
AcDbLine
 10
755.833427
 20
181.285419
 30
0.0
 11
754.4943
 21
180.002888
 31
0.0
  0
LINE
  5
16B
330
1F
100
AcDbEntity
  8
GR1-1
  6
細い実線
 62
     7
100
AcDbLine
 10
744.372559
 20
181.285419
 30
0.0
 11
743.668962
 21
178.677969
 31
0.0
  0
LINE
  5
16C
330
1F
100
AcDbEntity
  8
GR1-1
  6
細い実線
 62
     7
100
AcDbLine
 10
743.24209
 20
181.285419
 30
0.0
 11
741.412113
 21
175.666422
 31
0.0
  0
LINE
  5
16D
330
1F
100
AcDbEntity
  8
GR1-1
  6
細い実線
 62
     7
100
AcDbLine
 10
730.15623
 20
181.285419
 30
0.0
 11
729.788249
 21
174.532598
 31
0.0
  0
LINE
  5
16E
330
1F
100
AcDbEntity
  8
GR1-1
  6
細い実線
 62
     7
100
AcDbLine
 10
728.986066
 20
180.30141
 30
0.0
 11
728.388269
 21
180.976071
 31
0.0
  0
LINE
  5
16F
330
1F
100
AcDbEntity
  8
GR1-1
  6
細い実線
 62
     7
100
AcDbLine
 10
728.388269
 20
180.976071
 30
0.0
 11
725.650078
 21
180.499624
 31
0.0
  0
LINE
  5
170
330
1F
100
AcDbEntity
  8
GR1-1
  6
極太の実線
 62
     3
100
AcDbLine
 10
723.972179
 20
115.193696
 30
0.0
 11
720.140179
 21
127.96703
 31
0.0
  0
LINE
  5
171
330
1F
100
AcDbEntity
  8
GR1-1
  6
細い実線
 62
     7
100
AcDbLine
 10
721.406133
 20
118.52703
 30
0.0
 11
720.362103
 21
116.206961
 31
0.0
  0
LINE
  5
172
330
1F
100
AcDbEntity
  8
GR1-1
  6
細い実線
 62
     7
100
AcDbLine
 10
722.356133
 20
115.360363
 30
0.0
 11
720.362103
 21
116.206961
 31
0.0
  0
LINE
  5
173
330
1F
100
AcDbEntity
  8
GR1-1
  6
細い実線
 62
     7
100
AcDbLine
 10
720.362103
 20
116.206961
 30
0.0
 11
721.312103
 21
115.360363
 31
0.0
  0
LINE
  5
174
330
1F
100
AcDbEntity
  8
GR1-1
  6
細い実線
 62
     7
100
AcDbLine
 10
721.406133
 20
118.52703
 30
0.0
 11
720.362103
 21
118.52703
 31
0.0
  0
LINE
  5
175
330
1F
100
AcDbEntity
  8
GR1-1
  6
細い実線
 62
     7
100
AcDbLine
 10
720.362103
 20
118.52703
 30
0.0
 11
720.362103
 21
116.206961
 31
0.0
  0
LINE
  5
176
330
1F
100
AcDbEntity
  8
GR1-1
  6
細い実線
 62
     7
100
AcDbLine
 10
721.312103
 20
115.360363
 30
0.0
 11
722.356133
 21
115.360363
 31
0.0
  0
LINE
  5
177
330
1F
100
AcDbEntity
  8
GR1-1
  6
細い実線
 62
     7
100
AcDbLine
 10
720.666082
 20
115.193696
 30
0.0
 11
716.834082
 21
127.96703
 31
0.0
  0
LINE
  5
178
330
1F
100
AcDbEntity
  8
GR1-1
  6
極太の実線
 62
     3
100
AcDbLine
 10
706.251771
 20
127.860363
 30
0.0
 11
710.051771
 21
115.193696
 31
0.0
  0
LINE
  5
179
330
1F
100
AcDbEntity
  8
GR1-1
  6
細い実線
 62
     7
100
AcDbLine
 10
709.557868
 20
127.860363
 30
0.0
 11
713.357868
 21
115.193696
 31
0.0
  0
LINE
  5
17A
330
1F
100
AcDbEntity
  8
GR1-1
  6
細い実線
 62
     7
100
AcDbLine
 10
712.661847
 20
115.193696
 30
0.0
 11
708.861847
 21
127.860363
 31
0.0
  0
LINE
  5
17B
330
1F
100
AcDbEntity
  8
GR1-1
  6
細い実線
 62
     7
100
AcDbLine
 10
717.530103
 20
127.96703
 30
0.0
 11
720.362103
 21
118.52703
 31
0.0
  0
LINE
  5
17C
330
1F
100
AcDbEntity
  8
GR1-1
  6
極太の実線
 62
     3
100
AcDbLine
 10
721.312103
 20
115.360363
 30
0.0
 11
721.362103
 21
115.193696
 31
0.0
  0
LINE
  5
17D
330
1F
100
AcDbEntity
  8
GR1-1
  6
極太の実線
 62
     3
100
AcDbLine
 10
707.817817
 20
127.860363
 30
0.0
 11
711.617817
 21
115.193696
 31
0.0
  0
LINE
  5
17E
330
1F
100
AcDbEntity
  8
GR1-1
  6
極太の実線
 62
     3
100
AcDbLine
 10
722.406133
 20
115.193696
 30
0.0
 11
718.574133
 21
127.96703
 31
0.0
  0
INSERT
  5
182
330
1F
100
AcDbEntity
  8
0
100
AcDbBlockReference
  2
BLKF029
 10
0.0
 20
0.0
 30
0.0
  0
INSERT
  5
18C
330
1F
100
AcDbEntity
  8
0
100
AcDbBlockReference
  2
BLKF030
 10
0.0
 20
0.0
 30
0.0
  0
INSERT
  5
19A
330
1F
100
AcDbEntity
  8
0
100
AcDbBlockReference
  2
BLKF031
 10
0.0
 20
0.0
 30
0.0
  0
INSERT
  5
1A7
330
1F
100
AcDbEntity
  8
0
100
AcDbBlockReference
  2
BLKF032
 10
0.0
 20
0.0
 30
0.0
  0
INSERT
  5
1B4
330
1F
100
AcDbEntity
  8
0
100
AcDbBlockReference
  2
BLKF033
 10
0.0
 20
0.0
 30
0.0
  0
INSERT
  5
1BD
330
1F
100
AcDbEntity
  8
0
100
AcDbBlockReference
  2
BLKF034
 10
0.0
 20
0.0
 30
0.0
  0
INSERT
  5
1CA
330
1F
100
AcDbEntity
  8
0
100
AcDbBlockReference
  2
BLKF035
 10
0.0
 20
0.0
 30
0.0
  0
INSERT
  5
1D8
330
1F
100
AcDbEntity
  8
0
100
AcDbBlockReference
  2
BLKF036
 10
0.0
 20
0.0
 30
0.0
  0
INSERT
  5
1E6
330
1F
100
AcDbEntity
  8
0
100
AcDbBlockReference
  2
BLKF037
 10
0.0
 20
0.0
 30
0.0
  0
INSERT
  5
1F4
330
1F
100
AcDbEntity
  8
0
100
AcDbBlockReference
  2
BLKF038
 10
0.0
 20
0.0
 30
0.0
  0
INSERT
  5
201
330
1F
100
AcDbEntity
  8
0
100
AcDbBlockReference
  2
BLKF039
 10
0.0
 20
0.0
 30
0.0
  0
INSERT
  5
20F
330
1F
100
AcDbEntity
  8
0
100
AcDbBlockReference
  2
BLKF040
 10
0.0
 20
0.0
 30
0.0
  0
INSERT
  5
21D
330
1F
100
AcDbEntity
  8
0
100
AcDbBlockReference
  2
BLKF041
 10
0.0
 20
0.0
 30
0.0
  0
INSERT
  5
22B
330
1F
100
AcDbEntity
  8
0
100
AcDbBlockReference
  2
BLKF042
 10
0.0
 20
0.0
 30
0.0
  0
INSERT
  5
238
330
1F
100
AcDbEntity
  8
0
100
AcDbBlockReference
  2
BLKF043
 10
0.0
 20
0.0
 30
0.0
  0
INSERT
  5
245
330
1F
100
AcDbEntity
  8
0
100
AcDbBlockReference
  2
BLKF044
 10
0.0
 20
0.0
 30
0.0
  0
INSERT
  5
252
330
1F
100
AcDbEntity
  8
0
100
AcDbBlockReference
  2
BLKF045
 10
0.0
 20
0.0
 30
0.0
  0
LINE
  5
25B
330
1F
100
AcDbEntity
  8
GR1-1
  6
極太の実線
 62
     3
100
AcDbLine
 10
723.972179
 20
115.193696
 30
0.0
 11
710.051771
 21
115.193696
 31
0.0
  0
LINE
  5
25C
330
1F
100
AcDbEntity
  8
GR1-1
  6
極太の実線
 62
     3
100
AcDbLine
 10
710.051771
 20
115.193696
 30
0.0
 11
706.251771
 21
127.860363
 31
0.0
  0
LINE
  5
25D
330
1F
100
AcDbEntity
  8
GR1-1
  6
極太の実線
 62
     3
100
AcDbLine
 10
720.140179
 20
127.96703
 30
0.0
 11
723.972179
 21
115.193696
 31
0.0
  0
LINE
  5
25E
330
1F
100
AcDbEntity
  8
GR1-1
  6
極太の実線
 62
     3
100
AcDbLine
 10
716.802748
 20
131.300363
 30
0.0
 11
716.832998
 21
127.96703
 31
0.0
  0
LINE
  5
25F
330
1F
100
AcDbEntity
  8
GR1-1
  6
極太の実線
 62
     3
100
AcDbLine
 10
711.324958
 20
127.96703
 30
0.0
 11
711.289402
 21
127.860363
 31
0.0
  0
LINE
  5
260
330
1F
100
AcDbEntity
  8
GR1-1
  6
極太の実線
 62
     3
100
AcDbLine
 10
706.251771
 20
127.860363
 30
0.0
 11
711.289402
 21
127.860363
 31
0.0
  0
LINE
  5
261
330
1F
100
AcDbEntity
  8
GR1-1
  6
極太の実線
 62
     3
100
AcDbLine
 10
711.900056
 20
123.53317
 30
0.0
 11
716.689187
 21
124.96991
 31
0.0
  0
LINE
  5
262
330
1F
100
AcDbEntity
  8
GR1-1
  6
極太の実線
 62
     3
100
AcDbLine
 10
716.689187
 20
124.96991
 30
0.0
 11
718.125927
 21
120.180778
 31
0.0
  0
LINE
  5
263
330
1F
100
AcDbEntity
  8
GR1-1
  6
極太の実線
 62
     3
100
AcDbLine
 10
718.125927
 20
120.180778
 30
0.0
 11
713.336795
 21
118.744039
 31
0.0
  0
LINE
  5
264
330
1F
100
AcDbEntity
  8
GR1-1
  6
極太の実線
 62
     3
100
AcDbLine
 10
713.336795
 20
118.744039
 30
0.0
 11
711.900056
 21
123.53317
 31
0.0
  0
LINE
  5
265
330
1F
100
AcDbEntity
  8
GR1-1
  6
極太の実線
 62
     3
100
AcDbLine
 10
720.140179
 20
127.96703
 30
0.0
 11
716.832998
 21
127.96703
 31
0.0
  0
LINE
  5
266
330
1F
100
AcDbEntity
  8
GR1-1
  6
細い実線
 62
     7
100
AcDbLine
 10
723.576367
 20
119.916941
 30
0.0
 11
723.576367
 21
120.060912
 31
0.0
  0
LINE
  5
267
330
1F
100
AcDbEntity
  8
GR1-1
  6
細い実線
 62
     7
100
AcDbLine
 10
723.576367
 20
120.060912
 30
0.0
 11
723.420398
 21
120.800765
 31
0.0
  0
LINE
  5
268
330
1F
100
AcDbEntity
  8
GR1-1
  6
細い実線
 62
     7
100
AcDbLine
 10
723.420398
 20
120.800765
 30
0.0
 11
722.640553
 21
123.448237
 31
0.0
  0
LINE
  5
269
330
1F
100
AcDbEntity
  8
GR1-1
  6
細い実線
 62
     7
100
AcDbLine
 10
722.640553
 20
123.448237
 30
0.0
 11
722.351304
 21
124.790876
 31
0.0
  0
LINE
  5
26A
330
1F
100
AcDbEntity
  8
GR1-1
  6
細い実線
 62
     7
100
AcDbLine
 10
722.351304
 20
124.790876
 30
0.0
 11
722.118513
 21
125.504173
 31
0.0
  0
LINE
  5
26B
330
1F
100
AcDbEntity
  8
GR1-1
  6
細い実線
 62
     7
100
AcDbLine
 10
722.118513
 20
125.504173
 30
0.0
 11
721.826031
 21
126.438324
 31
0.0
  0
LINE
  5
26C
330
1F
100
AcDbEntity
  8
GR1-1
  6
細い実線
 62
     7
100
AcDbLine
 10
721.826031
 20
126.438324
 30
0.0
 11
721.476844
 21
127.482901
 31
0.0
  0
LINE
  5
26D
330
1F
100
AcDbEntity
  8
GR1-1
  6
細い実線
 62
     7
100
AcDbLine
 10
721.476844
 20
127.482901
 30
0.0
 11
721.244052
 21
127.814181
 31
0.0
  0
LINE
  5
26E
330
1F
100
AcDbEntity
  8
GR1-1
  6
細い実線
 62
     7
100
AcDbLine
 10
721.244052
 20
127.814181
 30
0.0
 11
720.718779
 21
127.593327
 31
0.0
  0
LINE
  5
26F
330
1F
100
AcDbEntity
  8
GR1-1
  6
細い実線
 62
     7
100
AcDbLine
 10
723.576367
 20
119.916941
 30
0.0
 11
723.576367
 21
120.060912
 31
0.0
  0
LINE
  5
270
330
1F
100
AcDbEntity
  8
GR1-1
  6
細い実線
 62
     7
100
AcDbLine
 10
723.576367
 20
120.060912
 30
0.0
 11
723.420398
 21
120.800765
 31
0.0
  0
LINE
  5
271
330
1F
100
AcDbEntity
  8
GR1-1
  6
細い実線
 62
     7
100
AcDbLine
 10
723.420398
 20
120.800765
 30
0.0
 11
722.640553
 21
123.448237
 31
0.0
  0
LINE
  5
272
330
1F
100
AcDbEntity
  8
GR1-1
  6
細い実線
 62
     7
100
AcDbLine
 10
722.640553
 20
123.448237
 30
0.0
 11
722.351304
 21
124.790876
 31
0.0
  0
LINE
  5
273
330
1F
100
AcDbEntity
  8
GR1-1
  6
細い実線
 62
     7
100
AcDbLine
 10
722.351304
 20
124.790876
 30
0.0
 11
722.118513
 21
125.504173
 31
0.0
  0
LINE
  5
274
330
1F
100
AcDbEntity
  8
GR1-1
  6
細い実線
 62
     7
100
AcDbLine
 10
722.118513
 20
125.504173
 30
0.0
 11
721.826031
 21
126.438324
 31
0.0
  0
LINE
  5
275
330
1F
100
AcDbEntity
  8
GR1-1
  6
細い実線
 62
     7
100
AcDbLine
 10
721.826031
 20
126.438324
 30
0.0
 11
721.476844
 21
127.482901
 31
0.0
  0
LINE
  5
276
330
1F
100
AcDbEntity
  8
GR1-1
  6
細い実線
 62
     7
100
AcDbLine
 10
721.476844
 20
127.482901
 30
0.0
 11
721.244052
 21
127.814181
 31
0.0
  0
LINE
  5
277
330
1F
100
AcDbEntity
  8
GR1-1
  6
細い実線
 62
     7
100
AcDbLine
 10
721.244052
 20
127.814181
 30
0.0
 11
720.718779
 21
127.593327
 31
0.0
  0
LINE
  5
278
330
1F
100
AcDbEntity
  8
GR1-1
  6
細い実線
 62
     7
100
AcDbLine
 10
720.718779
 20
127.593327
 30
0.0
 11
720.233229
 21
127.656864
 31
0.0
  0
LINE
  5
279
330
1F
100
AcDbEntity
  8
GR1-1
  6
極太の実線
 62
     3
100
AcDbLine
 10
716.802748
 20
131.300363
 30
0.0
 11
712.436069
 21
131.300363
 31
0.0
  0
LINE
  5
27A
330
1F
100
AcDbEntity
  8
GR1-1
  6
極太の実線
 62
     3
100
AcDbLine
 10
711.324958
 20
127.96703
 30
0.0
 11
712.436069
 21
131.300363
 31
0.0
  0
LINE
  5
27B
330
1F
100
AcDbEntity
  8
GR1-1
  6
極太の実線
 62
     3
100
AcDbLine
 10
716.832998
 20
127.967022
 30
0.0
 11
716.832998
 21
127.96703
 31
0.0
  0
LINE
  5
27C
330
1F
100
AcDbEntity
  8
GR1-1
  6
細い実線
 62
     7
100
AcDbLine
 10
723.576367
 20
119.916941
 30
0.0
 11
723.802164
 21
119.388091
 31
0.0
  0
LINE
  5
27D
330
1F
100
AcDbEntity
  8
GR1-1
  6
細い実線
 62
     7
100
AcDbLine
 10
723.802164
 20
119.388091
 30
0.0
 11
724.137209
 21
118.410874
 31
0.0
  0
LINE
  5
27E
330
1F
100
AcDbEntity
  8
GR1-1
  6
細い実線
 62
     7
100
AcDbLine
 10
724.137209
 20
118.410874
 30
0.0
 11
724.611857
 21
117.126533
 31
0.0
  0
LINE
  5
27F
330
1F
100
AcDbEntity
  8
GR1-1
  6
細い実線
 62
     7
100
AcDbLine
 10
724.611857
 20
117.126533
 30
0.0
 11
724.639778
 21
116.400601
 31
0.0
  0
LINE
  5
280
330
1F
100
AcDbEntity
  8
GR1-1
  6
細い実線
 62
     7
100
AcDbLine
 10
724.639778
 20
116.400601
 30
0.0
 11
724.611857
 21
116.037635
 31
0.0
  0
LINE
  5
281
330
1F
100
AcDbEntity
  8
GR1-1
  6
細い実線
 62
     7
100
AcDbLine
 10
724.611857
 20
116.037635
 30
0.0
 11
724.19305
 21
115.814271
 31
0.0
  0
LINE
  5
282
330
1F
100
AcDbEntity
  8
GR1-1
  6
細い実線
 62
     7
100
AcDbLine
 10
724.220971
 20
115.842192
 30
0.0
 11
723.861112
 21
115.563919
 31
0.0
  0
LINE
  5
283
330
1F
100
AcDbEntity
  8
GR1-1
  6
細い実線
 62
     7
100
AcDbLine
 10
712.666317
 20
117.498865
 30
0.0
 11
719.371101
 21
119.5103
 31
0.0
  0
LINE
  5
284
330
1F
100
AcDbEntity
  8
GR1-1
  6
極太の実線
 62
     3
100
AcDbLine
 10
719.371101
 20
119.5103
 30
0.0
 11
717.359666
 21
126.215084
 31
0.0
  0
LINE
  5
285
330
1F
100
AcDbEntity
  8
GR1-1
  6
細い実線
 62
     7
100
AcDbLine
 10
717.359666
 20
126.215084
 30
0.0
 11
710.654882
 21
124.203649
 31
0.0
  0
LINE
  5
286
330
1F
100
AcDbEntity
  8
GR1-1
  6
極太の実線
 62
     3
100
AcDbLine
 10
710.654882
 20
124.203649
 30
0.0
 11
712.666317
 21
117.498865
 31
0.0
  0
LINE
  5
287
330
1F
100
AcDbEntity
  8
GR1-1
  6
細い実線
 62
     7
100
AcDbLine
 10
717.359666
 20
126.215084
 30
0.0
 11
716.689187
 21
124.96991
 31
0.0
  0
LINE
  5
288
330
1F
100
AcDbEntity
  8
GR1-1
  6
細い実線
 62
     7
100
AcDbLine
 10
718.125927
 20
120.180778
 30
0.0
 11
719.371101
 21
119.5103
 31
0.0
  0
LINE
  5
289
330
1F
100
AcDbEntity
  8
GR1-1
  6
細い実線
 62
     7
100
AcDbLine
 10
713.336795
 20
118.744039
 30
0.0
 11
712.666317
 21
117.498865
 31
0.0
  0
LINE
  5
28A
330
1F
100
AcDbEntity
  8
GR1-1
  6
細い実線
 62
     7
100
AcDbLine
 10
711.900056
 20
123.53317
 30
0.0
 11
710.654882
 21
124.203649
 31
0.0
  0
INSERT
  5
28E
330
1F
100
AcDbEntity
  8
0
100
AcDbBlockReference
  2
BLKF046
 10
0.0
 20
0.0
 30
0.0
  0
INSERT
  5
29C
330
1F
100
AcDbEntity
  8
0
100
AcDbBlockReference
  2
BLKF047
 10
0.0
 20
0.0
 30
0.0
  0
INSERT
  5
2AA
330
1F
100
AcDbEntity
  8
0
100
AcDbBlockReference
  2
BLKF048
 10
0.0
 20
0.0
 30
0.0
  0
LINE
  5
2B6
330
1F
100
AcDbEntity
  8
GR1-1
  6
細い点線
 62
     7
100
AcDbLine
 10
768.095961
 20
115.193696
 30
0.0
 11
768.262627
 21
115.593696
 31
0.0
  0
LINE
  5
2B7
330
1F
100
AcDbEntity
  8
GR1-1
  6
細い点線
 62
     7
100
AcDbLine
 10
768.262627
 20
115.593696
 30
0.0
 11
769.595961
 21
115.593696
 31
0.0
  0
LINE
  5
2B8
330
1F
100
AcDbEntity
  8
GR1-1
  6
細い点線
 62
     7
100
AcDbLine
 10
769.595961
 20
115.593696
 30
0.0
 11
769.762627
 21
115.193696
 31
0.0
  0
LINE
  5
2B9
330
1F
100
AcDbEntity
  8
GR1-1
  6
細い点線
 62
     7
100
AcDbLine
 10
786.595961
 20
115.193696
 30
0.0
 11
786.429294
 21
115.593696
 31
0.0
  0
LINE
  5
2BA
330
1F
100
AcDbEntity
  8
GR1-1
  6
細い点線
 62
     7
100
AcDbLine
 10
786.429294
 20
115.593696
 30
0.0
 11
785.095961
 21
115.593696
 31
0.0
  0
LINE
  5
2BB
330
1F
100
AcDbEntity
  8
GR1-1
  6
細い点線
 62
     7
100
AcDbLine
 10
785.095961
 20
115.593696
 30
0.0
 11
784.929294
 21
115.193696
 31
0.0
  0
LINE
  5
2BC
330
1F
100
AcDbEntity
  8
GR1-1
  6
極太の実線
 62
     3
100
AcDbLine
 10
798.179294
 20
115.193696
 30
0.0
 11
777.345961
 21
115.193696
 31
0.0
  0
LINE
  5
2BD
330
1F
100
AcDbEntity
  8
GR1-1
  6
極太の実線
 62
     3
100
AcDbLine
 10
798.179294
 20
115.193696
 30
0.0
 11
798.179294
 21
127.860363
 31
0.0
  0
LINE
  5
2BE
330
1F
100
AcDbEntity
  8
GR1-1
  6
極太の実線
 62
     3
100
AcDbLine
 10
798.179294
 20
127.860363
 30
0.0
 11
777.345961
 21
127.860363
 31
0.0
  0
LINE
  5
2BF
330
1F
100
AcDbEntity
  8
GR1-1
  6
極太の実線
 62
     3
100
AcDbLine
 10
756.512627
 20
127.860363
 30
0.0
 11
777.345961
 21
127.860363
 31
0.0
  0
LINE
  5
2C0
330
1F
100
AcDbEntity
  8
GR1-1
  6
極太の実線
 62
     3
100
AcDbLine
 10
756.512627
 20
115.193696
 30
0.0
 11
777.345961
 21
115.193696
 31
0.0
  0
LINE
  5
2C1
330
1F
100
AcDbEntity
  8
GR1-1
  6
極太の実線
 62
     3
100
AcDbLine
 10
756.512627
 20
115.193696
 30
0.0
 11
756.512627
 21
127.860363
 31
0.0
  0
INSERT
  5
2C5
330
1F
100
AcDbEntity
  8
0
100
AcDbBlockReference
  2
BLKF049
 10
0.0
 20
0.0
 30
0.0
  0
INSERT
  5
2D3
330
1F
100
AcDbEntity
  8
0
100
AcDbBlockReference
  2
BLKF050
 10
0.0
 20
0.0
 30
0.0
  0
INSERT
  5
2E0
330
1F
100
AcDbEntity
  8
0
100
AcDbBlockReference
  2
BLKF051
 10
0.0
 20
0.0
 30
0.0
  0
INSERT
  5
2EE
330
1F
100
AcDbEntity
  8
0
100
AcDbBlockReference
  2
BLKF052
 10
0.0
 20
0.0
 30
0.0
  0
INSERT
  5
2FC
330
1F
100
AcDbEntity
  8
0
100
AcDbBlockReference
  2
BLKF053
 10
0.0
 20
0.0
 30
0.0
  0
INSERT
  5
30A
330
1F
100
AcDbEntity
  8
0
100
AcDbBlockReference
  2
BLKF054
 10
0.0
 20
0.0
 30
0.0
  0
INSERT
  5
317
330
1F
100
AcDbEntity
  8
0
100
AcDbBlockReference
  2
BLKF055
 10
0.0
 20
0.0
 30
0.0
  0
INSERT
  5
324
330
1F
100
AcDbEntity
  8
0
100
AcDbBlockReference
  2
BLKF056
 10
0.0
 20
0.0
 30
0.0
  0
INSERT
  5
331
330
1F
100
AcDbEntity
  8
0
100
AcDbBlockReference
  2
BLKF057
 10
0.0
 20
0.0
 30
0.0
  0
INSERT
  5
33E
330
1F
100
AcDbEntity
  8
0
100
AcDbBlockReference
  2
BLKF058
 10
0.0
 20
0.0
 30
0.0
  0
INSERT
  5
34C
330
1F
100
AcDbEntity
  8
0
100
AcDbBlockReference
  2
BLKF059
 10
0.0
 20
0.0
 30
0.0
  0
INSERT
  5
35A
330
1F
100
AcDbEntity
  8
0
100
AcDbBlockReference
  2
BLKF060
 10
0.0
 20
0.0
 30
0.0
  0
LINE
  5
364
330
1F
100
AcDbEntity
  8
GR1-1
  6
極太の実線
 62
     3
100
AcDbLine
 10
770.762627
 20
127.860363
 30
0.0
 11
770.313541
 21
131.300363
 31
0.0
  0
LINE
  5
365
330
1F
100
AcDbEntity
  8
GR1-1
  6
極太の実線
 62
     3
100
AcDbLine
 10
767.540405
 20
131.300363
 30
0.0
 11
767.081739
 21
127.860363
 31
0.0
  0
LINE
  5
366
330
1F
100
AcDbEntity
  8
GR1-1
  6
極太の実線
 62
     3
100
AcDbLine
 10
783.929294
 20
127.860363
 30
0.0
 11
784.37838
 21
131.300363
 31
0.0
  0
LINE
  5
367
330
1F
100
AcDbEntity
  8
GR1-1
  6
極太の実線
 62
     3
100
AcDbLine
 10
787.151516
 20
131.300363
 30
0.0
 11
787.610183
 21
127.860363
 31
0.0
  0
LINE
  5
368
330
1F
100
AcDbEntity
  8
GR1-1
  6
極太の実線
 62
     3
100
AcDbLine
 10
767.540405
 20
131.300363
 30
0.0
 11
770.313541
 21
131.300363
 31
0.0
  0
LINE
  5
369
330
1F
100
AcDbEntity
  8
GR1-1
  6
極太の実線
 62
     3
100
AcDbLine
 10
784.37838
 20
131.300363
 30
0.0
 11
787.151516
 21
131.300363
 31
0.0
  0
INSERT
  5
36D
330
1F
100
AcDbEntity
  8
0
100
AcDbBlockReference
  2
BLKF061
 10
0.0
 20
0.0
 30
0.0
  0
LINE
  5
378
330
1F
100
AcDbEntity
  8
GR1-1
  6
極太の実線
 62
     3
100
AcDbLine
 10
828.420008
 20
115.193696
 30
0.0
 11
842.340417
 21
115.193696
 31
0.0
  0
LINE
  5
379
330
1F
100
AcDbEntity
  8
GR1-1
  6
極太の実線
 62
     3
100
AcDbLine
 10
842.340417
 20
115.193696
 30
0.0
 11
846.140417
 21
127.860363
 31
0.0
  0
LINE
  5
37A
330
1F
100
AcDbEntity
  8
GR1-1
  6
極太の実線
 62
     3
100
AcDbLine
 10
832.252008
 20
127.96703
 30
0.0
 11
828.420008
 21
115.193696
 31
0.0
  0
LINE
  5
37B
330
1F
100
AcDbEntity
  8
GR1-1
  6
極太の実線
 62
     3
100
AcDbLine
 10
844.748376
 20
127.860363
 30
0.0
 11
841.904345
 21
121.860363
 31
0.0
  0
LINE
  5
37C
330
1F
100
AcDbEntity
  8
GR1-1
  6
極太の実線
 62
     3
100
AcDbLine
 10
841.904345
 20
121.860363
 30
0.0
 11
840.948376
 21
115.193696
 31
0.0
  0
LINE
  5
37D
330
1F
100
AcDbEntity
  8
GR1-1
  6
極太の実線
 62
     3
100
AcDbLine
 10
829.812049
 20
115.193696
 30
0.0
 11
832.85608
 21
121.860363
 31
0.0
  0
LINE
  5
37E
330
1F
100
AcDbEntity
  8
GR1-1
  6
極太の実線
 62
     3
100
AcDbLine
 10
832.85608
 20
121.860363
 30
0.0
 11
833.644049
 21
127.96703
 31
0.0
  0
LINE
  5
37F
330
1F
100
AcDbEntity
  8
GR1-1
  6
極太の実線
 62
     3
100
AcDbLine
 10
835.589439
 20
131.300363
 30
0.0
 11
835.55919
 21
127.96703
 31
0.0
  0
LINE
  5
380
330
1F
100
AcDbEntity
  8
GR1-1
  6
極太の実線
 62
     3
100
AcDbLine
 10
841.06723
 20
127.96703
 30
0.0
 11
841.102785
 21
127.860363
 31
0.0
  0
LINE
  5
381
330
1F
100
AcDbEntity
  8
GR1-1
  6
極太の実線
 62
     3
100
AcDbLine
 10
846.140417
 20
127.860363
 30
0.0
 11
841.102785
 21
127.860363
 31
0.0
  0
LINE
  5
382
330
1F
100
AcDbEntity
  8
GR1-1
  6
極太の実線
 62
     3
100
AcDbLine
 10
840.492131
 20
123.53317
 30
0.0
 11
835.703
 21
124.96991
 31
0.0
  0
LINE
  5
383
330
1F
100
AcDbEntity
  8
GR1-1
  6
極太の実線
 62
     3
100
AcDbLine
 10
835.703
 20
124.96991
 30
0.0
 11
834.266261
 21
120.180778
 31
0.0
  0
LINE
  5
384
330
1F
100
AcDbEntity
  8
GR1-1
  6
極太の実線
 62
     3
100
AcDbLine
 10
834.266261
 20
120.180778
 30
0.0
 11
839.055392
 21
118.744039
 31
0.0
  0
LINE
  5
385
330
1F
100
AcDbEntity
  8
GR1-1
  6
極太の実線
 62
     3
100
AcDbLine
 10
839.055392
 20
118.744039
 30
0.0
 11
840.492131
 21
123.53317
 31
0.0
  0
LINE
  5
386
330
1F
100
AcDbEntity
  8
GR1-1
  6
極太の実線
 62
     3
100
AcDbLine
 10
832.252008
 20
127.96703
 30
0.0
 11
841.06723
 21
127.96703
 31
0.0
  0
LINE
  5
387
330
1F
100
AcDbEntity
  8
GR1-1
  6
細い実線
 62
     7
100
AcDbLine
 10
828.81582
 20
119.916941
 30
0.0
 11
828.81582
 21
120.060912
 31
0.0
  0
LINE
  5
388
330
1F
100
AcDbEntity
  8
GR1-1
  6
細い実線
 62
     7
100
AcDbLine
 10
828.81582
 20
120.060912
 30
0.0
 11
828.971789
 21
120.800765
 31
0.0
  0
LINE
  5
389
330
1F
100
AcDbEntity
  8
GR1-1
  6
細い実線
 62
     7
100
AcDbLine
 10
828.971789
 20
120.800765
 30
0.0
 11
829.751634
 21
123.448237
 31
0.0
  0
LINE
  5
38A
330
1F
100
AcDbEntity
  8
GR1-1
  6
細い実線
 62
     7
100
AcDbLine
 10
829.751634
 20
123.448237
 30
0.0
 11
830.040883
 21
124.790876
 31
0.0
  0
LINE
  5
38B
330
1F
100
AcDbEntity
  8
GR1-1
  6
細い実線
 62
     7
100
AcDbLine
 10
830.040883
 20
124.790876
 30
0.0
 11
830.273675
 21
125.504173
 31
0.0
  0
LINE
  5
38C
330
1F
100
AcDbEntity
  8
GR1-1
  6
細い実線
 62
     7
100
AcDbLine
 10
830.273675
 20
125.504173
 30
0.0
 11
830.566156
 21
126.438324
 31
0.0
  0
LINE
  5
38D
330
1F
100
AcDbEntity
  8
GR1-1
  6
細い実線
 62
     7
100
AcDbLine
 10
830.566156
 20
126.438324
 30
0.0
 11
830.915344
 21
127.482901
 31
0.0
  0
LINE
  5
38E
330
1F
100
AcDbEntity
  8
GR1-1
  6
細い実線
 62
     7
100
AcDbLine
 10
830.915344
 20
127.482901
 30
0.0
 11
831.148135
 21
127.814181
 31
0.0
  0
LINE
  5
38F
330
1F
100
AcDbEntity
  8
GR1-1
  6
細い実線
 62
     7
100
AcDbLine
 10
831.148135
 20
127.814181
 30
0.0
 11
831.673408
 21
127.593327
 31
0.0
  0
LINE
  5
390
330
1F
100
AcDbEntity
  8
GR1-1
  6
細い実線
 62
     7
100
AcDbLine
 10
828.81582
 20
119.916941
 30
0.0
 11
828.81582
 21
120.060912
 31
0.0
  0
LINE
  5
391
330
1F
100
AcDbEntity
  8
GR1-1
  6
細い実線
 62
     7
100
AcDbLine
 10
828.81582
 20
120.060912
 30
0.0
 11
828.971789
 21
120.800765
 31
0.0
  0
LINE
  5
392
330
1F
100
AcDbEntity
  8
GR1-1
  6
細い実線
 62
     7
100
AcDbLine
 10
828.971789
 20
120.800765
 30
0.0
 11
829.751634
 21
123.448237
 31
0.0
  0
LINE
  5
393
330
1F
100
AcDbEntity
  8
GR1-1
  6
細い実線
 62
     7
100
AcDbLine
 10
829.751634
 20
123.448237
 30
0.0
 11
830.040883
 21
124.790876
 31
0.0
  0
LINE
  5
394
330
1F
100
AcDbEntity
  8
GR1-1
  6
細い実線
 62
     7
100
AcDbLine
 10
830.040883
 20
124.790876
 30
0.0
 11
830.273675
 21
125.504173
 31
0.0
  0
LINE
  5
395
330
1F
100
AcDbEntity
  8
GR1-1
  6
細い実線
 62
     7
100
AcDbLine
 10
830.273675
 20
125.504173
 30
0.0
 11
830.566156
 21
126.438324
 31
0.0
  0
LINE
  5
396
330
1F
100
AcDbEntity
  8
GR1-1
  6
細い実線
 62
     7
100
AcDbLine
 10
830.566156
 20
126.438324
 30
0.0
 11
830.915344
 21
127.482901
 31
0.0
  0
LINE
  5
397
330
1F
100
AcDbEntity
  8
GR1-1
  6
細い実線
 62
     7
100
AcDbLine
 10
830.915344
 20
127.482901
 30
0.0
 11
831.148135
 21
127.814181
 31
0.0
  0
LINE
  5
398
330
1F
100
AcDbEntity
  8
GR1-1
  6
細い実線
 62
     7
100
AcDbLine
 10
831.148135
 20
127.814181
 30
0.0
 11
831.673408
 21
127.593327
 31
0.0
  0
LINE
  5
399
330
1F
100
AcDbEntity
  8
GR1-1
  6
細い実線
 62
     7
100
AcDbLine
 10
831.673408
 20
127.593327
 30
0.0
 11
832.158958
 21
127.656864
 31
0.0
  0
INSERT
  5
39D
330
1F
100
AcDbEntity
  8
0
100
AcDbBlockReference
  2
BLKF062
 10
0.0
 20
0.0
 30
0.0
  0
INSERT
  5
3AB
330
1F
100
AcDbEntity
  8
0
100
AcDbBlockReference
  2
BLKF063
 10
0.0
 20
0.0
 30
0.0
  0
INSERT
  5
3B9
330
1F
100
AcDbEntity
  8
0
100
AcDbBlockReference
  2
BLKF064
 10
0.0
 20
0.0
 30
0.0
  0
INSERT
  5
3C6
330
1F
100
AcDbEntity
  8
0
100
AcDbBlockReference
  2
BLKF065
 10
0.0
 20
0.0
 30
0.0
  0
INSERT
  5
3D3
330
1F
100
AcDbEntity
  8
0
100
AcDbBlockReference
  2
BLKF066
 10
0.0
 20
0.0
 30
0.0
  0
INSERT
  5
3E1
330
1F
100
AcDbEntity
  8
0
100
AcDbBlockReference
  2
BLKF067
 10
0.0
 20
0.0
 30
0.0
  0
INSERT
  5
3EF
330
1F
100
AcDbEntity
  8
0
100
AcDbBlockReference
  2
BLKF068
 10
0.0
 20
0.0
 30
0.0
  0
INSERT
  5
3FC
330
1F
100
AcDbEntity
  8
0
100
AcDbBlockReference
  2
BLKF069
 10
0.0
 20
0.0
 30
0.0
  0
INSERT
  5
40A
330
1F
100
AcDbEntity
  8
0
100
AcDbBlockReference
  2
BLKF070
 10
0.0
 20
0.0
 30
0.0
  0
INSERT
  5
418
330
1F
100
AcDbEntity
  8
0
100
AcDbBlockReference
  2
BLKF071
 10
0.0
 20
0.0
 30
0.0
  0
LINE
  5
423
330
1F
100
AcDbEntity
  8
GR1-1
  6
極太の実線
 62
     3
100
AcDbLine
 10
835.589439
 20
131.300363
 30
0.0
 11
839.956119
 21
131.300363
 31
0.0
  0
LINE
  5
424
330
1F
100
AcDbEntity
  8
GR1-1
  6
極太の実線
 62
     3
100
AcDbLine
 10
841.102785
 20
127.860363
 30
0.0
 11
839.956119
 21
131.300363
 31
0.0
  0
INSERT
  5
428
330
1F
100
AcDbEntity
  8
0
100
AcDbBlockReference
  2
BLKF072
 10
0.0
 20
0.0
 30
0.0
  0
LINE
  5
433
330
1F
100
AcDbEntity
  8
GR1-1
  6
極太の実線
 62
     3
100
AcDbLine
 10
838.944907
 20
115.193696
 30
0.0
 11
840.961536
 21
121.860363
 31
0.0
  0
LINE
  5
434
330
1F
100
AcDbEntity
  8
GR1-1
  6
極太の実線
 62
     3
100
AcDbLine
 10
840.961536
 20
121.860363
 30
0.0
 11
841.904345
 21
121.860363
 31
0.0
  0
LINE
  5
435
330
1F
100
AcDbEntity
  8
GR1-1
  6
極太の実線
 62
     3
100
AcDbLine
 10
842.744907
 20
127.860363
 30
0.0
 11
840.961536
 21
121.860363
 31
0.0
  0
LINE
  5
436
330
1F
100
AcDbEntity
  8
GR1-1
  6
極太の実線
 62
     3
100
AcDbLine
 10
835.647518
 20
127.96703
 30
0.0
 11
833.798889
 21
121.860363
 31
0.0
  0
LINE
  5
437
330
1F
100
AcDbEntity
  8
GR1-1
  6
極太の実線
 62
     3
100
AcDbLine
 10
833.798889
 20
121.860363
 30
0.0
 11
832.85608
 21
121.860363
 31
0.0
  0
LINE
  5
438
330
1F
100
AcDbEntity
  8
GR1-1
  6
極太の実線
 62
     3
100
AcDbLine
 10
833.798889
 20
121.860363
 30
0.0
 11
831.815518
 21
115.193696
 31
0.0
  0
LINE
  5
439
330
1F
100
AcDbEntity
  8
GR1-1
  6
極太の実線
 62
     3
100
AcDbLine
 10
835.647518
 20
127.96703
 30
0.0
 11
835.55919
 21
127.96703
 31
0.0
  0
INSERT
  5
43D
330
1F
100
AcDbEntity
  8
0
100
AcDbBlockReference
  2
BLKF073
 10
0.0
 20
0.0
 30
0.0
  0
INSERT
  5
44B
330
1F
100
AcDbEntity
  8
0
100
AcDbBlockReference
  2
BLKF074
 10
0.0
 20
0.0
 30
0.0
  0
INSERT
  5
459
330
1F
100
AcDbEntity
  8
0
100
AcDbBlockReference
  2
BLKF075
 10
0.0
 20
0.0
 30
0.0
  0
INSERT
  5
467
330
1F
100
AcDbEntity
  8
0
100
AcDbBlockReference
  2
BLKF076
 10
0.0
 20
0.0
 30
0.0
  0
INSERT
  5
475
330
1F
100
AcDbEntity
  8
0
100
AcDbBlockReference
  2
BLKF077
 10
0.0
 20
0.0
 30
0.0
  0
INSERT
  5
483
330
1F
100
AcDbEntity
  8
0
100
AcDbBlockReference
  2
BLKF078
 10
0.0
 20
0.0
 30
0.0
  0
INSERT
  5
491
330
1F
100
AcDbEntity
  8
0
100
AcDbBlockReference
  2
BLKF079
 10
0.0
 20
0.0
 30
0.0
  0
INSERT
  5
49F
330
1F
100
AcDbEntity
  8
0
100
AcDbBlockReference
  2
BLKF080
 10
0.0
 20
0.0
 30
0.0
  0
LINE
  5
4AA
330
1F
100
AcDbEntity
  8
GR1-1
  6
細い実線
 62
     7
100
AcDbLine
 10
828.81582
 20
119.916941
 30
0.0
 11
828.590024
 21
119.388091
 31
0.0
  0
LINE
  5
4AB
330
1F
100
AcDbEntity
  8
GR1-1
  6
細い実線
 62
     7
100
AcDbLine
 10
828.590024
 20
119.388091
 30
0.0
 11
828.254978
 21
118.410874
 31
0.0
  0
LINE
  5
4AC
330
1F
100
AcDbEntity
  8
GR1-1
  6
細い実線
 62
     7
100
AcDbLine
 10
828.254978
 20
118.410874
 30
0.0
 11
827.78033
 21
117.126533
 31
0.0
  0
LINE
  5
4AD
330
1F
100
AcDbEntity
  8
GR1-1
  6
細い実線
 62
     7
100
AcDbLine
 10
827.78033
 20
117.126533
 30
0.0
 11
827.75241
 21
116.400601
 31
0.0
  0
LINE
  5
4AE
330
1F
100
AcDbEntity
  8
GR1-1
  6
細い実線
 62
     7
100
AcDbLine
 10
827.75241
 20
116.400601
 30
0.0
 11
827.78033
 21
116.037635
 31
0.0
  0
LINE
  5
4AF
330
1F
100
AcDbEntity
  8
GR1-1
  6
細い実線
 62
     7
100
AcDbLine
 10
827.78033
 20
116.037635
 30
0.0
 11
828.199137
 21
115.814271
 31
0.0
  0
LINE
  5
4B0
330
1F
100
AcDbEntity
  8
GR1-1
  6
細い実線
 62
     7
100
AcDbLine
 10
828.171217
 20
115.842192
 30
0.0
 11
828.531075
 21
115.563919
 31
0.0
  0
LINE
  5
4B1
330
1F
100
AcDbEntity
  8
GR1-1
  6
極太の実線
 62
     3
100
AcDbLine
 10
835.668909
 20
168.512085
 30
0.0
 11
814.835576
 21
168.512085
 31
0.0
  0
LINE
  5
4B2
330
1F
100
AcDbEntity
  8
GR1-1
  6
極太の実線
 62
     3
100
AcDbLine
 10
794.002242
 20
168.512085
 30
0.0
 11
814.835576
 21
168.512085
 31
0.0
  0
LINE
  5
4B3
330
1F
100
AcDbEntity
  8
GR1-1
  6
極太の実線
 62
     3
100
AcDbLine
 10
803.918909
 20
174.954162
 30
0.0
 11
794.002242
 21
173.910131
 31
0.0
  0
LINE
  5
4B4
330
1F
100
AcDbEntity
  8
GR1-1
  6
極太の実線
 62
     3
100
AcDbLine
 10
804.585576
 20
175.650182
 30
0.0
 11
803.918909
 21
174.954162
 31
0.0
  0
LINE
  5
4B5
330
1F
100
AcDbEntity
  8
GR1-1
  6
極太の実線
 62
     3
100
AcDbLine
 10
835.668909
 20
173.910131
 30
0.0
 11
825.752242
 21
174.954162
 31
0.0
  0
LINE
  5
4B6
330
1F
100
AcDbEntity
  8
GR1-1
  6
極太の実線
 62
     3
100
AcDbLine
 10
825.752242
 20
174.954162
 30
0.0
 11
825.085576
 21
175.650182
 31
0.0
  0
LINE
  5
4B7
330
1F
100
AcDbEntity
  8
GR1-1
  6
極太の実線
 62
     3
100
AcDbLine
 10
835.668909
 20
168.512085
 30
0.0
 11
835.668909
 21
173.910131
 31
0.0
  0
LINE
  5
4B8
330
1F
100
AcDbEntity
  8
GR1-1
  6
極太の実線
 62
     3
100
AcDbLine
 10
794.002242
 20
168.512085
 30
0.0
 11
794.002242
 21
173.910131
 31
0.0
  0
LINE
  5
4B9
330
1F
100
AcDbEntity
  8
GR1-1
  6
極太の実線
 62
     3
100
AcDbLine
 10
794.002242
 20
172.344085
 30
0.0
 11
835.668909
 21
172.344085
 31
0.0
  0
LINE
  5
4BA
330
1F
100
AcDbEntity
  8
GR1-1
  6
極太の実線
 62
     3
100
AcDbLine
 10
794.002242
 20
186.232494
 30
0.0
 11
835.668909
 21
186.232494
 31
0.0
  0
LINE
  5
4BB
330
1F
100
AcDbEntity
  8
GR1-1
  6
極太の実線
 62
     3
100
AcDbLine
 10
794.002242
 20
180.866448
 30
0.0
 11
794.002242
 21
186.232494
 31
0.0
  0
LINE
  5
4BC
330
1F
100
AcDbEntity
  8
GR1-1
  6
極太の実線
 62
     3
100
AcDbLine
 10
835.668909
 20
180.866448
 30
0.0
 11
835.668909
 21
186.232494
 31
0.0
  0
LINE
  5
4BD
330
1F
100
AcDbEntity
  8
GR1-1
  6
極太の実線
 62
     3
100
AcDbLine
 10
804.585576
 20
182.926397
 30
0.0
 11
803.918909
 21
183.622417
 31
0.0
  0
LINE
  5
4BE
330
1F
100
AcDbEntity
  8
GR1-1
  6
極太の実線
 62
     3
100
AcDbLine
 10
804.585576
 20
175.650182
 30
0.0
 11
804.585576
 21
182.926397
 31
0.0
  0
LINE
  5
4BF
330
1F
100
AcDbEntity
  8
GR1-1
  6
極太の実線
 62
     3
100
AcDbLine
 10
803.918909
 20
183.622417
 30
0.0
 11
794.002242
 21
184.666448
 31
0.0
  0
LINE
  5
4C0
330
1F
100
AcDbEntity
  8
GR1-1
  6
極太の実線
 62
     3
100
AcDbLine
 10
825.752242
 20
183.622417
 30
0.0
 11
825.085576
 21
182.926397
 31
0.0
  0
LINE
  5
4C1
330
1F
100
AcDbEntity
  8
GR1-1
  6
極太の実線
 62
     3
100
AcDbLine
 10
825.085576
 20
175.650182
 30
0.0
 11
825.085576
 21
182.926397
 31
0.0
  0
LINE
  5
4C2
330
1F
100
AcDbEntity
  8
GR1-1
  6
極太の実線
 62
     3
100
AcDbLine
 10
835.668909
 20
184.666448
 30
0.0
 11
825.752242
 21
183.622417
 31
0.0
  0
LINE
  5
4C3
330
1F
100
AcDbEntity
  8
GR1-1
  6
極太の実線
 62
     3
100
AcDbLine
 10
808.252242
 20
175.751764
 30
0.0
 11
808.252242
 21
182.836984
 31
0.0
  0
LINE
  5
4C4
330
1F
100
AcDbEntity
  8
GR1-1
  6
極太の実線
 62
     3
100
AcDbLine
 10
794.002242
 20
180.866448
 30
0.0
 11
803.918909
 21
179.816252
 31
0.0
  0
LINE
  5
4C5
330
1F
100
AcDbEntity
  8
GR1-1
  6
極太の実線
 62
     3
100
AcDbLine
 10
803.918909
 20
179.816252
 30
0.0
 11
803.918909
 21
183.622417
 31
0.0
  0
LINE
  5
4C6
330
1F
100
AcDbEntity
  8
GR1-1
  6
極太の実線
 62
     3
100
AcDbLine
 10
803.918909
 20
179.816252
 30
0.0
 11
804.585576
 21
179.120232
 31
0.0
  0
LINE
  5
4C7
330
1F
100
AcDbEntity
  8
GR1-1
  6
極太の実線
 62
     3
100
AcDbLine
 10
825.752242
 20
179.816252
 30
0.0
 11
825.752242
 21
183.622417
 31
0.0
  0
INSERT
  5
4CB
330
1F
100
AcDbEntity
  8
0
100
AcDbBlockReference
  2
BLKF081
 10
0.0
 20
0.0
 30
0.0
  0
TEXT
  5
4D1
330
1F
100
AcDbEntity
  8
GR1-1
  6
細い実線
 62
     7
100
AcDbText
 10
811.230794
 20
162.992904
 30
0.0
 40
2.0
  1
Ａ
 41
0.666667
  7
FX_VECTOR
 72
     5
 11
812.564128
 21
162.992904
 31
0.0
100
AcDbText
  0
INSERT
  5
4D5
330
1F
100
AcDbEntity
  8
0
100
AcDbBlockReference
  2
BLKF082
 10
0.0
 20
0.0
 30
0.0
  0
TEXT
  5
4DB
330
1F
100
AcDbEntity
  8
GR1-1
  6
細い実線
 62
     7
100
AcDbText
 10
819.719206
 20
162.992904
 30
0.0
 40
2.0
  1
Ｂ
 41
0.666667
  7
FX_VECTOR
 72
     5
 11
821.052539
 21
162.992904
 31
0.0
100
AcDbText
  0
INSERT
  5
4DF
330
1F
100
AcDbEntity
  8
0
100
AcDbBlockReference
  2
BLKF083
 10
0.0
 20
0.0
 30
0.0
  0
TEXT
  5
4E5
330
1F
100
AcDbEntity
  8
GR1-1
  6
細い実線
 62
     7
100
AcDbText
 10
810.884505
 20
190.500618
 30
0.0
 40
2.0
  1
Ａ
 41
0.666667
  7
FX_VECTOR
 72
     5
 11
812.217839
 21
190.500618
 31
0.0
100
AcDbText
  0
INSERT
  5
4E9
330
1F
100
AcDbEntity
  8
0
100
AcDbBlockReference
  2
BLKF084
 10
0.0
 20
0.0
 30
0.0
  0
TEXT
  5
4EF
330
1F
100
AcDbEntity
  8
GR1-1
  6
細い実線
 62
     7
100
AcDbText
 10
819.372917
 20
190.500618
 30
0.0
 40
2.0
  1
Ｂ
 41
0.666667
  7
FX_VECTOR
 72
     5
 11
820.70625
 21
190.500618
 31
0.0
100
AcDbText
  0
INSERT
  5
4F3
330
1F
100
AcDbEntity
  8
0
100
AcDbBlockReference
  2
BLKF085
 10
0.0
 20
0.0
 30
0.0
  0
INSERT
  5
501
330
1F
100
AcDbEntity
  8
0
100
AcDbBlockReference
  2
BLKF086
 10
0.0
 20
0.0
 30
0.0
  0
INSERT
  5
50F
330
1F
100
AcDbEntity
  8
0
100
AcDbBlockReference
  2
BLKF087
 10
0.0
 20
0.0
 30
0.0
  0
INSERT
  5
51C
330
1F
100
AcDbEntity
  8
0
100
AcDbBlockReference
  2
BLKF088
 10
0.0
 20
0.0
 30
0.0
  0
INSERT
  5
529
330
1F
100
AcDbEntity
  8
0
100
AcDbBlockReference
  2
BLKF089
 10
0.0
 20
0.0
 30
0.0
  0
INSERT
  5
536
330
1F
100
AcDbEntity
  8
0
100
AcDbBlockReference
  2
BLKF090
 10
0.0
 20
0.0
 30
0.0
  0
INSERT
  5
543
330
1F
100
AcDbEntity
  8
0
100
AcDbBlockReference
  2
BLKF091
 10
0.0
 20
0.0
 30
0.0
  0
INSERT
  5
551
330
1F
100
AcDbEntity
  8
0
100
AcDbBlockReference
  2
BLKF092
 10
0.0
 20
0.0
 30
0.0
  0
INSERT
  5
55E
330
1F
100
AcDbEntity
  8
0
100
AcDbBlockReference
  2
BLKF093
 10
0.0
 20
0.0
 30
0.0
  0
INSERT
  5
56C
330
1F
100
AcDbEntity
  8
0
100
AcDbBlockReference
  2
BLKF094
 10
0.0
 20
0.0
 30
0.0
  0
INSERT
  5
57A
330
1F
100
AcDbEntity
  8
0
100
AcDbBlockReference
  2
BLKF095
 10
0.0
 20
0.0
 30
0.0
  0
LINE
  5
584
330
1F
100
AcDbEntity
  8
GR1-1
  6
極太の実線
 62
     3
100
AcDbLine
 10
835.668909
 20
180.866448
 30
0.0
 11
825.752242
 21
179.816252
 31
0.0
  0
LINE
  5
585
330
1F
100
AcDbEntity
  8
GR1-1
  6
極太の実線
 62
     3
100
AcDbLine
 10
825.752242
 20
179.816252
 30
0.0
 11
825.085576
 21
179.120232
 31
0.0
  0
LINE
  5
586
330
1F
100
AcDbEntity
  8
GR1-1
  6
極太の実線
 62
     3
100
AcDbLine
 10
819.41544
 20
184.840453
 30
0.0
 11
810.255712
 21
184.840453
 31
0.0
  0
LINE
  5
587
330
1F
100
AcDbEntity
  8
GR1-1
  6
極太の実線
 62
     3
100
AcDbLine
 10
809.252242
 20
181.040453
 30
0.0
 11
809.252242
 21
180.075957
 31
0.0
  0
LINE
  5
588
330
1F
100
AcDbEntity
  8
GR1-1
  6
極太の実線
 62
     3
100
AcDbLine
 10
808.252242
 20
182.836984
 30
0.0
 11
810.255712
 21
184.840453
 31
0.0
  0
LINE
  5
589
330
1F
100
AcDbEntity
  8
GR1-1
  6
極太の実線
 62
     3
100
AcDbLine
 10
808.252242
 20
182.836984
 30
0.0
 11
809.252242
 21
181.040453
 31
0.0
  0
LINE
  5
58A
330
1F
100
AcDbEntity
  8
GR1-1
  6
極太の実線
 62
     3
100
AcDbLine
 10
810.195051
 20
181.996422
 30
0.0
 11
819.4761
 21
181.996422
 31
0.0
  0
LINE
  5
58B
330
1F
100
AcDbEntity
  8
GR1-1
  6
極太の実線
 62
     3
100
AcDbLine
 10
810.255712
 20
181.053613
 30
0.0
 11
819.41544
 21
181.053613
 31
0.0
  0
LINE
  5
58C
330
1F
100
AcDbEntity
  8
GR1-1
  6
極太の実線
 62
     3
100
AcDbLine
 10
809.252242
 20
181.040453
 30
0.0
 11
810.195051
 21
181.996422
 31
0.0
  0
LINE
  5
58D
330
1F
100
AcDbEntity
  8
GR1-1
  6
極太の実線
 62
     3
100
AcDbLine
 10
810.255712
 20
184.840453
 30
0.0
 11
810.195051
 21
181.996422
 31
0.0
  0
LINE
  5
58E
330
1F
100
AcDbEntity
  8
GR1-1
  6
極太の実線
 62
     3
100
AcDbLine
 10
810.195051
 20
181.996422
 30
0.0
 11
810.255712
 21
181.053613
 31
0.0
  0
LINE
  5
58F
330
1F
100
AcDbEntity
  8
GR1-1
  6
極太の実線
 62
     3
100
AcDbLine
 10
808.72827
 20
180.296861
 30
0.0
 11
809.252242
 21
180.075957
 31
0.0
  0
LINE
  5
590
330
1F
100
AcDbEntity
  8
GR1-1
  6
極太の実線
 62
     3
100
AcDbLine
 10
808.719763
 20
179.517665
 30
0.0
 11
810.255712
 21
181.053613
 31
0.0
  0
LINE
  5
591
330
1F
100
AcDbEntity
  8
GR1-1
  6
極太の実線
 62
     3
100
AcDbLine
 10
808.72827
 20
179.855053
 30
0.0
 11
809.252242
 21
180.075957
 31
0.0
  0
LINE
  5
592
330
1F
100
AcDbEntity
  8
GR1-1
  6
極太の実線
 62
     3
100
AcDbLine
 10
820.418909
 20
181.040453
 30
0.0
 11
820.41891
 21
180.075957
 31
0.0
  0
LINE
  5
593
330
1F
100
AcDbEntity
  8
GR1-1
  6
極太の実線
 62
     3
100
AcDbLine
 10
821.418909
 20
182.836984
 30
0.0
 11
819.41544
 21
184.840453
 31
0.0
  0
LINE
  5
594
330
1F
100
AcDbEntity
  8
GR1-1
  6
極太の実線
 62
     3
100
AcDbLine
 10
821.418909
 20
182.836984
 30
0.0
 11
820.418909
 21
181.040453
 31
0.0
  0
LINE
  5
595
330
1F
100
AcDbEntity
  8
GR1-1
  6
極太の実線
 62
     3
100
AcDbLine
 10
820.418909
 20
181.040453
 30
0.0
 11
819.4761
 21
181.996422
 31
0.0
  0
LINE
  5
596
330
1F
100
AcDbEntity
  8
GR1-1
  6
極太の実線
 62
     3
100
AcDbLine
 10
819.41544
 20
184.840453
 30
0.0
 11
819.4761
 21
181.996422
 31
0.0
  0
LINE
  5
597
330
1F
100
AcDbEntity
  8
GR1-1
  6
極太の実線
 62
     3
100
AcDbLine
 10
819.4761
 20
181.996422
 30
0.0
 11
819.41544
 21
181.053613
 31
0.0
  0
LINE
  5
598
330
1F
100
AcDbEntity
  8
GR1-1
  6
極太の実線
 62
     3
100
AcDbLine
 10
820.942881
 20
180.296861
 30
0.0
 11
820.41891
 21
180.075957
 31
0.0
  0
LINE
  5
599
330
1F
100
AcDbEntity
  8
GR1-1
  6
極太の実線
 62
     3
100
AcDbLine
 10
820.942881
 20
179.855053
 30
0.0
 11
820.41891
 21
180.075957
 31
0.0
  0
LINE
  5
59A
330
1F
100
AcDbEntity
  8
GR1-1
  6
極太の実線
 62
     3
100
AcDbLine
 10
820.951389
 20
179.517665
 30
0.0
 11
819.41544
 21
181.053613
 31
0.0
  0
LINE
  5
59B
330
1F
100
AcDbEntity
  8
GR1-1
  6
極太の実線
 62
     3
100
AcDbLine
 10
821.030032
 20
175.795077
 30
0.0
 11
820.942881
 21
180.296861
 31
0.0
  0
LINE
  5
59C
330
1F
100
AcDbEntity
  8
GR1-1
  6
極太の実線
 62
     3
100
AcDbLine
 10
808.64112
 20
175.795077
 30
0.0
 11
808.72827
 21
180.296861
 31
0.0
  0
LINE
  5
59D
330
1F
100
AcDbEntity
  8
GR1-1
  6
極太の実線
 62
     3
100
AcDbLine
 10
821.418909
 20
175.751764
 30
0.0
 11
821.418909
 21
182.836984
 31
0.0
  0
LINE
  5
59E
330
1F
100
AcDbEntity
  8
GR1-1
  6
極太の実線
 62
     3
100
AcDbLine
 10
810.243578
 20
173.736126
 30
0.0
 11
819.427574
 21
173.736126
 31
0.0
  0
LINE
  5
59F
330
1F
100
AcDbEntity
  8
GR1-1
  6
極太の実線
 62
     3
100
AcDbLine
 10
808.252242
 20
175.751764
 30
0.0
 11
810.243578
 21
173.736126
 31
0.0
  0
LINE
  5
5A0
330
1F
100
AcDbEntity
  8
GR1-1
  6
極太の実線
 62
     3
100
AcDbLine
 10
808.64112
 20
175.795077
 30
0.0
 11
809.252242
 21
175.537431
 31
0.0
  0
LINE
  5
5A1
330
1F
100
AcDbEntity
  8
GR1-1
  6
極太の実線
 62
     3
100
AcDbLine
 10
809.252242
 20
175.537431
 30
0.0
 11
809.252242
 21
174.739561
 31
0.0
  0
LINE
  5
5A2
330
1F
100
AcDbEntity
  8
GR1-1
  6
極太の実線
 62
     3
100
AcDbLine
 10
821.030032
 20
175.795077
 30
0.0
 11
820.418909
 21
175.537431
 31
0.0
  0
LINE
  5
5A3
330
1F
100
AcDbEntity
  8
GR1-1
  6
極太の実線
 62
     3
100
AcDbLine
 10
820.418909
 20
175.537431
 30
0.0
 11
820.41891
 21
174.739561
 31
0.0
  0
LINE
  5
5A4
330
1F
100
AcDbEntity
  8
GR1-1
  6
極太の実線
 62
     3
100
AcDbLine
 10
821.418909
 20
175.751764
 30
0.0
 11
819.427574
 21
173.736126
 31
0.0
  0
LINE
  5
5A5
330
1F
100
AcDbEntity
  8
GR1-1
  6
極太の実線
 62
     3
100
AcDbLine
 10
824.641768
 20
180.049787
 30
0.0
 11
825.085576
 21
181.159307
 31
0.0
  0
LINE
  5
5A6
330
1F
100
AcDbEntity
  8
GR1-1
  6
極太の実線
 62
     3
100
AcDbLine
 10
821.862717
 20
180.049787
 30
0.0
 11
821.418909
 21
181.194863
 31
0.0
  0
LINE
  5
5A7
330
1F
100
AcDbEntity
  8
GR1-1
  6
極太の実線
 62
     3
100
AcDbLine
 10
825.085576
 20
181.159307
 30
0.0
 11
825.085576
 21
181.194863
 31
0.0
  0
LINE
  5
5A8
330
1F
100
AcDbEntity
  8
GR1-1
  6
極太の実線
 62
     3
100
AcDbLine
 10
825.085576
 20
181.194863
 30
0.0
 11
821.418909
 21
181.194863
 31
0.0
  0
LINE
  5
5A9
330
1F
100
AcDbEntity
  8
GR1-1
  6
極太の実線
 62
     3
100
AcDbLine
 10
821.418909
 20
181.194863
 30
0.0
 11
821.418909
 21
181.181392
 31
0.0
  0
LINE
  5
5AA
330
1F
100
AcDbEntity
  8
GR1-1
  6
極太の実線
 62
     3
100
AcDbLine
 10
821.418909
 20
175.651267
 30
0.0
 11
821.418909
 21
181.194863
 31
0.0
  0
LINE
  5
5AB
330
1F
100
AcDbEntity
  8
GR1-1
  6
極太の実線
 62
     3
100
AcDbLine
 10
825.085576
 20
181.159307
 30
0.0
 11
825.085576
 21
175.955876
 31
0.0
  0
LINE
  5
5AC
330
1F
100
AcDbEntity
  8
GR1-1
  6
極太の実線
 62
     3
100
AcDbLine
 10
821.418909
 20
175.651267
 30
0.0
 11
825.085576
 21
175.955876
 31
0.0
  0
LINE
  5
5AD
330
1F
100
AcDbEntity
  8
GR1-1
  6
極太の実線
 62
     3
100
AcDbLine
 10
821.863353
 20
175.688189
 30
0.0
 11
821.863353
 21
180.048196
 31
0.0
  0
LINE
  5
5AE
330
1F
100
AcDbEntity
  8
GR1-1
  6
極太の実線
 62
     3
100
AcDbLine
 10
821.863353
 20
180.048196
 30
0.0
 11
824.641131
 21
180.048196
 31
0.0
  0
LINE
  5
5AF
330
1F
100
AcDbEntity
  8
GR1-1
  6
極太の実線
 62
     3
100
AcDbLine
 10
824.641131
 20
180.048196
 30
0.0
 11
824.641131
 21
175.918953
 31
0.0
  0
LINE
  5
5B0
330
1F
100
AcDbEntity
  8
GR1-1
  6
極太の実線
 62
     3
100
AcDbLine
 10
805.029384
 20
180.049787
 30
0.0
 11
804.585576
 21
181.159307
 31
0.0
  0
LINE
  5
5B1
330
1F
100
AcDbEntity
  8
GR1-1
  6
極太の実線
 62
     3
100
AcDbLine
 10
807.808434
 20
180.049787
 30
0.0
 11
808.252242
 21
181.194863
 31
0.0
  0
LINE
  5
5B2
330
1F
100
AcDbEntity
  8
GR1-1
  6
極太の実線
 62
     3
100
AcDbLine
 10
804.585576
 20
181.159307
 30
0.0
 11
804.585576
 21
181.194863
 31
0.0
  0
LINE
  5
5B3
330
1F
100
AcDbEntity
  8
GR1-1
  6
極太の実線
 62
     3
100
AcDbLine
 10
804.585576
 20
181.194863
 30
0.0
 11
808.252242
 21
181.194863
 31
0.0
  0
LINE
  5
5B4
330
1F
100
AcDbEntity
  8
GR1-1
  6
極太の実線
 62
     3
100
AcDbLine
 10
808.252242
 20
181.194863
 30
0.0
 11
808.252242
 21
181.181392
 31
0.0
  0
LINE
  5
5B5
330
1F
100
AcDbEntity
  8
GR1-1
  6
極太の実線
 62
     3
100
AcDbLine
 10
804.585576
 20
181.159307
 30
0.0
 11
804.585576
 21
175.955876
 31
0.0
  0
LINE
  5
5B6
330
1F
100
AcDbEntity
  8
GR1-1
  6
極太の実線
 62
     3
100
AcDbLine
 10
807.807798
 20
180.048196
 30
0.0
 11
805.03002
 21
180.048196
 31
0.0
  0
LINE
  5
5B7
330
1F
100
AcDbEntity
  8
GR1-1
  6
極太の実線
 62
     3
100
AcDbLine
 10
805.03002
 20
180.048196
 30
0.0
 11
805.03002
 21
175.918953
 31
0.0
  0
LINE
  5
5B8
330
1F
100
AcDbEntity
  8
GR1-1
  6
極太の実線
 62
     3
100
AcDbLine
 10
808.252242
 20
175.651267
 30
0.0
 11
804.585576
 21
175.955876
 31
0.0
  0
LINE
  5
5B9
330
1F
100
AcDbEntity
  8
GR1-1
  6
極太の実線
 62
     3
100
AcDbLine
 10
807.807798
 20
175.688189
 30
0.0
 11
807.807798
 21
180.048196
 31
0.0
  0
LINE
  5
5BA
330
1F
100
AcDbEntity
  8
GR1-1
  6
極太の実線
 62
     3
100
AcDbLine
 10
808.252242
 20
175.651267
 30
0.0
 11
808.252242
 21
181.194863
 31
0.0
  0
ENDSEC
  0
SECTION
  2
OBJECTS
  0
DICTIONARY
  5
C
330
0
100
AcDbDictionary
  3
ACAD_GROUP
350
D
  3
ACAD_LAYOUT
350
1A
  3
ACAD_MLINESTYLE
350
17
  3
ACAD_PLOTSETTINGS
350
19
1001
ACAD
1000
TREAT_AS_HARD
1070
     0
  0
DICTIONARY
  5
5C1
330
29
100
AcDbDictionary
  3
ACAD_XREC_ROUNDTRIP
360
5C2
  0
DICTIONARY
  5
D
102
{ACAD_REACTORS
330
C
102
}
330
C
100
AcDbDictionary
1001
ACAD
1000
TREAT_AS_HARD
1070
     0
  0
DICTIONARY
  5
1A
102
{ACAD_REACTORS
330
C
102
}
330
C
100
AcDbDictionary
1001
ACAD
1000
TREAT_AS_HARD
1070
     0
  0
DICTIONARY
  5
17
102
{ACAD_REACTORS
330
C
102
}
330
C
100
AcDbDictionary
  3
STANDARD
350
18
1001
ACAD
1000
TREAT_AS_HARD
1070
     0
  0
DICTIONARY
  5
19
102
{ACAD_REACTORS
330
C
102
}
330
C
100
AcDbDictionary
1001
ACAD
1000
TREAT_AS_HARD
1070
     0
  0
XRECORD
  5
5C2
102
{ACAD_REACTORS
330
5C1
102
}
330
5C1
100
AcDbXrecord
102
UCS
 74
     0
 71
     1
 10
0.0
 20
0.0
 30
0.0
 10
1.0
 20
0.0
 30
0.0
 10
0.0
 20
1.0
 30
0.0
146
0.0
 79
     0
102
VIEW
281
     0
  0
MLINESTYLE
  5
18
102
{ACAD_REACTORS
330
17
102
}
330
17
100
AcDbMlineStyle
  2
Standard
 70
     0
  3

 62
   256
 51
90.0
 52
90.0
 71
     2
 49
0.5
 62
   256
  6
BYLAYER
 49
-0.5
 62
   256
  6
BYLAYER
  0
ENDSEC
  0
EOF
