  0
SECTION
  2
HEADER
  9
$ACADVER
  1
AC1012
  9
$DWGCODEPAGE
  3
ansi_932
  9
$INSBASE
 10
591.720957
 20
8.11036
 30
0.0
  9
$EXTMIN
 10
591.720957
 20
8.11036
 30
0.0
  9
$EXTMAX
 10
962.970964
 20
270.610366
 30
0.0
  9
$LIMMIN
 10
591.720957
 20
8.11036
  9
$LIMMAX
 10
962.970964
 20
270.610366
  9
$ORTHOMODE
 70
     0
  9
$REGENMODE
 70
     1
  9
$FILLMODE
 70
     1
  9
$QTEXTMODE
 70
     0
  9
$MIRRTEXT
 70
     1
  9
$DRAGMODE
 70
     2
  9
$LTSCALE
 40
1.0
  9
$OSMODE
 70
    37
  9
$ATTMODE
 70
     1
  9
$TEXTSIZE
 40
0.2
  9
$TRACEWID
 40
0.05
  9
$TEXTSTYLE
  7
STYLE1
  9
$CLAYER
  8
0
  9
$CELTYPE
  6
BYLAYER
  9
$CECOLOR
 62
   256
  9
$CELTSCALE
 40
1.0
  9
$DELOBJ
 70
     1
  9
$DISPSILH
 70
     0
  9
$DIMSCALE
 40
1.0
  9
$DIMASZ
 40
2.0
  9
$DIMEXO
 40
2.0
  9
$DIMDLI
 40
7.0
  9
$DIMRND
 40
0.0
  9
$DIMDLE
 40
6.0
  9
$DIMEXE
 40
1.0
  9
$DIMTP
 40
0.0
  9
$DIMTM
 40
0.0
  9
$DIMTXT
 40
3.5
  9
$DIMCEN
 40
2.5
  9
$DIMTSZ
 40
0.0
  9
$DIMTOL
 70
     0
  9
$DIMLIM
 70
     0
  9
$DIMTIH
 70
     0
  9
$DIMTOH
 70
     0
  9
$DIMSE1
 70
     0
  9
$DIMSE2
 70
     0
  9
$DIMTAD
 70
     1
  9
$DIMZIN
 70
     8
  9
$DIMBLK
  1

  9
$DIMASO
 70
     1
  9
$DIMSHO
 70
     1
  9
$DIMPOST
  1

  9
$DIMAPOST
  1

  9
$DIMALT
 70
     0
  9
$DIMALTD
 70
     3
  9
$DIMALTF
 40
0.03937
  9
$DIMLFAC
 40
1.0
  9
$DIMTOFL
 70
     1
  9
$DIMTVP
 40
0.0
  9
$DIMTIX
 70
     0
  9
$DIMSOXD
 70
     0
  9
$DIMSAH
 70
     1
  9
$DIMBLK1
  1
FXTIP_ARROW_S
  9
$DIMBLK2
  1
FXTIP_ARROW_E
  9
$DIMSTYLE
  2
FXDIMINFO
  9
$DIMCLRD
 70
     7
  9
$DIMCLRE
 70
     7
  9
$DIMCLRT
 70
     7
  9
$DIMTFAC
 40
1.0
  9
$DIMGAP
 40
1.0
  9
$DIMJUST
 70
     0
  9
$DIMSD1
 70
     0
  9
$DIMSD2
 70
     0
  9
$DIMTOLJ
 70
     0
  9
$DIMTZIN
 70
     8
  9
$DIMALTZ
 70
     0
  9
$DIMALTTZ
 70
     0
  9
$DIMFIT
 70
     3
  9
$DIMUPT
 70
     0
  9
$DIMUNIT
 70
     2
  9
$DIMDEC
 70
     2
  9
$DIMTDEC
 70
     2
  9
$DIMALTU
 70
     2
  9
$DIMALTTD
 70
     3
  9
$DIMTXSTY
  7
STYLE1
  9
$DIMAUNIT
 70
     0
  9
$LUNITS
 70
     2
  9
$LUPREC
 70
     4
  9
$SKETCHINC
 40
0.1
  9
$FILLETRAD
 40
0.5
  9
$AUNITS
 70
     0
  9
$AUPREC
 70
     0
  9
$MENU
  1
.
  9
$ELEVATION
 40
0.0
  9
$PELEVATION
 40
0.0
  9
$THICKNESS
 40
0.0
  9
$LIMCHECK
 70
     0
  9
$CHAMFERA
 40
0.5
  9
$CHAMFERB
 40
0.5
  9
$CHAMFERC
 40
1.0
  9
$CHAMFERD
 40
0.0
  9
$SKPOLY
 70
     0
  9
$TDCREATE
 40
2455568.676860891
  9
$TDUPDATE
 40
2455568.676860903
  9
$TDINDWG
 40
0.0000000116
  9
$TDUSRTIMER
 40
0.0000000116
  9
$USRTIMER
 70
     1
  9
$ANGBASE
 50
0.0
  9
$ANGDIR
 70
     0
  9
$PDMODE
 70
     0
  9
$PDSIZE
 40
0.0
  9
$PLINEWID
 40
0.0
  9
$COORDS
 70
     1
  9
$SPLFRAME
 70
     0
  9
$SPLINETYPE
 70
     6
  9
$SPLINESEGS
 70
     8
  9
$ATTDIA
 70
     0
  9
$ATTREQ
 70
     1
  9
$HANDLING
 70
     1
  9
$HANDSEED
  5
5C6
  9
$SURFTAB1
 70
     6
  9
$SURFTAB2
 70
     6
  9
$SURFTYPE
 70
     6
  9
$SURFU
 70
     6
  9
$SURFV
 70
     6
  9
$UCSNAME
  2

  9
$UCSORG
 10
0.0
 20
0.0
 30
0.0
  9
$UCSXDIR
 10
1.0
 20
0.0
 30
0.0
  9
$UCSYDIR
 10
0.0
 20
1.0
 30
0.0
  9
$PUCSNAME
  2

  9
$PUCSORG
 10
0.0
 20
0.0
 30
0.0
  9
$PUCSXDIR
 10
1.0
 20
0.0
 30
0.0
  9
$PUCSYDIR
 10
0.0
 20
1.0
 30
0.0
  9
$USERI1
 70
     0
  9
$USERI2
 70
     0
  9
$USERI3
 70
     0
  9
$USERI4
 70
     0
  9
$USERI5
 70
     0
  9
$USERR1
 40
0.0
  9
$USERR2
 40
0.0
  9
$USERR3
 40
0.0
  9
$USERR4
 40
0.0
  9
$USERR5
 40
0.0
  9
$WORLDVIEW
 70
     1
  9
$SHADEDGE
 70
     3
  9
$SHADEDIF
 70
    70
  9
$TILEMODE
 70
     1
  9
$MAXACTVP
 70
    64
  9
$PINSBASE
 10
0.0
 20
0.0
 30
0.0
  9
$PLIMCHECK
 70
     0
  9
$PEXTMIN
 10
1.000000E+20
 20
1.000000E+20
 30
1.000000E+20
  9
$PEXTMAX
 10
-1.000000E+20
 20
-1.000000E+20
 30
-1.000000E+20
  9
$PLIMMIN
 10
0.0
 20
0.0
  9
$PLIMMAX
 10
12.0
 20
9.0
  9
$UNITMODE
 70
     0
  9
$VISRETAIN
 70
     1
  9
$PLINEGEN
 70
     0
  9
$PSLTSCALE
 70
     1
  9
$TREEDEPTH
 70
  3020
  9
$PICKSTYLE
 70
     1
  9
$CMLSTYLE
  2
STANDARD
  9
$CMLJUST
 70
     0
  9
$CMLSCALE
 40
1.0
  9
$SAVEIMAGES
 70
     1
  0
ENDSEC
  0
SECTION
  2
CLASSES
  0
CLASS
  1
ACDBDICTIONARYWDFLT
  2
AcDbDictionaryWithDefault
  3
ObjectDBX Classes
 90
        0
280
     0
281
     0
  0
CLASS
  1
XRECORD
  2
AcDbXrecord
  3
AutoCAD 2000
 90
    32768
280
     0
281
     0
  0
CLASS
  1
LWPOLYLINE
  2
AcDbPolyline
  3
AutoCAD 2000
 90
    32768
280
     0
281
     1
  0
CLASS
  1
HATCH
  2
AcDbHatch
  3
AutoCAD 2000
 90
    32768
280
     0
281
     1
  0
CLASS
  1
ACDBPLACEHOLDER
  2
AcDbPlaceHolder
  3
ObjectDBX Classes
 90
        0
280
     0
281
     0
  0
CLASS
  1
LAYOUT
  2
AcDbLayout
  3
ObjectDBX Classes
 90
        0
280
     0
281
     0
  0
ENDSEC
  0
SECTION
  2
TABLES
  0
TABLE
  2
VPORT
  5
8
330
0
100
AcDbSymbolTable
 70
     1
  0
VPORT
  5
29
102
{ACAD_XDICTIONARY
360
5C4
102
}
330
8
100
AcDbSymbolTableRecord
100
AcDbViewportTableRecord
  2
*ACTIVE
 70
     0
 10
0.0
 20
0.0
 11
1.0
 21
1.0
 12
777.34596
 22
139.360363
 13
0.0
 23
0.0
 14
0.5
 24
0.5
 15
0.5
 25
0.5
 16
0.0
 26
0.0
 36
1.0
 17
0.0
 27
0.0
 37
0.0
 40
262.500005
 41
1.414286
 42
50.0
 43
0.0
 44
0.0
 50
0.0
 51
0.0
 71
     0
 72
   100
 73
     1
 74
     3
 75
     0
 76
     0
 77
     0
 78
     0
  0
ENDTAB
  0
TABLE
  2
LTYPE
  5
5
330
0
100
AcDbSymbolTable
 70
     5
  0
LTYPE
  5
14
330
5
100
AcDbSymbolTableRecord
100
AcDbLinetypeTableRecord
  2
BYBLOCK
 70
     0
  3

 72
    65
 73
     0
 40
0.0
  0
LTYPE
  5
15
330
5
100
AcDbSymbolTableRecord
100
AcDbLinetypeTableRecord
  2
BYLAYER
 70
     0
  3

 72
    65
 73
     0
 40
0.0
  0
LTYPE
  5
16
330
5
100
AcDbSymbolTableRecord
100
AcDbLinetypeTableRecord
  2
CONTINUOUS
 70
     0
  3
--------------------
 72
    65
 73
     0
 40
0.0
  0
LTYPE
  5
A6
330
5
100
AcDbSymbolTableRecord
100
AcDbLinetypeTableRecord
  2
極太の実線
 70
     0
  3

 72
    65
 73
     0
 40
0.0
  0
LTYPE
  5
AF
330
5
100
AcDbSymbolTableRecord
100
AcDbLinetypeTableRecord
  2
太い実線
 70
     0
  3

 72
    65
 73
     0
 40
0.0
  0
LTYPE
  5
B6
330
5
100
AcDbSymbolTableRecord
100
AcDbLinetypeTableRecord
  2
細い実線
 70
     0
  3

 72
    65
 73
     0
 40
0.0
  0
LTYPE
  5
170
330
5
100
AcDbSymbolTableRecord
100
AcDbLinetypeTableRecord
  2
細い点線
 70
     0
  3

 72
    65
 73
     2
 40
2.5
 49
2.0
 74
     0
 49
-0.5
 74
     0
  0
ENDTAB
  0
TABLE
  2
LAYER
  5
2
330
0
100
AcDbSymbolTable
 70
    20
  0
LAYER
  5
10
330
2
100
AcDbSymbolTableRecord
100
AcDbLayerTableRecord
  2
0
 70
     0
 62
     7
  6
CONTINUOUS
  0
LAYER
  5
A5
330
2
100
AcDbSymbolTableRecord
100
AcDbLayerTableRecord
  2
GR1-1
 70
     0
 62
     7
  6
CONTINUOUS
  0
LAYER
  5
233
330
2
100
AcDbSymbolTableRecord
100
AcDbLayerTableRecord
  2
1-1
 70
     0
 62
     7
  6
CONTINUOUS
  0
ENDTAB
  0
TABLE
  2
STYLE
  5
3
330
0
100
AcDbSymbolTable
 70
     4
  0
STYLE
  5
11
330
3
100
AcDbSymbolTableRecord
100
AcDbTextStyleTableRecord
  2
STANDARD
 70
     0
 40
0.0
 41
1.0
 50
0.0
 71
     0
 42
0.2
  3
txt
  4

  0
STYLE
  5
3C
330
3
100
AcDbSymbolTableRecord
100
AcDbTextStyleTableRecord
  2
STYLE1
 70
     0
 40
0.0
 41
1.0
 50
0.0
 71
     0
 42
0.2
  3
MONOTXT.SHX
  4
extfont.shx
  0
STYLE
  5
3D
330
3
100
AcDbSymbolTableRecord
100
AcDbTextStyleTableRecord
  2
FX_VECTOR
 70
     0
 40
0.0
 41
1.0
 50
0.0
 71
     0
 42
0.2
  3
MONOTXT.SHX
  4
BIGFONT.SHX
  0
ENDTAB
  0
TABLE
  2
VIEW
  5
6
330
0
100
AcDbSymbolTable
 70
     0
  0
ENDTAB
  0
TABLE
  2
UCS
  5
7
330
0
100
AcDbSymbolTable
 70
     0
  0
ENDTAB
  0
TABLE
  2
APPID
  5
9
330
0
100
AcDbSymbolTable
 70
     1
  0
APPID
  5
12
330
9
100
AcDbSymbolTableRecord
100
AcDbRegAppTableRecord
  2
ACAD
 70
     0
  0
ENDTAB
  0
TABLE
  2
DIMSTYLE
  5
A
330
0
100
AcDbSymbolTable
 70
     2
  0
DIMSTYLE
105
27
330
A
100
AcDbSymbolTableRecord
100
AcDbDimStyleTableRecord
  2
STANDARD
 70
     0
  3

  4

  5

  6

  7

 40
1.0
 41
0.18
 42
0.0625
 43
0.38
 44
0.18
 45
0.0
 46
0.0
 47
0.0
 48
0.0
140
0.18
141
0.09
142
0.0
143
25.4
144
1.0
145
0.0
146
1.0
147
0.09
 71
     0
 72
     0
 73
     1
 74
     1
 75
     0
 76
     0
 77
     0
 78
     0
170
     0
171
     2
172
     0
173
     0
174
     0
175
     0
176
     0
177
     0
178
     0
270
     2
271
     4
272
     4
273
     2
274
     2
340
11
275
     0
280
     0
281
     0
282
     0
283
     1
284
     0
285
     0
286
     0
287
     3
288
     0
  0
DIMSTYLE
105
A4
330
A
100
AcDbSymbolTableRecord
100
AcDbDimStyleTableRecord
  2
FXDIMINFO
 70
     0
  3

  4

  5

  6
FXTIP_ARROW_S
  7
FXTIP_ARROW_E
 40
1.0
 41
2.0
 42
2.0
 43
7.0
 44
1.0
 45
0.0
 46
6.0
 47
0.0
 48
0.0
140
3.5
141
2.5
142
0.0
143
0.03937
144
1.0
145
0.0
146
1.0
147
1.0
 71
     0
 72
     0
 73
     0
 74
     0
 75
     0
 76
     0
 77
     1
 78
     8
170
     0
171
     3
172
     1
173
     1
174
     0
175
     0
176
     7
177
     7
178
     7
179
     2
270
     2
271
     2
272
     2
273
     2
274
     3
340
3C
275
     0
280
     0
281
     0
282
     0
283
     0
284
     8
285
     0
286
     0
287
     3
288
     0
  0
ENDTAB
  0
TABLE
  2
BLOCK_RECORD
  5
1
330
0
100
AcDbSymbolTable
 70
    93
  0
BLOCK_RECORD
  5
1F
330
1
100
AcDbSymbolTableRecord
100
AcDbBlockTableRecord
  2
*MODEL_SPACE
  0
BLOCK_RECORD
  5
1B
330
1
100
AcDbSymbolTableRecord
100
AcDbBlockTableRecord
  2
*PAPER_SPACE
  0
BLOCK_RECORD
  5
3E
330
1
100
AcDbSymbolTableRecord
100
AcDbBlockTableRecord
  2
FXTIP_ARROW_S
  0
BLOCK_RECORD
  5
44
330
1
100
AcDbSymbolTableRecord
100
AcDbBlockTableRecord
  2
FXTIP_ARROW_E
  0
BLOCK_RECORD
  5
4A
330
1
100
AcDbSymbolTableRecord
100
AcDbBlockTableRecord
  2
FXTIP_BLACKDOT_S
  0
BLOCK_RECORD
  5
50
330
1
100
AcDbSymbolTableRecord
100
AcDbBlockTableRecord
  2
FXTIP_BLACKDOT_E
  0
BLOCK_RECORD
  5
56
330
1
100
AcDbSymbolTableRecord
100
AcDbBlockTableRecord
  2
FXTIP_TRIANGLE_S
  0
BLOCK_RECORD
  5
5D
330
1
100
AcDbSymbolTableRecord
100
AcDbBlockTableRecord
  2
FXTIP_TRIANGLE_E
  0
BLOCK_RECORD
  5
64
330
1
100
AcDbSymbolTableRecord
100
AcDbBlockTableRecord
  2
FXTIP_ARCHITECT_S
  0
BLOCK_RECORD
  5
6A
330
1
100
AcDbSymbolTableRecord
100
AcDbBlockTableRecord
  2
FXTIP_ARCHITECT_E
  0
BLOCK_RECORD
  5
70
330
1
100
AcDbSymbolTableRecord
100
AcDbBlockTableRecord
  2
FXTIP_CIVIL_S
  0
BLOCK_RECORD
  5
76
330
1
100
AcDbSymbolTableRecord
100
AcDbBlockTableRecord
  2
FXTIP_CIVIL_E
  0
BLOCK_RECORD
  5
7C
330
1
100
AcDbSymbolTableRecord
100
AcDbBlockTableRecord
  2
FXTIP_WHITEDOT_S
  0
BLOCK_RECORD
  5
81
330
1
100
AcDbSymbolTableRecord
100
AcDbBlockTableRecord
  2
FXTIP_WHITEDOT_E
  0
BLOCK_RECORD
  5
86
330
1
100
AcDbSymbolTableRecord
100
AcDbBlockTableRecord
  2
FXTIP_UPARROW_S
  0
BLOCK_RECORD
  5
8B
330
1
100
AcDbSymbolTableRecord
100
AcDbBlockTableRecord
  2
FXTIP_UPARROW_E
  0
BLOCK_RECORD
  5
90
330
1
100
AcDbSymbolTableRecord
100
AcDbBlockTableRecord
  2
FXTIP_DOWNARROW_S
  0
BLOCK_RECORD
  5
95
330
1
100
AcDbSymbolTableRecord
100
AcDbBlockTableRecord
  2
FXTIP_DOWNARROW_E
  0
BLOCK_RECORD
  5
9A
330
1
100
AcDbSymbolTableRecord
100
AcDbBlockTableRecord
  2
FXTIP_BLACKTRIANGLE_S
  0
BLOCK_RECORD
  5
9F
330
1
100
AcDbSymbolTableRecord
100
AcDbBlockTableRecord
  2
FXTIP_BLACKTRIANGLE_E
  0
BLOCK_RECORD
  5
D1
330
1
100
AcDbSymbolTableRecord
100
AcDbBlockTableRecord
  2
BLKF021
  0
BLOCK_RECORD
  5
DF
330
1
100
AcDbSymbolTableRecord
100
AcDbBlockTableRecord
  2
BLKF022
  0
BLOCK_RECORD
  5
ED
330
1
100
AcDbSymbolTableRecord
100
AcDbBlockTableRecord
  2
BLKF023
  0
BLOCK_RECORD
  5
FB
330
1
100
AcDbSymbolTableRecord
100
AcDbBlockTableRecord
  2
BLKF024
  0
BLOCK_RECORD
  5
108
330
1
100
AcDbSymbolTableRecord
100
AcDbBlockTableRecord
  2
BLKF025
  0
BLOCK_RECORD
  5
115
330
1
100
AcDbSymbolTableRecord
100
AcDbBlockTableRecord
  2
BLKF026
  0
BLOCK_RECORD
  5
122
330
1
100
AcDbSymbolTableRecord
100
AcDbBlockTableRecord
  2
BLKF027
  0
BLOCK_RECORD
  5
137
330
1
100
AcDbSymbolTableRecord
100
AcDbBlockTableRecord
  2
BLKF028
  0
BLOCK_RECORD
  5
17D
330
1
100
AcDbSymbolTableRecord
100
AcDbBlockTableRecord
  2
BLKF029
  0
BLOCK_RECORD
  5
18B
330
1
100
AcDbSymbolTableRecord
100
AcDbBlockTableRecord
  2
BLKF030
  0
BLOCK_RECORD
  5
198
330
1
100
AcDbSymbolTableRecord
100
AcDbBlockTableRecord
  2
BLKF031
  0
BLOCK_RECORD
  5
1A6
330
1
100
AcDbSymbolTableRecord
100
AcDbBlockTableRecord
  2
BLKF032
  0
BLOCK_RECORD
  5
1B4
330
1
100
AcDbSymbolTableRecord
100
AcDbBlockTableRecord
  2
BLKF033
  0
BLOCK_RECORD
  5
1C2
330
1
100
AcDbSymbolTableRecord
100
AcDbBlockTableRecord
  2
BLKF034
  0
BLOCK_RECORD
  5
1CF
330
1
100
AcDbSymbolTableRecord
100
AcDbBlockTableRecord
  2
BLKF035
  0
BLOCK_RECORD
  5
1DC
330
1
100
AcDbSymbolTableRecord
100
AcDbBlockTableRecord
  2
BLKF036
  0
BLOCK_RECORD
  5
1E9
330
1
100
AcDbSymbolTableRecord
100
AcDbBlockTableRecord
  2
BLKF037
  0
BLOCK_RECORD
  5
1F6
330
1
100
AcDbSymbolTableRecord
100
AcDbBlockTableRecord
  2
BLKF038
  0
BLOCK_RECORD
  5
204
330
1
100
AcDbSymbolTableRecord
100
AcDbBlockTableRecord
  2
BLKF039
  0
BLOCK_RECORD
  5
212
330
1
100
AcDbSymbolTableRecord
100
AcDbBlockTableRecord
  2
BLKF040
  0
BLOCK_RECORD
  5
225
330
1
100
AcDbSymbolTableRecord
100
AcDbBlockTableRecord
  2
BLKF041
  0
BLOCK_RECORD
  5
243
330
1
100
AcDbSymbolTableRecord
100
AcDbBlockTableRecord
  2
BLKF042
  0
BLOCK_RECORD
  5
24D
330
1
100
AcDbSymbolTableRecord
100
AcDbBlockTableRecord
  2
BLKF043
  0
BLOCK_RECORD
  5
25B
330
1
100
AcDbSymbolTableRecord
100
AcDbBlockTableRecord
  2
BLKF044
  0
BLOCK_RECORD
  5
269
330
1
100
AcDbSymbolTableRecord
100
AcDbBlockTableRecord
  2
BLKF045
  0
BLOCK_RECORD
  5
276
330
1
100
AcDbSymbolTableRecord
100
AcDbBlockTableRecord
  2
BLKF046
  0
BLOCK_RECORD
  5
283
330
1
100
AcDbSymbolTableRecord
100
AcDbBlockTableRecord
  2
BLKF047
  0
BLOCK_RECORD
  5
291
330
1
100
AcDbSymbolTableRecord
100
AcDbBlockTableRecord
  2
BLKF048
  0
BLOCK_RECORD
  5
29E
330
1
100
AcDbSymbolTableRecord
100
AcDbBlockTableRecord
  2
BLKF049
  0
BLOCK_RECORD
  5
2AB
330
1
100
AcDbSymbolTableRecord
100
AcDbBlockTableRecord
  2
BLKF050
  0
BLOCK_RECORD
  5
2B9
330
1
100
AcDbSymbolTableRecord
100
AcDbBlockTableRecord
  2
BLKF051
  0
BLOCK_RECORD
  5
2C7
330
1
100
AcDbSymbolTableRecord
100
AcDbBlockTableRecord
  2
BLKF052
  0
BLOCK_RECORD
  5
2D5
330
1
100
AcDbSymbolTableRecord
100
AcDbBlockTableRecord
  2
BLKF053
  0
BLOCK_RECORD
  5
2E2
330
1
100
AcDbSymbolTableRecord
100
AcDbBlockTableRecord
  2
BLKF054
  0
BLOCK_RECORD
  5
2F0
330
1
100
AcDbSymbolTableRecord
100
AcDbBlockTableRecord
  2
BLKF055
  0
BLOCK_RECORD
  5
2FE
330
1
100
AcDbSymbolTableRecord
100
AcDbBlockTableRecord
  2
BLKF056
  0
BLOCK_RECORD
  5
30C
330
1
100
AcDbSymbolTableRecord
100
AcDbBlockTableRecord
  2
BLKF057
  0
BLOCK_RECORD
  5
319
330
1
100
AcDbSymbolTableRecord
100
AcDbBlockTableRecord
  2
BLKF058
  0
BLOCK_RECORD
  5
326
330
1
100
AcDbSymbolTableRecord
100
AcDbBlockTableRecord
  2
BLKF059
  0
BLOCK_RECORD
  5
333
330
1
100
AcDbSymbolTableRecord
100
AcDbBlockTableRecord
  2
BLKF060
  0
BLOCK_RECORD
  5
36F
330
1
100
AcDbSymbolTableRecord
100
AcDbBlockTableRecord
  2
BLKF061
  0
BLOCK_RECORD
  5
37D
330
1
100
AcDbSymbolTableRecord
100
AcDbBlockTableRecord
  2
BLKF062
  0
BLOCK_RECORD
  5
3B2
330
1
100
AcDbSymbolTableRecord
100
AcDbBlockTableRecord
  2
BLKF063
  0
BLOCK_RECORD
  5
3BC
330
1
100
AcDbSymbolTableRecord
100
AcDbBlockTableRecord
  2
BLKF064
  0
BLOCK_RECORD
  5
3C6
330
1
100
AcDbSymbolTableRecord
100
AcDbBlockTableRecord
  2
BLKF065
  0
BLOCK_RECORD
  5
3D4
330
1
100
AcDbSymbolTableRecord
100
AcDbBlockTableRecord
  2
BLKF066
  0
BLOCK_RECORD
  5
3E2
330
1
100
AcDbSymbolTableRecord
100
AcDbBlockTableRecord
  2
BLKF067
  0
BLOCK_RECORD
  5
3EF
330
1
100
AcDbSymbolTableRecord
100
AcDbBlockTableRecord
  2
BLKF068
  0
BLOCK_RECORD
  5
3FC
330
1
100
AcDbSymbolTableRecord
100
AcDbBlockTableRecord
  2
BLKF069
  0
BLOCK_RECORD
  5
409
330
1
100
AcDbSymbolTableRecord
100
AcDbBlockTableRecord
  2
BLKF070
  0
BLOCK_RECORD
  5
416
330
1
100
AcDbSymbolTableRecord
100
AcDbBlockTableRecord
  2
BLKF071
  0
BLOCK_RECORD
  5
424
330
1
100
AcDbSymbolTableRecord
100
AcDbBlockTableRecord
  2
BLKF072
  0
BLOCK_RECORD
  5
431
330
1
100
AcDbSymbolTableRecord
100
AcDbBlockTableRecord
  2
BLKF073
  0
BLOCK_RECORD
  5
43F
330
1
100
AcDbSymbolTableRecord
100
AcDbBlockTableRecord
  2
BLKF074
  0
BLOCK_RECORD
  5
44C
330
1
100
AcDbSymbolTableRecord
100
AcDbBlockTableRecord
  2
BLKF075
  0
BLOCK_RECORD
  5
4A6
330
1
100
AcDbSymbolTableRecord
100
AcDbBlockTableRecord
  2
BLKF076
  0
BLOCK_RECORD
  5
4B4
330
1
100
AcDbSymbolTableRecord
100
AcDbBlockTableRecord
  2
BLKF077
  0
BLOCK_RECORD
  5
4C2
330
1
100
AcDbSymbolTableRecord
100
AcDbBlockTableRecord
  2
BLKF078
  0
BLOCK_RECORD
  5
4CF
330
1
100
AcDbSymbolTableRecord
100
AcDbBlockTableRecord
  2
BLKF079
  0
BLOCK_RECORD
  5
4DC
330
1
100
AcDbSymbolTableRecord
100
AcDbBlockTableRecord
  2
BLKF080
  0
BLOCK_RECORD
  5
4EA
330
1
100
AcDbSymbolTableRecord
100
AcDbBlockTableRecord
  2
BLKF081
  0
BLOCK_RECORD
  5
4F8
330
1
100
AcDbSymbolTableRecord
100
AcDbBlockTableRecord
  2
BLKF082
  0
BLOCK_RECORD
  5
505
330
1
100
AcDbSymbolTableRecord
100
AcDbBlockTableRecord
  2
BLKF083
  0
BLOCK_RECORD
  5
513
330
1
100
AcDbSymbolTableRecord
100
AcDbBlockTableRecord
  2
BLKF084
  0
BLOCK_RECORD
  5
521
330
1
100
AcDbSymbolTableRecord
100
AcDbBlockTableRecord
  2
BLKF085
  0
BLOCK_RECORD
  5
532
330
1
100
AcDbSymbolTableRecord
100
AcDbBlockTableRecord
  2
BLKF086
  0
BLOCK_RECORD
  5
547
330
1
100
AcDbSymbolTableRecord
100
AcDbBlockTableRecord
  2
BLKF087
  0
BLOCK_RECORD
  5
555
330
1
100
AcDbSymbolTableRecord
100
AcDbBlockTableRecord
  2
BLKF088
  0
BLOCK_RECORD
  5
563
330
1
100
AcDbSymbolTableRecord
100
AcDbBlockTableRecord
  2
BLKF089
  0
BLOCK_RECORD
  5
571
330
1
100
AcDbSymbolTableRecord
100
AcDbBlockTableRecord
  2
BLKF090
  0
BLOCK_RECORD
  5
57F
330
1
100
AcDbSymbolTableRecord
100
AcDbBlockTableRecord
  2
BLKF091
  0
BLOCK_RECORD
  5
58D
330
1
100
AcDbSymbolTableRecord
100
AcDbBlockTableRecord
  2
BLKF092
  0
BLOCK_RECORD
  5
59B
330
1
100
AcDbSymbolTableRecord
100
AcDbBlockTableRecord
  2
BLKF093
  0
BLOCK_RECORD
  5
5A9
330
1
100
AcDbSymbolTableRecord
100
AcDbBlockTableRecord
  2
BLKF094
  0
ENDTAB
  0
ENDSEC
  0
SECTION
  2
BLOCKS
  0
BLOCK
  5
20
330
1F
100
AcDbEntity
  8
0
100
AcDbBlockBegin
  2
*MODEL_SPACE
 70
     0
 71
     0
 10
0.0
 20
0.0
 30
0.0
  3
*MODEL_SPACE
  1

  0
ENDBLK
  5
21
330
1F
100
AcDbEntity
  8
0
100
AcDbBlockEnd
  0
BLOCK
  5
1C
330
1B
100
AcDbEntity
 67
     1
  8
0
100
AcDbBlockBegin
  2
*PAPER_SPACE
 70
     0
 71
     0
 10
0.0
 20
0.0
 30
0.0
  3
*PAPER_SPACE
  1

  0
ENDBLK
  5
1D
330
1B
100
AcDbEntity
 67
     1
  8
0
100
AcDbBlockEnd
  0
BLOCK
  5
3F
330
3E
100
AcDbEntity
  8
0
100
AcDbBlockBegin
  2
FXTIP_ARROW_S
 70
     0
 71
     0
 10
0.0
 20
0.0
 30
0.0
  3
FXTIP_ARROW_S
  1

  0
LINE
  5
41
330
3E
100
AcDbEntity
  8
0
  6
CONTINUOUS
 62
     0
100
AcDbLine
 10
0.0
 20
0.0
 30
0.0
 11
-1.0
 21
0.0
 31
0.0
  0
LINE
  5
42
330
3E
100
AcDbEntity
  8
0
  6
CONTINUOUS
 62
     0
100
AcDbLine
 10
0.0
 20
0.0
 30
0.0
 11
-0.965926
 21
-0.258819
 31
0.0
  0
LINE
  5
43
330
3E
100
AcDbEntity
  8
0
  6
CONTINUOUS
 62
     0
100
AcDbLine
 10
0.0
 20
0.0
 30
0.0
 11
-0.965926
 21
0.258819
 31
0.0
  0
ENDBLK
  5
40
330
3E
100
AcDbEntity
  8
0
100
AcDbBlockEnd
  0
BLOCK
  5
45
330
44
100
AcDbEntity
  8
0
100
AcDbBlockBegin
  2
FXTIP_ARROW_E
 70
     0
 71
     0
 10
0.0
 20
0.0
 30
0.0
  3
FXTIP_ARROW_E
  1

  0
LINE
  5
47
330
44
100
AcDbEntity
  8
0
  6
CONTINUOUS
 62
     0
100
AcDbLine
 10
0.0
 20
0.0
 30
0.0
 11
-1.0
 21
0.0
 31
0.0
  0
LINE
  5
48
330
44
100
AcDbEntity
  8
0
  6
CONTINUOUS
 62
     0
100
AcDbLine
 10
0.0
 20
0.0
 30
0.0
 11
-0.965926
 21
0.258819
 31
0.0
  0
LINE
  5
49
330
44
100
AcDbEntity
  8
0
  6
CONTINUOUS
 62
     0
100
AcDbLine
 10
0.0
 20
0.0
 30
0.0
 11
-0.965926
 21
-0.258819
 31
0.0
  0
ENDBLK
  5
46
330
44
100
AcDbEntity
  8
0
100
AcDbBlockEnd
  0
BLOCK
  5
4B
330
4A
100
AcDbEntity
  8
0
100
AcDbBlockBegin
  2
FXTIP_BLACKDOT_S
 70
     0
 71
     0
 10
0.0
 20
0.0
 30
0.0
  3
FXTIP_BLACKDOT_S
  1

  0
LINE
  5
4D
330
4A
100
AcDbEntity
  8
0
  6
CONTINUOUS
 62
     0
100
AcDbLine
 10
0.0
 20
0.0
 30
0.0
 11
-1.0
 21
0.0
 31
0.0
  0
POLYLINE
  5
4E
330
4A
100
AcDbEntity
  8
0
  6
CONTINUOUS
 62
     0
100
AcDb2dPolyline
 66
     1
 10
0.0
 20
0.0
 30
0.0
 70
     1
  0
VERTEX
  5
5BF
330
4E
100
AcDbEntity
  8
0
  6
CONTINUOUS
 62
     0
100
AcDbVertex
100
AcDb2dVertex
 10
-0.25
 20
0.0
 30
0.0
 40
0.5
 41
0.5
 42
1.0
  0
VERTEX
  5
5C0
330
4E
100
AcDbEntity
  8
0
  6
CONTINUOUS
 62
     0
100
AcDbVertex
100
AcDb2dVertex
 10
0.25
 20
0.0
 30
0.0
 40
0.5
 41
0.5
 42
1.0
  0
SEQEND
  5
5BE
330
4E
100
AcDbEntity
  8
0
  6
CONTINUOUS
 62
     0
  0
CIRCLE
  5
4F
330
4A
100
AcDbEntity
  8
0
  6
CONTINUOUS
 62
     0
100
AcDbCircle
 10
0.0
 20
0.0
 30
0.0
 40
0.5
  0
ENDBLK
  5
4C
330
4A
100
AcDbEntity
  8
0
100
AcDbBlockEnd
  0
BLOCK
  5
51
330
50
100
AcDbEntity
  8
0
100
AcDbBlockBegin
  2
FXTIP_BLACKDOT_E
 70
     0
 71
     0
 10
0.0
 20
0.0
 30
0.0
  3
FXTIP_BLACKDOT_E
  1

  0
LINE
  5
53
330
50
100
AcDbEntity
  8
0
  6
CONTINUOUS
 62
     0
100
AcDbLine
 10
0.0
 20
0.0
 30
0.0
 11
-1.0
 21
0.0
 31
0.0
  0
POLYLINE
  5
54
330
50
100
AcDbEntity
  8
0
  6
CONTINUOUS
 62
     0
100
AcDb2dPolyline
 66
     1
 10
0.0
 20
0.0
 30
0.0
 70
     1
  0
VERTEX
  5
5C2
330
54
100
AcDbEntity
  8
0
  6
CONTINUOUS
 62
     0
100
AcDbVertex
100
AcDb2dVertex
 10
-0.25
 20
0.0
 30
0.0
 40
0.5
 41
0.5
 42
1.0
  0
VERTEX
  5
5C3
330
54
100
AcDbEntity
  8
0
  6
CONTINUOUS
 62
     0
100
AcDbVertex
100
AcDb2dVertex
 10
0.25
 20
0.0
 30
0.0
 40
0.5
 41
0.5
 42
1.0
  0
SEQEND
  5
5C1
330
54
100
AcDbEntity
  8
0
  6
CONTINUOUS
 62
     0
  0
CIRCLE
  5
55
330
50
100
AcDbEntity
  8
0
  6
CONTINUOUS
 62
     0
100
AcDbCircle
 10
0.0
 20
0.0
 30
0.0
 40
0.5
  0
ENDBLK
  5
52
330
50
100
AcDbEntity
  8
0
100
AcDbBlockEnd
  0
BLOCK
  5
57
330
56
100
AcDbEntity
  8
0
100
AcDbBlockBegin
  2
FXTIP_TRIANGLE_S
 70
     0
 71
     0
 10
0.0
 20
0.0
 30
0.0
  3
FXTIP_TRIANGLE_S
  1

  0
LINE
  5
59
330
56
100
AcDbEntity
  8
0
  6
CONTINUOUS
 62
     0
100
AcDbLine
 10
0.0
 20
0.0
 30
0.0
 11
-1.0
 21
0.0
 31
0.0
  0
LINE
  5
5A
330
56
100
AcDbEntity
  8
0
  6
CONTINUOUS
 62
     0
100
AcDbLine
 10
0.0
 20
0.0
 30
0.0
 11
-0.965926
 21
-0.258819
 31
0.0
  0
LINE
  5
5B
330
56
100
AcDbEntity
  8
0
  6
CONTINUOUS
 62
     0
100
AcDbLine
 10
0.0
 20
0.0
 30
0.0
 11
-0.965926
 21
0.258819
 31
0.0
  0
LINE
  5
5C
330
56
100
AcDbEntity
  8
0
  6
CONTINUOUS
 62
     0
100
AcDbLine
 10
-0.965926
 20
-0.258819
 30
0.0
 11
-0.965926
 21
0.258819
 31
0.0
  0
ENDBLK
  5
58
330
56
100
AcDbEntity
  8
0
100
AcDbBlockEnd
  0
BLOCK
  5
5E
330
5D
100
AcDbEntity
  8
0
100
AcDbBlockBegin
  2
FXTIP_TRIANGLE_E
 70
     0
 71
     0
 10
0.0
 20
0.0
 30
0.0
  3
FXTIP_TRIANGLE_E
  1

  0
LINE
  5
60
330
5D
100
AcDbEntity
  8
0
  6
CONTINUOUS
 62
     0
100
AcDbLine
 10
0.0
 20
0.0
 30
0.0
 11
-1.0
 21
0.0
 31
0.0
  0
LINE
  5
61
330
5D
100
AcDbEntity
  8
0
  6
CONTINUOUS
 62
     0
100
AcDbLine
 10
0.0
 20
0.0
 30
0.0
 11
-0.965926
 21
0.258819
 31
0.0
  0
LINE
  5
62
330
5D
100
AcDbEntity
  8
0
  6
CONTINUOUS
 62
     0
100
AcDbLine
 10
0.0
 20
0.0
 30
0.0
 11
-0.965926
 21
-0.258819
 31
0.0
  0
LINE
  5
63
330
5D
100
AcDbEntity
  8
0
  6
CONTINUOUS
 62
     0
100
AcDbLine
 10
-0.965926
 20
0.258819
 30
0.0
 11
-0.965926
 21
-0.258819
 31
0.0
  0
ENDBLK
  5
5F
330
5D
100
AcDbEntity
  8
0
100
AcDbBlockEnd
  0
BLOCK
  5
65
330
64
100
AcDbEntity
  8
0
100
AcDbBlockBegin
  2
FXTIP_ARCHITECT_S
 70
     0
 71
     0
 10
0.0
 20
0.0
 30
0.0
  3
FXTIP_ARCHITECT_S
  1

  0
LINE
  5
67
330
64
100
AcDbEntity
  8
0
  6
CONTINUOUS
 62
     0
100
AcDbLine
 10
0.0
 20
0.0
 30
0.0
 11
-1.0
 21
0.0
 31
0.0
  0
LINE
  5
68
330
64
100
AcDbEntity
  8
0
  6
CONTINUOUS
 62
     0
100
AcDbLine
 10
0.0
 20
0.0
 30
0.0
 11
-0.707107
 21
-0.707107
 31
0.0
  0
LINE
  5
69
330
64
100
AcDbEntity
  8
0
  6
CONTINUOUS
 62
     0
100
AcDbLine
 10
0.0
 20
0.0
 30
0.0
 11
0.707107
 21
0.707107
 31
0.0
  0
ENDBLK
  5
66
330
64
100
AcDbEntity
  8
0
100
AcDbBlockEnd
  0
BLOCK
  5
6B
330
6A
100
AcDbEntity
  8
0
100
AcDbBlockBegin
  2
FXTIP_ARCHITECT_E
 70
     0
 71
     0
 10
0.0
 20
0.0
 30
0.0
  3
FXTIP_ARCHITECT_E
  1

  0
LINE
  5
6D
330
6A
100
AcDbEntity
  8
0
  6
CONTINUOUS
 62
     0
100
AcDbLine
 10
0.0
 20
0.0
 30
0.0
 11
-1.0
 21
0.0
 31
0.0
  0
LINE
  5
6E
330
6A
100
AcDbEntity
  8
0
  6
CONTINUOUS
 62
     0
100
AcDbLine
 10
0.0
 20
0.0
 30
0.0
 11
0.707107
 21
0.707107
 31
0.0
  0
LINE
  5
6F
330
6A
100
AcDbEntity
  8
0
  6
CONTINUOUS
 62
     0
100
AcDbLine
 10
0.0
 20
0.0
 30
0.0
 11
-0.707107
 21
-0.707107
 31
0.0
  0
ENDBLK
  5
6C
330
6A
100
AcDbEntity
  8
0
100
AcDbBlockEnd
  0
BLOCK
  5
71
330
70
100
AcDbEntity
  8
0
100
AcDbBlockBegin
  2
FXTIP_CIVIL_S
 70
     0
 71
     0
 10
0.0
 20
0.0
 30
0.0
  3
FXTIP_CIVIL_S
  1

  0
LINE
  5
73
330
70
100
AcDbEntity
  8
0
  6
CONTINUOUS
 62
     0
100
AcDbLine
 10
0.0
 20
0.0
 30
0.0
 11
-1.0
 21
0.0
 31
0.0
  0
LINE
  5
74
330
70
100
AcDbEntity
  8
0
  6
CONTINUOUS
 62
     0
100
AcDbLine
 10
0.0
 20
-0.125
 30
0.0
 11
-1.0
 21
-0.125
 31
0.0
  0
LINE
  5
75
330
70
100
AcDbEntity
  8
0
  6
CONTINUOUS
 62
     0
100
AcDbLine
 10
0.0
 20
-0.25
 30
0.0
 11
-1.0
 21
-0.25
 31
0.0
  0
ENDBLK
  5
72
330
70
100
AcDbEntity
  8
0
100
AcDbBlockEnd
  0
BLOCK
  5
77
330
76
100
AcDbEntity
  8
0
100
AcDbBlockBegin
  2
FXTIP_CIVIL_E
 70
     0
 71
     0
 10
0.0
 20
0.0
 30
0.0
  3
FXTIP_CIVIL_E
  1

  0
LINE
  5
79
330
76
100
AcDbEntity
  8
0
  6
CONTINUOUS
 62
     0
100
AcDbLine
 10
0.0
 20
0.0
 30
0.0
 11
-1.0
 21
0.0
 31
0.0
  0
LINE
  5
7A
330
76
100
AcDbEntity
  8
0
  6
CONTINUOUS
 62
     0
100
AcDbLine
 10
0.0
 20
0.125
 30
0.0
 11
-1.0
 21
0.125
 31
0.0
  0
LINE
  5
7B
330
76
100
AcDbEntity
  8
0
  6
CONTINUOUS
 62
     0
100
AcDbLine
 10
0.0
 20
0.25
 30
0.0
 11
-1.0
 21
0.25
 31
0.0
  0
ENDBLK
  5
78
330
76
100
AcDbEntity
  8
0
100
AcDbBlockEnd
  0
BLOCK
  5
7D
330
7C
100
AcDbEntity
  8
0
100
AcDbBlockBegin
  2
FXTIP_WHITEDOT_S
 70
     0
 71
     0
 10
0.0
 20
0.0
 30
0.0
  3
FXTIP_WHITEDOT_S
  1

  0
LINE
  5
7F
330
7C
100
AcDbEntity
  8
0
  6
CONTINUOUS
 62
     0
100
AcDbLine
 10
0.0
 20
0.0
 30
0.0
 11
-1.0
 21
0.0
 31
0.0
  0
CIRCLE
  5
80
330
7C
100
AcDbEntity
  8
0
  6
CONTINUOUS
 62
     0
100
AcDbCircle
 10
0.0
 20
0.0
 30
0.0
 40
0.5
  0
ENDBLK
  5
7E
330
7C
100
AcDbEntity
  8
0
100
AcDbBlockEnd
  0
BLOCK
  5
82
330
81
100
AcDbEntity
  8
0
100
AcDbBlockBegin
  2
FXTIP_WHITEDOT_E
 70
     0
 71
     0
 10
0.0
 20
0.0
 30
0.0
  3
FXTIP_WHITEDOT_E
  1

  0
LINE
  5
84
330
81
100
AcDbEntity
  8
0
  6
CONTINUOUS
 62
     0
100
AcDbLine
 10
0.0
 20
0.0
 30
0.0
 11
-1.0
 21
0.0
 31
0.0
  0
CIRCLE
  5
85
330
81
100
AcDbEntity
  8
0
  6
CONTINUOUS
 62
     0
100
AcDbCircle
 10
0.0
 20
0.0
 30
0.0
 40
0.5
  0
ENDBLK
  5
83
330
81
100
AcDbEntity
  8
0
100
AcDbBlockEnd
  0
BLOCK
  5
87
330
86
100
AcDbEntity
  8
0
100
AcDbBlockBegin
  2
FXTIP_UPARROW_S
 70
     0
 71
     0
 10
0.0
 20
0.0
 30
0.0
  3
FXTIP_UPARROW_S
  1

  0
LINE
  5
89
330
86
100
AcDbEntity
  8
0
  6
CONTINUOUS
 62
     0
100
AcDbLine
 10
0.0
 20
0.0
 30
0.0
 11
-1.0
 21
0.0
 31
0.0
  0
LINE
  5
8A
330
86
100
AcDbEntity
  8
0
  6
CONTINUOUS
 62
     0
100
AcDbLine
 10
0.0
 20
0.0
 30
0.0
 11
-0.965926
 21
-0.258819
 31
0.0
  0
ENDBLK
  5
88
330
86
100
AcDbEntity
  8
0
100
AcDbBlockEnd
  0
BLOCK
  5
8C
330
8B
100
AcDbEntity
  8
0
100
AcDbBlockBegin
  2
FXTIP_UPARROW_E
 70
     0
 71
     0
 10
0.0
 20
0.0
 30
0.0
  3
FXTIP_UPARROW_E
  1

  0
LINE
  5
8E
330
8B
100
AcDbEntity
  8
0
  6
CONTINUOUS
 62
     0
100
AcDbLine
 10
0.0
 20
0.0
 30
0.0
 11
-1.0
 21
0.0
 31
0.0
  0
LINE
  5
8F
330
8B
100
AcDbEntity
  8
0
  6
CONTINUOUS
 62
     0
100
AcDbLine
 10
0.0
 20
0.0
 30
0.0
 11
-0.965926
 21
0.258819
 31
0.0
  0
ENDBLK
  5
8D
330
8B
100
AcDbEntity
  8
0
100
AcDbBlockEnd
  0
BLOCK
  5
91
330
90
100
AcDbEntity
  8
0
100
AcDbBlockBegin
  2
FXTIP_DOWNARROW_S
 70
     0
 71
     0
 10
0.0
 20
0.0
 30
0.0
  3
FXTIP_DOWNARROW_S
  1

  0
LINE
  5
93
330
90
100
AcDbEntity
  8
0
  6
CONTINUOUS
 62
     0
100
AcDbLine
 10
0.0
 20
0.0
 30
0.0
 11
-1.0
 21
0.0
 31
0.0
  0
LINE
  5
94
330
90
100
AcDbEntity
  8
0
  6
CONTINUOUS
 62
     0
100
AcDbLine
 10
0.0
 20
0.0
 30
0.0
 11
-0.965926
 21
0.258819
 31
0.0
  0
ENDBLK
  5
92
330
90
100
AcDbEntity
  8
0
100
AcDbBlockEnd
  0
BLOCK
  5
96
330
95
100
AcDbEntity
  8
0
100
AcDbBlockBegin
  2
FXTIP_DOWNARROW_E
 70
     0
 71
     0
 10
0.0
 20
0.0
 30
0.0
  3
FXTIP_DOWNARROW_E
  1

  0
LINE
  5
98
330
95
100
AcDbEntity
  8
0
  6
CONTINUOUS
 62
     0
100
AcDbLine
 10
0.0
 20
0.0
 30
0.0
 11
-1.0
 21
0.0
 31
0.0
  0
LINE
  5
99
330
95
100
AcDbEntity
  8
0
  6
CONTINUOUS
 62
     0
100
AcDbLine
 10
0.0
 20
0.0
 30
0.0
 11
-0.965926
 21
-0.258819
 31
0.0
  0
ENDBLK
  5
97
330
95
100
AcDbEntity
  8
0
100
AcDbBlockEnd
  0
BLOCK
  5
9B
330
9A
100
AcDbEntity
  8
0
100
AcDbBlockBegin
  2
FXTIP_BLACKTRIANGLE_S
 70
     0
 71
     0
 10
0.0
 20
0.0
 30
0.0
  3
FXTIP_BLACKTRIANGLE_S
  1

  0
LINE
  5
9D
330
9A
100
AcDbEntity
  8
0
  6
CONTINUOUS
 62
     0
100
AcDbLine
 10
0.0
 20
0.0
 30
0.0
 11
-1.0
 21
0.0
 31
0.0
  0
SOLID
  5
9E
330
9A
100
AcDbEntity
  8
0
  6
CONTINUOUS
 62
     0
100
AcDbTrace
 10
0.0
 20
0.0
 30
0.0
 11
-0.965926
 21
-0.258819
 31
0.0
 12
-0.965926
 22
0.258819
 32
0.0
 13
-0.965926
 23
0.258819
 33
0.0
  0
ENDBLK
  5
9C
330
9A
100
AcDbEntity
  8
0
100
AcDbBlockEnd
  0
BLOCK
  5
A0
330
9F
100
AcDbEntity
  8
0
100
AcDbBlockBegin
  2
FXTIP_BLACKTRIANGLE_E
 70
     0
 71
     0
 10
0.0
 20
0.0
 30
0.0
  3
FXTIP_BLACKTRIANGLE_E
  1

  0
LINE
  5
A2
330
9F
100
AcDbEntity
  8
0
  6
CONTINUOUS
 62
     0
100
AcDbLine
 10
0.0
 20
0.0
 30
0.0
 11
-1.0
 21
0.0
 31
0.0
  0
SOLID
  5
A3
330
9F
100
AcDbEntity
  8
0
  6
CONTINUOUS
 62
     0
100
AcDbTrace
 10
0.0
 20
0.0
 30
0.0
 11
-0.965926
 21
0.258819
 31
0.0
 12
-0.965926
 22
-0.258819
 32
0.0
 13
-0.965926
 23
-0.258819
 33
0.0
  0
ENDBLK
  5
A1
330
9F
100
AcDbEntity
  8
0
100
AcDbBlockEnd
  0
BLOCK
  5
D2
330
D1
100
AcDbEntity
  8
0
100
AcDbBlockBegin
  2
BLKF021
 70
     0
 71
     0
 10
0.0
 20
0.0
 30
0.0
  3
BLKF021
  1

  0
LINE
  5
D5
330
D1
100
AcDbEntity
  8
GR1-1
  6
細い実線
 62
     7
100
AcDbLine
 10
724.983411
 20
168.512085
 30
0.0
 11
718.316745
 21
168.512085
 31
0.0
  0
LINE
  5
D6
330
D1
100
AcDbEntity
  8
GR1-1
  6
細い実線
 62
     7
100
AcDbLine
 10
724.983411
 20
181.285419
 30
0.0
 11
718.316745
 21
181.285419
 31
0.0
  0
LINE
  5
D7
330
D1
100
AcDbEntity
  8
GR1-1
  6
細い実線
 62
     7
100
AcDbLine
 10
718.983411
 20
181.285419
 30
0.0
 11
718.983411
 21
168.512085
 31
0.0
  0
LINE
  5
D8
330
D1
100
AcDbEntity
  8
GR1-1
  6
細い実線
 62
     7
100
AcDbLine
 10
718.638319
 20
169.799986
 30
0.0
 11
719.328503
 21
169.799986
 31
0.0
  0
LINE
  5
D9
330
D1
100
AcDbEntity
  8
GR1-1
  6
細い実線
 62
     7
100
AcDbLine
 10
719.328503
 20
169.799986
 30
0.0
 11
718.983411
 21
168.512085
 31
0.0
  0
LINE
  5
DA
330
D1
100
AcDbEntity
  8
GR1-1
  6
細い実線
 62
     7
100
AcDbLine
 10
718.983411
 20
168.512085
 30
0.0
 11
718.638319
 21
169.799986
 31
0.0
  0
LINE
  5
DB
330
D1
100
AcDbEntity
  8
GR1-1
  6
細い実線
 62
     7
100
AcDbLine
 10
719.328503
 20
179.997518
 30
0.0
 11
718.638319
 21
179.997518
 31
0.0
  0
LINE
  5
DC
330
D1
100
AcDbEntity
  8
GR1-1
  6
細い実線
 62
     7
100
AcDbLine
 10
718.638319
 20
179.997518
 30
0.0
 11
718.983411
 21
181.285419
 31
0.0
  0
LINE
  5
DD
330
D1
100
AcDbEntity
  8
GR1-1
  6
細い実線
 62
     7
100
AcDbLine
 10
718.983411
 20
181.285419
 30
0.0
 11
719.328503
 21
179.997518
 31
0.0
  0
TEXT
  5
DE
330
D1
100
AcDbEntity
  8
GR1-1
  6
細い実線
 62
     7
100
AcDbText
 10
718.983398
 20
171.56543
 30
0.0
 40
2.0
  1
３８３．２
 50
90.0
 41
0.666667
  7
FX_VECTOR
 72
     5
 11
718.983398
 21
178.232096
 31
0.0
100
AcDbText
  0
ENDBLK
  5
D3
330
D1
100
AcDbEntity
  8
0
100
AcDbBlockEnd
  0
BLOCK
  5
E0
330
DF
100
AcDbEntity
  8
0
100
AcDbBlockBegin
  2
BLKF022
 70
     0
 71
     0
 10
0.0
 20
0.0
 30
0.0
  3
BLKF022
  1

  0
LINE
  5
E3
330
DF
100
AcDbEntity
  8
GR1-1
  6
細い実線
 62
     7
100
AcDbLine
 10
725.650078
 20
181.952085
 30
0.0
 11
725.650078
 21
193.618752
 31
0.0
  0
LINE
  5
E4
330
DF
100
AcDbEntity
  8
GR1-1
  6
細い実線
 62
     7
100
AcDbLine
 10
767.316745
 20
181.952085
 30
0.0
 11
767.316745
 21
193.618752
 31
0.0
  0
LINE
  5
E5
330
DF
100
AcDbEntity
  8
GR1-1
  6
細い実線
 62
     7
100
AcDbLine
 10
767.316745
 20
192.952085
 30
0.0
 11
725.650078
 21
192.952085
 31
0.0
  0
LINE
  5
E6
330
DF
100
AcDbEntity
  8
GR1-1
  6
細い実線
 62
     7
100
AcDbLine
 10
726.937979
 20
193.297177
 30
0.0
 11
726.937979
 21
192.606993
 31
0.0
  0
LINE
  5
E7
330
DF
100
AcDbEntity
  8
GR1-1
  6
細い実線
 62
     7
100
AcDbLine
 10
726.937979
 20
192.606993
 30
0.0
 11
725.650078
 21
192.952085
 31
0.0
  0
LINE
  5
E8
330
DF
100
AcDbEntity
  8
GR1-1
  6
細い実線
 62
     7
100
AcDbLine
 10
725.650078
 20
192.952085
 30
0.0
 11
726.937979
 21
193.297177
 31
0.0
  0
LINE
  5
E9
330
DF
100
AcDbEntity
  8
GR1-1
  6
細い実線
 62
     7
100
AcDbLine
 10
766.028844
 20
192.606993
 30
0.0
 11
766.028844
 21
193.297177
 31
0.0
  0
LINE
  5
EA
330
DF
100
AcDbEntity
  8
GR1-1
  6
細い実線
 62
     7
100
AcDbLine
 10
766.028844
 20
193.297177
 30
0.0
 11
767.316745
 21
192.952085
 31
0.0
  0
LINE
  5
EB
330
DF
100
AcDbEntity
  8
GR1-1
  6
細い実線
 62
     7
100
AcDbLine
 10
767.316745
 20
192.952085
 30
0.0
 11
766.028844
 21
192.606993
 31
0.0
  0
TEXT
  5
EC
330
DF
100
AcDbEntity
  8
GR1-1
  6
細い実線
 62
     7
100
AcDbText
 10
743.816732
 20
192.9521
 30
0.0
 40
2.0
  1
１２５０
 41
0.666667
  7
FX_VECTOR
 72
     5
 11
749.150065
 21
192.9521
 31
0.0
100
AcDbText
  0
ENDBLK
  5
E1
330
DF
100
AcDbEntity
  8
0
100
AcDbBlockEnd
  0
BLOCK
  5
EE
330
ED
100
AcDbEntity
  8
0
100
AcDbBlockBegin
  2
BLKF023
 70
     0
 71
     0
 10
0.0
 20
0.0
 30
0.0
  3
BLKF023
  1

  0
LINE
  5
F1
330
ED
100
AcDbEntity
  8
GR1-1
  6
細い実線
 62
     7
100
AcDbLine
 10
725.650078
 20
181.952085
 30
0.0
 11
725.650078
 21
190.285419
 31
0.0
  0
LINE
  5
F2
330
ED
100
AcDbEntity
  8
GR1-1
  6
細い実線
 62
     7
100
AcDbLine
 10
736.233411
 20
181.952085
 30
0.0
 11
736.233411
 21
190.285419
 31
0.0
  0
LINE
  5
F3
330
ED
100
AcDbEntity
  8
GR1-1
  6
細い実線
 62
     7
100
AcDbLine
 10
736.233411
 20
189.618752
 30
0.0
 11
725.650078
 21
189.618752
 31
0.0
  0
LINE
  5
F4
330
ED
100
AcDbEntity
  8
GR1-1
  6
細い実線
 62
     7
100
AcDbLine
 10
726.937979
 20
189.963844
 30
0.0
 11
726.937979
 21
189.27366
 31
0.0
  0
LINE
  5
F5
330
ED
100
AcDbEntity
  8
GR1-1
  6
細い実線
 62
     7
100
AcDbLine
 10
726.937979
 20
189.27366
 30
0.0
 11
725.650078
 21
189.618752
 31
0.0
  0
LINE
  5
F6
330
ED
100
AcDbEntity
  8
GR1-1
  6
細い実線
 62
     7
100
AcDbLine
 10
725.650078
 20
189.618752
 30
0.0
 11
726.937979
 21
189.963844
 31
0.0
  0
LINE
  5
F7
330
ED
100
AcDbEntity
  8
GR1-1
  6
細い実線
 62
     7
100
AcDbLine
 10
734.94551
 20
189.27366
 30
0.0
 11
734.94551
 21
189.963844
 31
0.0
  0
LINE
  5
F8
330
ED
100
AcDbEntity
  8
GR1-1
  6
細い実線
 62
     7
100
AcDbLine
 10
734.94551
 20
189.963844
 30
0.0
 11
736.233411
 21
189.618752
 31
0.0
  0
LINE
  5
F9
330
ED
100
AcDbEntity
  8
GR1-1
  6
細い実線
 62
     7
100
AcDbLine
 10
736.233411
 20
189.618752
 30
0.0
 11
734.94551
 21
189.27366
 31
0.0
  0
TEXT
  5
FA
330
ED
100
AcDbEntity
  8
GR1-1
  6
細い実線
 62
     7
100
AcDbText
 10
727.608398
 20
189.618766
 30
0.0
 40
2.0
  1
３１７．５
 41
0.666667
  7
FX_VECTOR
 72
     5
 11
734.275065
 21
189.618766
 31
0.0
100
AcDbText
  0
ENDBLK
  5
EF
330
ED
100
AcDbEntity
  8
0
100
AcDbBlockEnd
  0
BLOCK
  5
FC
330
FB
100
AcDbEntity
  8
0
100
AcDbBlockBegin
  2
BLKF024
 70
     0
 71
     0
 10
0.0
 20
0.0
 30
0.0
  3
BLKF024
  1

  0
LINE
  5
FF
330
FB
100
AcDbEntity
  8
GR1-1
  6
細い実線
 62
     7
100
AcDbLine
 10
739.900078
 20
181.952085
 30
0.0
 11
739.900078
 21
190.285419
 31
0.0
  0
LINE
  5
100
330
FB
100
AcDbEntity
  8
GR1-1
  6
細い実線
 62
     7
100
AcDbLine
 10
739.900078
 20
189.618752
 30
0.0
 11
736.233411
 21
189.618752
 31
0.0
  0
LINE
  5
101
330
FB
100
AcDbEntity
  8
GR1-1
  6
細い実線
 62
     7
100
AcDbLine
 10
737.521312
 20
189.963844
 30
0.0
 11
737.521312
 21
189.27366
 31
0.0
  0
LINE
  5
102
330
FB
100
AcDbEntity
  8
GR1-1
  6
細い実線
 62
     7
100
AcDbLine
 10
737.521312
 20
189.27366
 30
0.0
 11
736.233411
 21
189.618752
 31
0.0
  0
LINE
  5
103
330
FB
100
AcDbEntity
  8
GR1-1
  6
細い実線
 62
     7
100
AcDbLine
 10
736.233411
 20
189.618752
 30
0.0
 11
737.521312
 21
189.963844
 31
0.0
  0
LINE
  5
104
330
FB
100
AcDbEntity
  8
GR1-1
  6
細い実線
 62
     7
100
AcDbLine
 10
738.612177
 20
189.27366
 30
0.0
 11
738.612177
 21
189.963844
 31
0.0
  0
LINE
  5
105
330
FB
100
AcDbEntity
  8
GR1-1
  6
細い実線
 62
     7
100
AcDbLine
 10
738.612177
 20
189.963844
 30
0.0
 11
739.900078
 21
189.618752
 31
0.0
  0
LINE
  5
106
330
FB
100
AcDbEntity
  8
GR1-1
  6
細い実線
 62
     7
100
AcDbLine
 10
739.900078
 20
189.618752
 30
0.0
 11
738.612177
 21
189.27366
 31
0.0
  0
TEXT
  5
107
330
FB
100
AcDbEntity
  8
GR1-1
  6
細い実線
 62
     7
100
AcDbText
 10
736.066732
 20
190.285433
 30
0.0
 40
2.0
  1
１１０
 41
0.666667
  7
FX_VECTOR
 72
     5
 11
740.066732
 21
190.285433
 31
0.0
100
AcDbText
  0
ENDBLK
  5
FD
330
FB
100
AcDbEntity
  8
0
100
AcDbBlockEnd
  0
BLOCK
  5
109
330
108
100
AcDbEntity
  8
0
100
AcDbBlockBegin
  2
BLKF025
 70
     0
 71
     0
 10
0.0
 20
0.0
 30
0.0
  3
BLKF025
  1

  0
LINE
  5
10C
330
108
100
AcDbEntity
  8
GR1-1
  6
細い実線
 62
     7
100
AcDbLine
 10
753.066745
 20
181.952085
 30
0.0
 11
753.066745
 21
190.285419
 31
0.0
  0
LINE
  5
10D
330
108
100
AcDbEntity
  8
GR1-1
  6
細い実線
 62
     7
100
AcDbLine
 10
753.066745
 20
189.618752
 30
0.0
 11
739.900078
 21
189.618752
 31
0.0
  0
LINE
  5
10E
330
108
100
AcDbEntity
  8
GR1-1
  6
細い実線
 62
     7
100
AcDbLine
 10
741.187979
 20
189.963844
 30
0.0
 11
741.187979
 21
189.27366
 31
0.0
  0
LINE
  5
10F
330
108
100
AcDbEntity
  8
GR1-1
  6
細い実線
 62
     7
100
AcDbLine
 10
741.187979
 20
189.27366
 30
0.0
 11
739.900078
 21
189.618752
 31
0.0
  0
LINE
  5
110
330
108
100
AcDbEntity
  8
GR1-1
  6
細い実線
 62
     7
100
AcDbLine
 10
739.900078
 20
189.618752
 30
0.0
 11
741.187979
 21
189.963844
 31
0.0
  0
LINE
  5
111
330
108
100
AcDbEntity
  8
GR1-1
  6
細い実線
 62
     7
100
AcDbLine
 10
751.778844
 20
189.27366
 30
0.0
 11
751.778844
 21
189.963844
 31
0.0
  0
LINE
  5
112
330
108
100
AcDbEntity
  8
GR1-1
  6
細い実線
 62
     7
100
AcDbLine
 10
751.778844
 20
189.963844
 30
0.0
 11
753.066745
 21
189.618752
 31
0.0
  0
LINE
  5
113
330
108
100
AcDbEntity
  8
GR1-1
  6
細い実線
 62
     7
100
AcDbLine
 10
753.066745
 20
189.618752
 30
0.0
 11
751.778844
 21
189.27366
 31
0.0
  0
TEXT
  5
114
330
108
100
AcDbEntity
  8
GR1-1
  6
細い実線
 62
     7
100
AcDbText
 10
744.483398
 20
189.618766
 30
0.0
 40
2.0
  1
３９５
 41
0.666667
  7
FX_VECTOR
 72
     5
 11
748.483398
 21
189.618766
 31
0.0
100
AcDbText
  0
ENDBLK
  5
10A
330
108
100
AcDbEntity
  8
0
100
AcDbBlockEnd
  0
BLOCK
  5
116
330
115
100
AcDbEntity
  8
0
100
AcDbBlockBegin
  2
BLKF026
 70
     0
 71
     0
 10
0.0
 20
0.0
 30
0.0
  3
BLKF026
  1

  0
LINE
  5
119
330
115
100
AcDbEntity
  8
GR1-1
  6
細い実線
 62
     7
100
AcDbLine
 10
756.733411
 20
181.952085
 30
0.0
 11
756.733411
 21
190.285419
 31
0.0
  0
LINE
  5
11A
330
115
100
AcDbEntity
  8
GR1-1
  6
細い実線
 62
     7
100
AcDbLine
 10
756.733411
 20
189.618752
 30
0.0
 11
753.066745
 21
189.618752
 31
0.0
  0
LINE
  5
11B
330
115
100
AcDbEntity
  8
GR1-1
  6
細い実線
 62
     7
100
AcDbLine
 10
754.354646
 20
189.963844
 30
0.0
 11
754.354646
 21
189.27366
 31
0.0
  0
LINE
  5
11C
330
115
100
AcDbEntity
  8
GR1-1
  6
細い実線
 62
     7
100
AcDbLine
 10
754.354646
 20
189.27366
 30
0.0
 11
753.066745
 21
189.618752
 31
0.0
  0
LINE
  5
11D
330
115
100
AcDbEntity
  8
GR1-1
  6
細い実線
 62
     7
100
AcDbLine
 10
753.066745
 20
189.618752
 30
0.0
 11
754.354646
 21
189.963844
 31
0.0
  0
LINE
  5
11E
330
115
100
AcDbEntity
  8
GR1-1
  6
細い実線
 62
     7
100
AcDbLine
 10
755.44551
 20
189.27366
 30
0.0
 11
755.44551
 21
189.963844
 31
0.0
  0
LINE
  5
11F
330
115
100
AcDbEntity
  8
GR1-1
  6
細い実線
 62
     7
100
AcDbLine
 10
755.44551
 20
189.963844
 30
0.0
 11
756.733411
 21
189.618752
 31
0.0
  0
LINE
  5
120
330
115
100
AcDbEntity
  8
GR1-1
  6
細い実線
 62
     7
100
AcDbLine
 10
756.733411
 20
189.618752
 30
0.0
 11
755.44551
 21
189.27366
 31
0.0
  0
TEXT
  5
121
330
115
100
AcDbEntity
  8
GR1-1
  6
細い実線
 62
     7
100
AcDbText
 10
752.900065
 20
190.285433
 30
0.0
 40
2.0
  1
１１０
 41
0.666667
  7
FX_VECTOR
 72
     5
 11
756.900065
 21
190.285433
 31
0.0
100
AcDbText
  0
ENDBLK
  5
117
330
115
100
AcDbEntity
  8
0
100
AcDbBlockEnd
  0
BLOCK
  5
123
330
122
100
AcDbEntity
  8
0
100
AcDbBlockBegin
  2
BLKF027
 70
     0
 71
     0
 10
0.0
 20
0.0
 30
0.0
  3
BLKF027
  1

  0
LINE
  5
126
330
122
100
AcDbEntity
  8
GR1-1
  6
細い実線
 62
     7
100
AcDbLine
 10
767.316745
 20
181.952085
 30
0.0
 11
767.316745
 21
190.285419
 31
0.0
  0
LINE
  5
127
330
122
100
AcDbEntity
  8
GR1-1
  6
細い実線
 62
     7
100
AcDbLine
 10
767.316745
 20
189.618752
 30
0.0
 11
756.733411
 21
189.618752
 31
0.0
  0
LINE
  5
128
330
122
100
AcDbEntity
  8
GR1-1
  6
細い実線
 62
     7
100
AcDbLine
 10
758.021312
 20
189.963844
 30
0.0
 11
758.021312
 21
189.27366
 31
0.0
  0
LINE
  5
129
330
122
100
AcDbEntity
  8
GR1-1
  6
細い実線
 62
     7
100
AcDbLine
 10
758.021312
 20
189.27366
 30
0.0
 11
756.733411
 21
189.618752
 31
0.0
  0
LINE
  5
12A
330
122
100
AcDbEntity
  8
GR1-1
  6
細い実線
 62
     7
100
AcDbLine
 10
756.733411
 20
189.618752
 30
0.0
 11
758.021312
 21
189.963844
 31
0.0
  0
LINE
  5
12B
330
122
100
AcDbEntity
  8
GR1-1
  6
細い実線
 62
     7
100
AcDbLine
 10
766.028844
 20
189.27366
 30
0.0
 11
766.028844
 21
189.963844
 31
0.0
  0
LINE
  5
12C
330
122
100
AcDbEntity
  8
GR1-1
  6
細い実線
 62
     7
100
AcDbLine
 10
766.028844
 20
189.963844
 30
0.0
 11
767.316745
 21
189.618752
 31
0.0
  0
LINE
  5
12D
330
122
100
AcDbEntity
  8
GR1-1
  6
細い実線
 62
     7
100
AcDbLine
 10
767.316745
 20
189.618752
 30
0.0
 11
766.028844
 21
189.27366
 31
0.0
  0
TEXT
  5
12E
330
122
100
AcDbEntity
  8
GR1-1
  6
細い実線
 62
     7
100
AcDbText
 10
758.691732
 20
189.618766
 30
0.0
 40
2.0
  1
３１７．５
 41
0.666667
  7
FX_VECTOR
 72
     5
 11
765.358398
 21
189.618766
 31
0.0
100
AcDbText
  0
ENDBLK
  5
124
330
122
100
AcDbEntity
  8
0
100
AcDbBlockEnd
  0
BLOCK
  5
138
330
137
100
AcDbEntity
  8
0
100
AcDbBlockBegin
  2
BLKF028
 70
     0
 71
     0
 10
0.0
 20
0.0
 30
0.0
  3
BLKF028
  1

  0
LINE
  5
13B
330
137
100
AcDbEntity
  8
GR1-1
  6
細い実線
 62
     7
100
AcDbLine
 10
736.233411
 20
184.618752
 30
0.0
 11
718.316745
 21
184.618752
 31
0.0
  0
LINE
  5
13C
330
137
100
AcDbEntity
  8
GR1-1
  6
細い実線
 62
     7
100
AcDbLine
 10
718.983411
 20
184.618752
 30
0.0
 11
718.983411
 21
181.285419
 31
0.0
  0
LINE
  5
13D
330
137
100
AcDbEntity
  8
GR1-1
  6
細い実線
 62
     7
100
AcDbLine
 10
718.638319
 20
182.57332
 30
0.0
 11
719.328503
 21
182.57332
 31
0.0
  0
LINE
  5
13E
330
137
100
AcDbEntity
  8
GR1-1
  6
細い実線
 62
     7
100
AcDbLine
 10
719.328503
 20
182.57332
 30
0.0
 11
718.983411
 21
181.285419
 31
0.0
  0
LINE
  5
13F
330
137
100
AcDbEntity
  8
GR1-1
  6
細い実線
 62
     7
100
AcDbLine
 10
718.983411
 20
181.285419
 30
0.0
 11
718.638319
 21
182.57332
 31
0.0
  0
LINE
  5
140
330
137
100
AcDbEntity
  8
GR1-1
  6
細い実線
 62
     7
100
AcDbLine
 10
719.328503
 20
183.330851
 30
0.0
 11
718.638319
 21
183.330851
 31
0.0
  0
LINE
  5
141
330
137
100
AcDbEntity
  8
GR1-1
  6
細い実線
 62
     7
100
AcDbLine
 10
718.638319
 20
183.330851
 30
0.0
 11
718.983411
 21
184.618752
 31
0.0
  0
LINE
  5
142
330
137
100
AcDbEntity
  8
GR1-1
  6
細い実線
 62
     7
100
AcDbLine
 10
718.983411
 20
184.618752
 30
0.0
 11
719.328503
 21
183.330851
 31
0.0
  0
TEXT
  5
143
330
137
100
AcDbEntity
  8
GR1-1
  6
細い実線
 62
     7
100
AcDbText
 10
718.316732
 20
180.952083
 30
0.0
 40
2.0
  1
１００
 50
90.0
 41
0.666667
  7
FX_VECTOR
 72
     5
 11
718.316732
 21
184.952083
 31
0.0
100
AcDbText
  0
ENDBLK
  5
139
330
137
100
AcDbEntity
  8
0
100
AcDbBlockEnd
  0
BLOCK
  5
17E
330
17D
100
AcDbEntity
  8
0
100
AcDbBlockBegin
  2
BLKF029
 70
     0
 71
     0
 10
0.0
 20
0.0
 30
0.0
  3
BLKF029
  1

  0
LINE
  5
181
330
17D
100
AcDbEntity
  8
GR1-1
  6
細い実線
 62
     7
100
AcDbLine
 10
756.512627
 20
128.360363
 30
0.0
 11
756.512627
 21
140.02703
 31
0.0
  0
LINE
  5
182
330
17D
100
AcDbEntity
  8
GR1-1
  6
細い実線
 62
     7
100
AcDbLine
 10
798.179294
 20
128.360363
 30
0.0
 11
798.179294
 21
140.02703
 31
0.0
  0
LINE
  5
183
330
17D
100
AcDbEntity
  8
GR1-1
  6
細い実線
 62
     7
100
AcDbLine
 10
798.179294
 20
139.360363
 30
0.0
 11
756.512627
 21
139.360363
 31
0.0
  0
LINE
  5
184
330
17D
100
AcDbEntity
  8
GR1-1
  6
細い実線
 62
     7
100
AcDbLine
 10
757.800529
 20
139.705455
 30
0.0
 11
757.800529
 21
139.015271
 31
0.0
  0
LINE
  5
185
330
17D
100
AcDbEntity
  8
GR1-1
  6
細い実線
 62
     7
100
AcDbLine
 10
757.800529
 20
139.015271
 30
0.0
 11
756.512627
 21
139.360363
 31
0.0
  0
LINE
  5
186
330
17D
100
AcDbEntity
  8
GR1-1
  6
細い実線
 62
     7
100
AcDbLine
 10
756.512627
 20
139.360363
 30
0.0
 11
757.800529
 21
139.705455
 31
0.0
  0
LINE
  5
187
330
17D
100
AcDbEntity
  8
GR1-1
  6
細い実線
 62
     7
100
AcDbLine
 10
796.891393
 20
139.015271
 30
0.0
 11
796.891393
 21
139.705455
 31
0.0
  0
LINE
  5
188
330
17D
100
AcDbEntity
  8
GR1-1
  6
細い実線
 62
     7
100
AcDbLine
 10
796.891393
 20
139.705455
 30
0.0
 11
798.179294
 21
139.360363
 31
0.0
  0
LINE
  5
189
330
17D
100
AcDbEntity
  8
GR1-1
  6
細い実線
 62
     7
100
AcDbLine
 10
798.179294
 20
139.360363
 30
0.0
 11
796.891393
 21
139.015271
 31
0.0
  0
TEXT
  5
18A
330
17D
100
AcDbEntity
  8
GR1-1
  6
細い実線
 62
     7
100
AcDbText
 10
774.679232
 20
139.360368
 30
0.0
 40
2.0
  1
１２５０
 41
0.666667
  7
FX_VECTOR
 72
     5
 11
780.012565
 21
139.360368
 31
0.0
100
AcDbText
  0
ENDBLK
  5
17F
330
17D
100
AcDbEntity
  8
0
100
AcDbBlockEnd
  0
BLOCK
  5
18C
330
18B
100
AcDbEntity
  8
0
100
AcDbBlockBegin
  2
BLKF030
 70
     0
 71
     0
 10
0.0
 20
0.0
 30
0.0
  3
BLKF030
  1

  0
LINE
  5
18F
330
18B
100
AcDbEntity
  8
GR1-1
  6
細い実線
 62
     7
100
AcDbLine
 10
756.512627
 20
114.52703
 30
0.0
 11
756.512627
 21
101.193696
 31
0.0
  0
LINE
  5
190
330
18B
100
AcDbEntity
  8
GR1-1
  6
細い実線
 62
     7
100
AcDbLine
 10
768.929294
 20
101.860363
 30
0.0
 11
756.512627
 21
101.860363
 31
0.0
  0
LINE
  5
191
330
18B
100
AcDbEntity
  8
GR1-1
  6
細い実線
 62
     7
100
AcDbLine
 10
757.800529
 20
102.205455
 30
0.0
 11
757.800529
 21
101.515271
 31
0.0
  0
LINE
  5
192
330
18B
100
AcDbEntity
  8
GR1-1
  6
細い実線
 62
     7
100
AcDbLine
 10
757.800529
 20
101.515271
 30
0.0
 11
756.512627
 21
101.860363
 31
0.0
  0
LINE
  5
193
330
18B
100
AcDbEntity
  8
GR1-1
  6
細い実線
 62
     7
100
AcDbLine
 10
756.512627
 20
101.860363
 30
0.0
 11
757.800529
 21
102.205455
 31
0.0
  0
LINE
  5
194
330
18B
100
AcDbEntity
  8
GR1-1
  6
細い実線
 62
     7
100
AcDbLine
 10
767.641393
 20
101.515271
 30
0.0
 11
767.641393
 21
102.205455
 31
0.0
  0
LINE
  5
195
330
18B
100
AcDbEntity
  8
GR1-1
  6
細い実線
 62
     7
100
AcDbLine
 10
767.641393
 20
102.205455
 30
0.0
 11
768.929294
 21
101.860363
 31
0.0
  0
LINE
  5
196
330
18B
100
AcDbEntity
  8
GR1-1
  6
細い実線
 62
     7
100
AcDbLine
 10
768.929294
 20
101.860363
 30
0.0
 11
767.641393
 21
101.515271
 31
0.0
  0
TEXT
  5
197
330
18B
100
AcDbEntity
  8
GR1-1
  6
細い実線
 62
     7
100
AcDbText
 10
759.387565
 20
101.86036
 30
0.0
 40
2.0
  1
３７２．５
 41
0.666667
  7
FX_VECTOR
 72
     5
 11
766.054232
 21
101.86036
 31
0.0
100
AcDbText
  0
ENDBLK
  5
18D
330
18B
100
AcDbEntity
  8
0
100
AcDbBlockEnd
  0
BLOCK
  5
199
330
198
100
AcDbEntity
  8
0
100
AcDbBlockBegin
  2
BLKF031
 70
     0
 71
     0
 10
0.0
 20
0.0
 30
0.0
  3
BLKF031
  1

  0
LINE
  5
19C
330
198
100
AcDbEntity
  8
GR1-1
  6
細い実線
 62
     7
100
AcDbLine
 10
768.095961
 20
114.52703
 30
0.0
 11
768.095961
 21
106.193696
 31
0.0
  0
LINE
  5
19D
330
198
100
AcDbEntity
  8
GR1-1
  6
細い実線
 62
     7
100
AcDbLine
 10
769.762627
 20
114.52703
 30
0.0
 11
769.762627
 21
106.193696
 31
0.0
  0
LINE
  5
19E
330
198
100
AcDbEntity
  8
GR1-1
  6
細い実線
 62
     7
100
AcDbLine
 10
771.762627
 20
106.860363
 30
0.0
 11
766.095961
 21
106.860363
 31
0.0
  0
LINE
  5
19F
330
198
100
AcDbEntity
  8
GR1-1
  6
細い実線
 62
     7
100
AcDbLine
 10
766.80806
 20
106.515271
 30
0.0
 11
766.80806
 21
107.205455
 31
0.0
  0
LINE
  5
1A0
330
198
100
AcDbEntity
  8
GR1-1
  6
細い実線
 62
     7
100
AcDbLine
 10
766.80806
 20
107.205455
 30
0.0
 11
768.095961
 21
106.860363
 31
0.0
  0
LINE
  5
1A1
330
198
100
AcDbEntity
  8
GR1-1
  6
細い実線
 62
     7
100
AcDbLine
 10
768.095961
 20
106.860363
 30
0.0
 11
766.80806
 21
106.515271
 31
0.0
  0
LINE
  5
1A2
330
198
100
AcDbEntity
  8
GR1-1
  6
細い実線
 62
     7
100
AcDbLine
 10
771.050529
 20
107.205455
 30
0.0
 11
771.050529
 21
106.515271
 31
0.0
  0
LINE
  5
1A3
330
198
100
AcDbEntity
  8
GR1-1
  6
細い実線
 62
     7
100
AcDbLine
 10
771.050529
 20
106.515271
 30
0.0
 11
769.762627
 21
106.860363
 31
0.0
  0
LINE
  5
1A4
330
198
100
AcDbEntity
  8
GR1-1
  6
細い実線
 62
     7
100
AcDbLine
 10
769.762627
 20
106.860363
 30
0.0
 11
771.050529
 21
107.205455
 31
0.0
  0
TEXT
  5
1A5
330
198
100
AcDbEntity
  8
GR1-1
  6
細い実線
 62
     7
100
AcDbText
 10
771.208789
 20
106.86036
 30
0.0
 40
2.0
  1
５０
 41
0.666667
  7
FX_VECTOR
 72
     5
 11
773.875456
 21
106.86036
 31
0.0
100
AcDbText
  0
ENDBLK
  5
19A
330
198
100
AcDbEntity
  8
0
100
AcDbBlockEnd
  0
BLOCK
  5
1A7
330
1A6
100
AcDbEntity
  8
0
100
AcDbBlockBegin
  2
BLKF032
 70
     0
 71
     0
 10
0.0
 20
0.0
 30
0.0
  3
BLKF032
  1

  0
LINE
  5
1AA
330
1A6
100
AcDbEntity
  8
GR1-1
  6
細い実線
 62
     7
100
AcDbLine
 10
784.929294
 20
114.52703
 30
0.0
 11
784.929294
 21
106.193696
 31
0.0
  0
LINE
  5
1AB
330
1A6
100
AcDbEntity
  8
GR1-1
  6
細い実線
 62
     7
100
AcDbLine
 10
786.595961
 20
114.52703
 30
0.0
 11
786.595961
 21
106.193696
 31
0.0
  0
LINE
  5
1AC
330
1A6
100
AcDbEntity
  8
GR1-1
  6
細い実線
 62
     7
100
AcDbLine
 10
788.595961
 20
106.860363
 30
0.0
 11
782.929294
 21
106.860363
 31
0.0
  0
LINE
  5
1AD
330
1A6
100
AcDbEntity
  8
GR1-1
  6
細い実線
 62
     7
100
AcDbLine
 10
783.641393
 20
106.515271
 30
0.0
 11
783.641393
 21
107.205455
 31
0.0
  0
LINE
  5
1AE
330
1A6
100
AcDbEntity
  8
GR1-1
  6
細い実線
 62
     7
100
AcDbLine
 10
783.641393
 20
107.205455
 30
0.0
 11
784.929294
 21
106.860363
 31
0.0
  0
LINE
  5
1AF
330
1A6
100
AcDbEntity
  8
GR1-1
  6
細い実線
 62
     7
100
AcDbLine
 10
784.929294
 20
106.860363
 30
0.0
 11
783.641393
 21
106.515271
 31
0.0
  0
LINE
  5
1B0
330
1A6
100
AcDbEntity
  8
GR1-1
  6
細い実線
 62
     7
100
AcDbLine
 10
787.883862
 20
107.205455
 30
0.0
 11
787.883862
 21
106.515271
 31
0.0
  0
LINE
  5
1B1
330
1A6
100
AcDbEntity
  8
GR1-1
  6
細い実線
 62
     7
100
AcDbLine
 10
787.883862
 20
106.515271
 30
0.0
 11
786.595961
 21
106.860363
 31
0.0
  0
LINE
  5
1B2
330
1A6
100
AcDbEntity
  8
GR1-1
  6
細い実線
 62
     7
100
AcDbLine
 10
786.595961
 20
106.860363
 30
0.0
 11
787.883862
 21
107.205455
 31
0.0
  0
TEXT
  5
1B3
330
1A6
100
AcDbEntity
  8
GR1-1
  6
細い実線
 62
     7
100
AcDbText
 10
788.042122
 20
106.86036
 30
0.0
 40
2.0
  1
５０
 41
0.666667
  7
FX_VECTOR
 72
     5
 11
790.708789
 21
106.86036
 31
0.0
100
AcDbText
  0
ENDBLK
  5
1A8
330
1A6
100
AcDbEntity
  8
0
100
AcDbBlockEnd
  0
BLOCK
  5
1B5
330
1B4
100
AcDbEntity
  8
0
100
AcDbBlockBegin
  2
BLKF033
 70
     0
 71
     0
 10
0.0
 20
0.0
 30
0.0
  3
BLKF033
  1

  0
LINE
  5
1B8
330
1B4
100
AcDbEntity
  8
GR1-1
  6
細い実線
 62
     7
100
AcDbLine
 10
756.512627
 20
128.360363
 30
0.0
 11
756.512627
 21
136.693696
 31
0.0
  0
LINE
  5
1B9
330
1B4
100
AcDbEntity
  8
GR1-1
  6
細い実線
 62
     7
100
AcDbLine
 10
767.095961
 20
128.360363
 30
0.0
 11
767.095961
 21
136.693696
 31
0.0
  0
LINE
  5
1BA
330
1B4
100
AcDbEntity
  8
GR1-1
  6
細い実線
 62
     7
100
AcDbLine
 10
767.095961
 20
136.02703
 30
0.0
 11
756.512627
 21
136.02703
 31
0.0
  0
LINE
  5
1BB
330
1B4
100
AcDbEntity
  8
GR1-1
  6
細い実線
 62
     7
100
AcDbLine
 10
757.800529
 20
136.372122
 30
0.0
 11
757.800529
 21
135.681937
 31
0.0
  0
LINE
  5
1BC
330
1B4
100
AcDbEntity
  8
GR1-1
  6
細い実線
 62
     7
100
AcDbLine
 10
757.800529
 20
135.681937
 30
0.0
 11
756.512627
 21
136.02703
 31
0.0
  0
LINE
  5
1BD
330
1B4
100
AcDbEntity
  8
GR1-1
  6
細い実線
 62
     7
100
AcDbLine
 10
756.512627
 20
136.02703
 30
0.0
 11
757.800529
 21
136.372122
 31
0.0
  0
LINE
  5
1BE
330
1B4
100
AcDbEntity
  8
GR1-1
  6
細い実線
 62
     7
100
AcDbLine
 10
765.80806
 20
135.681937
 30
0.0
 11
765.80806
 21
136.372122
 31
0.0
  0
LINE
  5
1BF
330
1B4
100
AcDbEntity
  8
GR1-1
  6
細い実線
 62
     7
100
AcDbLine
 10
765.80806
 20
136.372122
 30
0.0
 11
767.095961
 21
136.02703
 31
0.0
  0
LINE
  5
1C0
330
1B4
100
AcDbEntity
  8
GR1-1
  6
細い実線
 62
     7
100
AcDbLine
 10
767.095961
 20
136.02703
 30
0.0
 11
765.80806
 21
135.681937
 31
0.0
  0
TEXT
  5
1C1
330
1B4
100
AcDbEntity
  8
GR1-1
  6
細い実線
 62
     7
100
AcDbText
 10
758.470898
 20
136.027026
 30
0.0
 40
2.0
  1
３１７．５
 41
0.666667
  7
FX_VECTOR
 72
     5
 11
765.137565
 21
136.027026
 31
0.0
100
AcDbText
  0
ENDBLK
  5
1B6
330
1B4
100
AcDbEntity
  8
0
100
AcDbBlockEnd
  0
BLOCK
  5
1C3
330
1C2
100
AcDbEntity
  8
0
100
AcDbBlockBegin
  2
BLKF034
 70
     0
 71
     0
 10
0.0
 20
0.0
 30
0.0
  3
BLKF034
  1

  0
LINE
  5
1C6
330
1C2
100
AcDbEntity
  8
GR1-1
  6
細い実線
 62
     7
100
AcDbLine
 10
770.762627
 20
128.360363
 30
0.0
 11
770.762627
 21
136.693696
 31
0.0
  0
LINE
  5
1C7
330
1C2
100
AcDbEntity
  8
GR1-1
  6
細い実線
 62
     7
100
AcDbLine
 10
770.762627
 20
136.02703
 30
0.0
 11
767.095961
 21
136.02703
 31
0.0
  0
LINE
  5
1C8
330
1C2
100
AcDbEntity
  8
GR1-1
  6
細い実線
 62
     7
100
AcDbLine
 10
768.383862
 20
136.372122
 30
0.0
 11
768.383862
 21
135.681937
 31
0.0
  0
LINE
  5
1C9
330
1C2
100
AcDbEntity
  8
GR1-1
  6
細い実線
 62
     7
100
AcDbLine
 10
768.383862
 20
135.681937
 30
0.0
 11
767.095961
 21
136.02703
 31
0.0
  0
LINE
  5
1CA
330
1C2
100
AcDbEntity
  8
GR1-1
  6
細い実線
 62
     7
100
AcDbLine
 10
767.095961
 20
136.02703
 30
0.0
 11
768.383862
 21
136.372122
 31
0.0
  0
LINE
  5
1CB
330
1C2
100
AcDbEntity
  8
GR1-1
  6
細い実線
 62
     7
100
AcDbLine
 10
769.474726
 20
135.681937
 30
0.0
 11
769.474726
 21
136.372122
 31
0.0
  0
LINE
  5
1CC
330
1C2
100
AcDbEntity
  8
GR1-1
  6
細い実線
 62
     7
100
AcDbLine
 10
769.474726
 20
136.372122
 30
0.0
 11
770.762627
 21
136.02703
 31
0.0
  0
LINE
  5
1CD
330
1C2
100
AcDbEntity
  8
GR1-1
  6
細い実線
 62
     7
100
AcDbLine
 10
770.762627
 20
136.02703
 30
0.0
 11
769.474726
 21
135.681937
 31
0.0
  0
TEXT
  5
1CE
330
1C2
100
AcDbEntity
  8
GR1-1
  6
細い実線
 62
     7
100
AcDbText
 10
766.929232
 20
136.693701
 30
0.0
 40
2.0
  1
１１０
 41
0.666667
  7
FX_VECTOR
 72
     5
 11
770.929232
 21
136.693701
 31
0.0
100
AcDbText
  0
ENDBLK
  5
1C4
330
1C2
100
AcDbEntity
  8
0
100
AcDbBlockEnd
  0
BLOCK
  5
1D0
330
1CF
100
AcDbEntity
  8
0
100
AcDbBlockBegin
  2
BLKF035
 70
     0
 71
     0
 10
0.0
 20
0.0
 30
0.0
  3
BLKF035
  1

  0
LINE
  5
1D3
330
1CF
100
AcDbEntity
  8
GR1-1
  6
細い実線
 62
     7
100
AcDbLine
 10
783.929294
 20
128.360363
 30
0.0
 11
783.929294
 21
136.693696
 31
0.0
  0
LINE
  5
1D4
330
1CF
100
AcDbEntity
  8
GR1-1
  6
細い実線
 62
     7
100
AcDbLine
 10
783.929294
 20
136.02703
 30
0.0
 11
770.762627
 21
136.02703
 31
0.0
  0
LINE
  5
1D5
330
1CF
100
AcDbEntity
  8
GR1-1
  6
細い実線
 62
     7
100
AcDbLine
 10
772.050529
 20
136.372122
 30
0.0
 11
772.050529
 21
135.681937
 31
0.0
  0
LINE
  5
1D6
330
1CF
100
AcDbEntity
  8
GR1-1
  6
細い実線
 62
     7
100
AcDbLine
 10
772.050529
 20
135.681937
 30
0.0
 11
770.762627
 21
136.02703
 31
0.0
  0
LINE
  5
1D7
330
1CF
100
AcDbEntity
  8
GR1-1
  6
細い実線
 62
     7
100
AcDbLine
 10
770.762627
 20
136.02703
 30
0.0
 11
772.050529
 21
136.372122
 31
0.0
  0
LINE
  5
1D8
330
1CF
100
AcDbEntity
  8
GR1-1
  6
細い実線
 62
     7
100
AcDbLine
 10
782.641393
 20
135.681937
 30
0.0
 11
782.641393
 21
136.372122
 31
0.0
  0
LINE
  5
1D9
330
1CF
100
AcDbEntity
  8
GR1-1
  6
細い実線
 62
     7
100
AcDbLine
 10
782.641393
 20
136.372122
 30
0.0
 11
783.929294
 21
136.02703
 31
0.0
  0
LINE
  5
1DA
330
1CF
100
AcDbEntity
  8
GR1-1
  6
細い実線
 62
     7
100
AcDbLine
 10
783.929294
 20
136.02703
 30
0.0
 11
782.641393
 21
135.681937
 31
0.0
  0
TEXT
  5
1DB
330
1CF
100
AcDbEntity
  8
GR1-1
  6
細い実線
 62
     7
100
AcDbText
 10
775.345898
 20
136.027026
 30
0.0
 40
2.0
  1
３９５
 41
0.666667
  7
FX_VECTOR
 72
     5
 11
779.345898
 21
136.027026
 31
0.0
100
AcDbText
  0
ENDBLK
  5
1D1
330
1CF
100
AcDbEntity
  8
0
100
AcDbBlockEnd
  0
BLOCK
  5
1DD
330
1DC
100
AcDbEntity
  8
0
100
AcDbBlockBegin
  2
BLKF036
 70
     0
 71
     0
 10
0.0
 20
0.0
 30
0.0
  3
BLKF036
  1

  0
LINE
  5
1E0
330
1DC
100
AcDbEntity
  8
GR1-1
  6
細い実線
 62
     7
100
AcDbLine
 10
787.595961
 20
128.360363
 30
0.0
 11
787.595961
 21
136.693696
 31
0.0
  0
LINE
  5
1E1
330
1DC
100
AcDbEntity
  8
GR1-1
  6
細い実線
 62
     7
100
AcDbLine
 10
787.595961
 20
136.02703
 30
0.0
 11
783.929294
 21
136.02703
 31
0.0
  0
LINE
  5
1E2
330
1DC
100
AcDbEntity
  8
GR1-1
  6
細い実線
 62
     7
100
AcDbLine
 10
785.217195
 20
136.372122
 30
0.0
 11
785.217195
 21
135.681937
 31
0.0
  0
LINE
  5
1E3
330
1DC
100
AcDbEntity
  8
GR1-1
  6
細い実線
 62
     7
100
AcDbLine
 10
785.217195
 20
135.681937
 30
0.0
 11
783.929294
 21
136.02703
 31
0.0
  0
LINE
  5
1E4
330
1DC
100
AcDbEntity
  8
GR1-1
  6
細い実線
 62
     7
100
AcDbLine
 10
783.929294
 20
136.02703
 30
0.0
 11
785.217195
 21
136.372122
 31
0.0
  0
LINE
  5
1E5
330
1DC
100
AcDbEntity
  8
GR1-1
  6
細い実線
 62
     7
100
AcDbLine
 10
786.30806
 20
135.681937
 30
0.0
 11
786.30806
 21
136.372122
 31
0.0
  0
LINE
  5
1E6
330
1DC
100
AcDbEntity
  8
GR1-1
  6
細い実線
 62
     7
100
AcDbLine
 10
786.30806
 20
136.372122
 30
0.0
 11
787.595961
 21
136.02703
 31
0.0
  0
LINE
  5
1E7
330
1DC
100
AcDbEntity
  8
GR1-1
  6
細い実線
 62
     7
100
AcDbLine
 10
787.595961
 20
136.02703
 30
0.0
 11
786.30806
 21
135.681937
 31
0.0
  0
TEXT
  5
1E8
330
1DC
100
AcDbEntity
  8
GR1-1
  6
細い実線
 62
     7
100
AcDbText
 10
783.762565
 20
136.693701
 30
0.0
 40
2.0
  1
１１０
 41
0.666667
  7
FX_VECTOR
 72
     5
 11
787.762565
 21
136.693701
 31
0.0
100
AcDbText
  0
ENDBLK
  5
1DE
330
1DC
100
AcDbEntity
  8
0
100
AcDbBlockEnd
  0
BLOCK
  5
1EA
330
1E9
100
AcDbEntity
  8
0
100
AcDbBlockBegin
  2
BLKF037
 70
     0
 71
     0
 10
0.0
 20
0.0
 30
0.0
  3
BLKF037
  1

  0
LINE
  5
1ED
330
1E9
100
AcDbEntity
  8
GR1-1
  6
細い実線
 62
     7
100
AcDbLine
 10
798.179294
 20
128.360363
 30
0.0
 11
798.179294
 21
136.693696
 31
0.0
  0
LINE
  5
1EE
330
1E9
100
AcDbEntity
  8
GR1-1
  6
細い実線
 62
     7
100
AcDbLine
 10
798.179294
 20
136.02703
 30
0.0
 11
787.595961
 21
136.02703
 31
0.0
  0
LINE
  5
1EF
330
1E9
100
AcDbEntity
  8
GR1-1
  6
細い実線
 62
     7
100
AcDbLine
 10
788.883862
 20
136.372122
 30
0.0
 11
788.883862
 21
135.681937
 31
0.0
  0
LINE
  5
1F0
330
1E9
100
AcDbEntity
  8
GR1-1
  6
細い実線
 62
     7
100
AcDbLine
 10
788.883862
 20
135.681937
 30
0.0
 11
787.595961
 21
136.02703
 31
0.0
  0
LINE
  5
1F1
330
1E9
100
AcDbEntity
  8
GR1-1
  6
細い実線
 62
     7
100
AcDbLine
 10
787.595961
 20
136.02703
 30
0.0
 11
788.883862
 21
136.372122
 31
0.0
  0
LINE
  5
1F2
330
1E9
100
AcDbEntity
  8
GR1-1
  6
細い実線
 62
     7
100
AcDbLine
 10
796.891393
 20
135.681937
 30
0.0
 11
796.891393
 21
136.372122
 31
0.0
  0
LINE
  5
1F3
330
1E9
100
AcDbEntity
  8
GR1-1
  6
細い実線
 62
     7
100
AcDbLine
 10
796.891393
 20
136.372122
 30
0.0
 11
798.179294
 21
136.02703
 31
0.0
  0
LINE
  5
1F4
330
1E9
100
AcDbEntity
  8
GR1-1
  6
細い実線
 62
     7
100
AcDbLine
 10
798.179294
 20
136.02703
 30
0.0
 11
796.891393
 21
135.681937
 31
0.0
  0
TEXT
  5
1F5
330
1E9
100
AcDbEntity
  8
GR1-1
  6
細い実線
 62
     7
100
AcDbText
 10
789.554232
 20
136.027026
 30
0.0
 40
2.0
  1
３１７．５
 41
0.666667
  7
FX_VECTOR
 72
     5
 11
796.220898
 21
136.027026
 31
0.0
100
AcDbText
  0
ENDBLK
  5
1EB
330
1E9
100
AcDbEntity
  8
0
100
AcDbBlockEnd
  0
BLOCK
  5
1F7
330
1F6
100
AcDbEntity
  8
0
100
AcDbBlockBegin
  2
BLKF038
 70
     0
 71
     0
 10
0.0
 20
0.0
 30
0.0
  3
BLKF038
  1

  0
LINE
  5
1FA
330
1F6
100
AcDbEntity
  8
GR1-1
  6
細い実線
 62
     7
100
AcDbLine
 10
755.845961
 20
127.860363
 30
0.0
 11
747.095961
 21
127.860363
 31
0.0
  0
LINE
  5
1FB
330
1F6
100
AcDbEntity
  8
GR1-1
  6
細い実線
 62
     7
100
AcDbLine
 10
755.845961
 20
115.193696
 30
0.0
 11
747.095961
 21
115.193696
 31
0.0
  0
LINE
  5
1FC
330
1F6
100
AcDbEntity
  8
GR1-1
  6
細い実線
 62
     7
100
AcDbLine
 10
747.762627
 20
115.193696
 30
0.0
 11
747.762627
 21
127.860363
 31
0.0
  0
LINE
  5
1FD
330
1F6
100
AcDbEntity
  8
GR1-1
  6
細い実線
 62
     7
100
AcDbLine
 10
748.10772
 20
126.572462
 30
0.0
 11
747.417535
 21
126.572462
 31
0.0
  0
LINE
  5
1FE
330
1F6
100
AcDbEntity
  8
GR1-1
  6
細い実線
 62
     7
100
AcDbLine
 10
747.417535
 20
126.572462
 30
0.0
 11
747.762627
 21
127.860363
 31
0.0
  0
LINE
  5
1FF
330
1F6
100
AcDbEntity
  8
GR1-1
  6
細い実線
 62
     7
100
AcDbLine
 10
747.762627
 20
127.860363
 30
0.0
 11
748.10772
 21
126.572462
 31
0.0
  0
LINE
  5
200
330
1F6
100
AcDbEntity
  8
GR1-1
  6
細い実線
 62
     7
100
AcDbLine
 10
747.417535
 20
116.481597
 30
0.0
 11
748.10772
 21
116.481597
 31
0.0
  0
LINE
  5
201
330
1F6
100
AcDbEntity
  8
GR1-1
  6
細い実線
 62
     7
100
AcDbLine
 10
748.10772
 20
116.481597
 30
0.0
 11
747.762627
 21
115.193696
 31
0.0
  0
LINE
  5
202
330
1F6
100
AcDbEntity
  8
GR1-1
  6
細い実線
 62
     7
100
AcDbLine
 10
747.762627
 20
115.193696
 30
0.0
 11
747.417535
 21
116.481597
 31
0.0
  0
TEXT
  5
203
330
1F6
100
AcDbEntity
  8
GR1-1
  6
細い実線
 62
     7
100
AcDbText
 10
747.762565
 20
119.527026
 30
0.0
 40
2.0
  1
３８０
 50
90.0
 41
0.666667
  7
FX_VECTOR
 72
     5
 11
747.762565
 21
123.527026
 31
0.0
100
AcDbText
  0
ENDBLK
  5
1F8
330
1F6
100
AcDbEntity
  8
0
100
AcDbBlockEnd
  0
BLOCK
  5
205
330
204
100
AcDbEntity
  8
0
100
AcDbBlockBegin
  2
BLKF039
 70
     0
 71
     0
 10
0.0
 20
0.0
 30
0.0
  3
BLKF039
  1

  0
LINE
  5
208
330
204
100
AcDbEntity
  8
GR1-1
  6
細い実線
 62
     7
100
AcDbLine
 10
768.929294
 20
106.231649
 30
0.0
 11
768.929294
 21
101.193696
 31
0.0
  0
LINE
  5
209
330
204
100
AcDbEntity
  8
GR1-1
  6
細い実線
 62
     7
100
AcDbLine
 10
785.762627
 20
106.231649
 30
0.0
 11
785.762627
 21
101.193696
 31
0.0
  0
LINE
  5
20A
330
204
100
AcDbEntity
  8
GR1-1
  6
細い実線
 62
     7
100
AcDbLine
 10
785.762627
 20
101.860363
 30
0.0
 11
768.929294
 21
101.860363
 31
0.0
  0
LINE
  5
20B
330
204
100
AcDbEntity
  8
GR1-1
  6
細い実線
 62
     7
100
AcDbLine
 10
770.217195
 20
102.205455
 30
0.0
 11
770.217195
 21
101.515271
 31
0.0
  0
LINE
  5
20C
330
204
100
AcDbEntity
  8
GR1-1
  6
細い実線
 62
     7
100
AcDbLine
 10
770.217195
 20
101.515271
 30
0.0
 11
768.929294
 21
101.860363
 31
0.0
  0
LINE
  5
20D
330
204
100
AcDbEntity
  8
GR1-1
  6
細い実線
 62
     7
100
AcDbLine
 10
768.929294
 20
101.860363
 30
0.0
 11
770.217195
 21
102.205455
 31
0.0
  0
LINE
  5
20E
330
204
100
AcDbEntity
  8
GR1-1
  6
細い実線
 62
     7
100
AcDbLine
 10
784.474726
 20
101.515271
 30
0.0
 11
784.474726
 21
102.205455
 31
0.0
  0
LINE
  5
20F
330
204
100
AcDbEntity
  8
GR1-1
  6
細い実線
 62
     7
100
AcDbLine
 10
784.474726
 20
102.205455
 30
0.0
 11
785.762627
 21
101.860363
 31
0.0
  0
LINE
  5
210
330
204
100
AcDbEntity
  8
GR1-1
  6
細い実線
 62
     7
100
AcDbLine
 10
785.762627
 20
101.860363
 30
0.0
 11
784.474726
 21
101.515271
 31
0.0
  0
TEXT
  5
211
330
204
100
AcDbEntity
  8
GR1-1
  6
細い実線
 62
     7
100
AcDbText
 10
775.345898
 20
101.86036
 30
0.0
 40
2.0
  1
５０５
 41
0.666667
  7
FX_VECTOR
 72
     5
 11
779.345898
 21
101.86036
 31
0.0
100
AcDbText
  0
ENDBLK
  5
206
330
204
100
AcDbEntity
  8
0
100
AcDbBlockEnd
  0
BLOCK
  5
213
330
212
100
AcDbEntity
  8
0
100
AcDbBlockBegin
  2
BLKF040
 70
     0
 71
     0
 10
0.0
 20
0.0
 30
0.0
  3
BLKF040
  1

  0
LINE
  5
216
330
212
100
AcDbEntity
  8
GR1-1
  6
細い実線
 62
     7
100
AcDbLine
 10
798.179294
 20
114.52703
 30
0.0
 11
798.179294
 21
101.193696
 31
0.0
  0
LINE
  5
217
330
212
100
AcDbEntity
  8
GR1-1
  6
細い実線
 62
     7
100
AcDbLine
 10
798.179294
 20
101.860363
 30
0.0
 11
785.762627
 21
101.860363
 31
0.0
  0
LINE
  5
218
330
212
100
AcDbEntity
  8
GR1-1
  6
細い実線
 62
     7
100
AcDbLine
 10
787.050529
 20
102.205455
 30
0.0
 11
787.050529
 21
101.515271
 31
0.0
  0
LINE
  5
219
330
212
100
AcDbEntity
  8
GR1-1
  6
細い実線
 62
     7
100
AcDbLine
 10
787.050529
 20
101.515271
 30
0.0
 11
785.762627
 21
101.860363
 31
0.0
  0
LINE
  5
21A
330
212
100
AcDbEntity
  8
GR1-1
  6
細い実線
 62
     7
100
AcDbLine
 10
785.762627
 20
101.860363
 30
0.0
 11
787.050529
 21
102.205455
 31
0.0
  0
LINE
  5
21B
330
212
100
AcDbEntity
  8
GR1-1
  6
細い実線
 62
     7
100
AcDbLine
 10
796.891393
 20
101.515271
 30
0.0
 11
796.891393
 21
102.205455
 31
0.0
  0
LINE
  5
21C
330
212
100
AcDbEntity
  8
GR1-1
  6
細い実線
 62
     7
100
AcDbLine
 10
796.891393
 20
102.205455
 30
0.0
 11
798.179294
 21
101.860363
 31
0.0
  0
LINE
  5
21D
330
212
100
AcDbEntity
  8
GR1-1
  6
細い実線
 62
     7
100
AcDbLine
 10
798.179294
 20
101.860363
 30
0.0
 11
796.891393
 21
101.515271
 31
0.0
  0
TEXT
  5
21E
330
212
100
AcDbEntity
  8
GR1-1
  6
細い実線
 62
     7
100
AcDbText
 10
788.637565
 20
101.86036
 30
0.0
 40
2.0
  1
３７２．５
 41
0.666667
  7
FX_VECTOR
 72
     5
 11
795.304232
 21
101.86036
 31
0.0
100
AcDbText
  0
ENDBLK
  5
214
330
212
100
AcDbEntity
  8
0
100
AcDbBlockEnd
  0
BLOCK
  5
226
330
225
100
AcDbEntity
  8
0
100
AcDbBlockBegin
  2
BLKF041
 70
     0
 71
     0
 10
0.0
 20
0.0
 30
0.0
  3
BLKF041
  1

  0
LINE
  5
229
330
225
100
AcDbEntity
  8
GR1-1
  6
細い実線
 62
     7
100
AcDbLine
 10
767.095961
 20
131.300363
 30
0.0
 11
747.095961
 21
131.300363
 31
0.0
  0
LINE
  5
22A
330
225
100
AcDbEntity
  8
GR1-1
  6
細い実線
 62
     7
100
AcDbLine
 10
755.845961
 20
127.860363
 30
0.0
 11
747.095961
 21
127.860363
 31
0.0
  0
LINE
  5
22B
330
225
100
AcDbEntity
  8
GR1-1
  6
細い実線
 62
     7
100
AcDbLine
 10
747.762627
 20
127.860363
 30
0.0
 11
747.762627
 21
131.300363
 31
0.0
  0
LINE
  5
22C
330
225
100
AcDbEntity
  8
GR1-1
  6
細い実線
 62
     7
100
AcDbLine
 10
748.10772
 20
130.012462
 30
0.0
 11
747.417535
 21
130.012462
 31
0.0
  0
LINE
  5
22D
330
225
100
AcDbEntity
  8
GR1-1
  6
細い実線
 62
     7
100
AcDbLine
 10
747.417535
 20
130.012462
 30
0.0
 11
747.762627
 21
131.300363
 31
0.0
  0
LINE
  5
22E
330
225
100
AcDbEntity
  8
GR1-1
  6
細い実線
 62
     7
100
AcDbLine
 10
747.762627
 20
131.300363
 30
0.0
 11
748.10772
 21
130.012462
 31
0.0
  0
LINE
  5
22F
330
225
100
AcDbEntity
  8
GR1-1
  6
細い実線
 62
     7
100
AcDbLine
 10
747.417535
 20
129.148264
 30
0.0
 11
748.10772
 21
129.148264
 31
0.0
  0
LINE
  5
230
330
225
100
AcDbEntity
  8
GR1-1
  6
細い実線
 62
     7
100
AcDbLine
 10
748.10772
 20
129.148264
 30
0.0
 11
747.762627
 21
127.860363
 31
0.0
  0
LINE
  5
231
330
225
100
AcDbEntity
  8
GR1-1
  6
細い実線
 62
     7
100
AcDbLine
 10
747.762627
 20
127.860363
 30
0.0
 11
747.417535
 21
129.148264
 31
0.0
  0
TEXT
  5
232
330
225
100
AcDbEntity
  8
GR1-1
  6
細い実線
 62
     7
100
AcDbText
 10
747.095898
 20
126.24703
 30
0.0
 40
2.0
  1
１０３．２
 50
90.0
 41
0.666667
  7
FX_VECTOR
 72
     5
 11
747.095898
 21
132.913696
 31
0.0
100
AcDbText
  0
ENDBLK
  5
227
330
225
100
AcDbEntity
  8
0
100
AcDbBlockEnd
  0
BLOCK
  5
244
330
243
100
AcDbEntity
  8
0
100
AcDbBlockBegin
  2
BLKF042
 70
     0
 71
     0
 10
0.0
 20
0.0
 30
0.0
  3
BLKF042
  1

  0
LINE
  5
247
330
243
100
AcDbEntity
  8
1-1
  6
細い実線
 62
     7
100
AcDbLine
 10
718.640432
 20
131.948868
 30
0.0
 11
718.967649
 21
131.341181
 31
0.0
  0
LINE
  5
248
330
243
100
AcDbEntity
  8
1-1
  6
細い実線
 62
     7
100
AcDbLine
 10
718.967649
 20
131.341181
 30
0.0
 11
717.670081
 21
131.034431
 31
0.0
  0
LINE
  5
249
330
243
100
AcDbEntity
  8
1-1
  6
細い実線
 62
     7
100
AcDbLine
 10
717.670081
 20
131.034431
 30
0.0
 11
718.640432
 21
131.948868
 31
0.0
  0
TEXT
  5
24A
330
243
100
AcDbEntity
  8
1-1
  6
CONTINUOUS
 62
     7
100
AcDbText
 10
720.451237
 20
132.531982
 30
0.0
 40
2.0
  1
　転倒防止（突起部）　
 41
0.666667
  7
FX_VECTOR
 72
     5
 11
735.117904
 21
132.531982
 31
0.0
100
AcDbText
  0
LINE
  5
24B
330
243
100
AcDbEntity
  8
1-1
  6
細い実線
 62
     7
100
AcDbLine
 10
717.670081
 20
131.034431
 30
0.0
 11
720.451271
 21
132.531995
 31
0.0
  0
LINE
  5
24C
330
243
100
AcDbEntity
  8
1-1
  6
細い実線
 62
     7
100
AcDbLine
 10
720.451271
 20
132.531995
 30
0.0
 11
735.117938
 21
132.531995
 31
0.0
  0
ENDBLK
  5
245
330
243
100
AcDbEntity
  8
0
100
AcDbBlockEnd
  0
BLOCK
  5
24E
330
24D
100
AcDbEntity
  8
0
100
AcDbBlockBegin
  2
BLKF043
 70
     0
 71
     0
 10
0.0
 20
0.0
 30
0.0
  3
BLKF043
  1

  0
LINE
  5
251
330
24D
100
AcDbEntity
  8
1-1
  6
細い実線
 62
     7
100
AcDbLine
 10
703.363969
 20
131.686198
 30
0.0
 11
700.49049
 21
141.264461
 31
0.0
  0
LINE
  5
252
330
24D
100
AcDbEntity
  8
1-1
  6
細い実線
 62
     7
100
AcDbLine
 10
717.731363
 20
135.996416
 30
0.0
 11
714.857884
 21
145.574679
 31
0.0
  0
LINE
  5
253
330
24D
100
AcDbEntity
  8
1-1
  6
細い実線
 62
     7
100
AcDbLine
 10
715.04945
 20
144.936128
 30
0.0
 11
700.682055
 21
140.62591
 31
0.0
  0
LINE
  5
254
330
24D
100
AcDbEntity
  8
1-1
  6
細い実線
 62
     7
100
AcDbLine
 10
701.816479
 20
141.326524
 30
0.0
 11
702.014802
 21
140.665447
 31
0.0
  0
LINE
  5
255
330
24D
100
AcDbEntity
  8
1-1
  6
細い実線
 62
     7
100
AcDbLine
 10
702.014802
 20
140.665447
 30
0.0
 11
700.682055
 21
140.62591
 31
0.0
  0
LINE
  5
256
330
24D
100
AcDbEntity
  8
1-1
  6
細い実線
 62
     7
100
AcDbLine
 10
700.682055
 20
140.62591
 30
0.0
 11
701.816479
 21
141.326524
 31
0.0
  0
LINE
  5
257
330
24D
100
AcDbEntity
  8
1-1
  6
細い実線
 62
     7
100
AcDbLine
 10
713.915026
 20
144.235514
 30
0.0
 11
713.716703
 21
144.896591
 31
0.0
  0
LINE
  5
258
330
24D
100
AcDbEntity
  8
1-1
  6
細い実線
 62
     7
100
AcDbLine
 10
713.716703
 20
144.896591
 30
0.0
 11
715.04945
 21
144.936128
 31
0.0
  0
LINE
  5
259
330
24D
100
AcDbEntity
  8
1-1
  6
細い実線
 62
     7
100
AcDbLine
 10
715.04945
 20
144.936128
 30
0.0
 11
713.915026
 21
144.235514
 31
0.0
  0
TEXT
  5
25A
330
24D
100
AcDbEntity
  8
1-1
  6
CONTINUOUS
 62
     7
100
AcDbText
 10
705.950065
 20
142.206299
 30
0.0
 40
2.0
  1
４５０
 50
16.699244
 41
0.666667
  7
FX_VECTOR
 72
     5
 11
709.78137
 21
143.35569
 31
0.0
100
AcDbText
  0
ENDBLK
  5
24F
330
24D
100
AcDbEntity
  8
0
100
AcDbBlockEnd
  0
BLOCK
  5
25C
330
25B
100
AcDbEntity
  8
0
100
AcDbBlockBegin
  2
BLKF044
 70
     0
 71
     0
 10
0.0
 20
0.0
 30
0.0
  3
BLKF044
  1

  0
LINE
  5
25F
330
25B
100
AcDbEntity
  8
1-1
  6
細い実線
 62
     7
100
AcDbLine
 10
703.363969
 20
131.686198
 30
0.0
 11
701.448316
 21
138.071706
 31
0.0
  0
LINE
  5
260
330
25B
100
AcDbEntity
  8
1-1
  6
細い実線
 62
     7
100
AcDbLine
 10
705.758535
 20
132.404567
 30
0.0
 11
703.842882
 21
138.790076
 31
0.0
  0
LINE
  5
261
330
25B
100
AcDbEntity
  8
1-1
  6
細い実線
 62
     7
100
AcDbLine
 10
705.9501
 20
138.726221
 30
0.0
 11
699.724229
 21
136.85846
 31
0.0
  0
LINE
  5
262
330
25B
100
AcDbEntity
  8
1-1
  6
細い実線
 62
     7
100
AcDbLine
 10
700.505458
 20
136.732542
 30
0.0
 11
700.307135
 21
137.393618
 31
0.0
  0
LINE
  5
263
330
25B
100
AcDbEntity
  8
1-1
  6
細い実線
 62
     7
100
AcDbLine
 10
700.307135
 20
137.393618
 30
0.0
 11
701.639882
 21
137.433155
 31
0.0
  0
LINE
  5
264
330
25B
100
AcDbEntity
  8
1-1
  6
細い実線
 62
     7
100
AcDbLine
 10
701.639882
 20
137.433155
 30
0.0
 11
700.505458
 21
136.732542
 31
0.0
  0
LINE
  5
265
330
25B
100
AcDbEntity
  8
1-1
  6
細い実線
 62
     7
100
AcDbLine
 10
705.168871
 20
138.852139
 30
0.0
 11
705.367194
 21
138.191063
 31
0.0
  0
LINE
  5
266
330
25B
100
AcDbEntity
  8
1-1
  6
細い実線
 62
     7
100
AcDbLine
 10
705.367194
 20
138.191063
 30
0.0
 11
704.034447
 21
138.151525
 31
0.0
  0
LINE
  5
267
330
25B
100
AcDbEntity
  8
1-1
  6
細い実線
 62
     7
100
AcDbLine
 10
704.034447
 20
138.151525
 30
0.0
 11
705.168871
 21
138.852139
 31
0.0
  0
TEXT
  5
268
330
25B
100
AcDbEntity
  8
1-1
  6
CONTINUOUS
 62
     7
100
AcDbText
 10
701.36849
 20
138.047738
 30
0.0
 40
2.0
  1
７５
 50
16.699244
 41
0.666667
  7
FX_VECTOR
 72
     5
 11
703.922693
 21
138.813999
 31
0.0
100
AcDbText
  0
ENDBLK
  5
25D
330
25B
100
AcDbEntity
  8
0
100
AcDbBlockEnd
  0
BLOCK
  5
26A
330
269
100
AcDbEntity
  8
0
100
AcDbBlockBegin
  2
BLKF045
 70
     0
 71
     0
 10
0.0
 20
0.0
 30
0.0
  3
BLKF045
  1

  0
LINE
  5
26D
330
269
100
AcDbEntity
  8
1-1
  6
細い実線
 62
     7
100
AcDbLine
 10
715.336798
 20
135.278046
 30
0.0
 11
713.421145
 21
141.663555
 31
0.0
  0
LINE
  5
26E
330
269
100
AcDbEntity
  8
1-1
  6
細い実線
 62
     7
100
AcDbLine
 10
713.61271
 20
141.025004
 30
0.0
 11
704.034447
 21
138.151525
 31
0.0
  0
LINE
  5
26F
330
269
100
AcDbEntity
  8
1-1
  6
細い実線
 62
     7
100
AcDbLine
 10
705.168871
 20
138.852139
 30
0.0
 11
705.367194
 21
138.191063
 31
0.0
  0
LINE
  5
270
330
269
100
AcDbEntity
  8
1-1
  6
細い実線
 62
     7
100
AcDbLine
 10
705.367194
 20
138.191063
 30
0.0
 11
704.034447
 21
138.151525
 31
0.0
  0
LINE
  5
271
330
269
100
AcDbEntity
  8
1-1
  6
細い実線
 62
     7
100
AcDbLine
 10
704.034447
 20
138.151525
 30
0.0
 11
705.168871
 21
138.852139
 31
0.0
  0
LINE
  5
272
330
269
100
AcDbEntity
  8
1-1
  6
細い実線
 62
     7
100
AcDbLine
 10
712.478286
 20
140.32439
 30
0.0
 11
712.279963
 21
140.985467
 31
0.0
  0
LINE
  5
273
330
269
100
AcDbEntity
  8
1-1
  6
細い実線
 62
     7
100
AcDbLine
 10
712.279963
 20
140.985467
 30
0.0
 11
713.61271
 21
141.025004
 31
0.0
  0
LINE
  5
274
330
269
100
AcDbEntity
  8
1-1
  6
細い実線
 62
     7
100
AcDbLine
 10
713.61271
 20
141.025004
 30
0.0
 11
712.478286
 21
140.32439
 31
0.0
  0
TEXT
  5
275
330
269
100
AcDbEntity
  8
1-1
  6
CONTINUOUS
 62
     7
100
AcDbText
 10
706.907878
 20
139.013558
 30
0.0
 40
2.0
  1
３００
 50
16.699244
 41
0.666667
  7
FX_VECTOR
 72
     5
 11
710.739183
 21
140.162949
 31
0.0
100
AcDbText
  0
ENDBLK
  5
26B
330
269
100
AcDbEntity
  8
0
100
AcDbBlockEnd
  0
BLOCK
  5
277
330
276
100
AcDbEntity
  8
0
100
AcDbBlockBegin
  2
BLKF046
 70
     0
 71
     0
 10
0.0
 20
0.0
 30
0.0
  3
BLKF046
  1

  0
LINE
  5
27A
330
276
100
AcDbEntity
  8
1-1
  6
細い実線
 62
     7
100
AcDbLine
 10
717.731363
 20
135.996416
 30
0.0
 11
715.815711
 21
142.381925
 31
0.0
  0
LINE
  5
27B
330
276
100
AcDbEntity
  8
1-1
  6
細い実線
 62
     7
100
AcDbLine
 10
717.922929
 20
142.31807
 30
0.0
 11
711.697058
 21
140.450308
 31
0.0
  0
LINE
  5
27C
330
276
100
AcDbEntity
  8
1-1
  6
細い実線
 62
     7
100
AcDbLine
 10
712.478286
 20
140.32439
 30
0.0
 11
712.279963
 21
140.985467
 31
0.0
  0
LINE
  5
27D
330
276
100
AcDbEntity
  8
1-1
  6
細い実線
 62
     7
100
AcDbLine
 10
712.279963
 20
140.985467
 30
0.0
 11
713.61271
 21
141.025004
 31
0.0
  0
LINE
  5
27E
330
276
100
AcDbEntity
  8
1-1
  6
細い実線
 62
     7
100
AcDbLine
 10
713.61271
 20
141.025004
 30
0.0
 11
712.478286
 21
140.32439
 31
0.0
  0
LINE
  5
27F
330
276
100
AcDbEntity
  8
1-1
  6
細い実線
 62
     7
100
AcDbLine
 10
717.1417
 20
142.443988
 30
0.0
 11
717.340023
 21
141.782911
 31
0.0
  0
LINE
  5
280
330
276
100
AcDbEntity
  8
1-1
  6
細い実線
 62
     7
100
AcDbLine
 10
717.340023
 20
141.782911
 30
0.0
 11
716.007276
 21
141.743374
 31
0.0
  0
LINE
  5
281
330
276
100
AcDbEntity
  8
1-1
  6
細い実線
 62
     7
100
AcDbLine
 10
716.007276
 20
141.743374
 30
0.0
 11
717.1417
 21
142.443988
 31
0.0
  0
TEXT
  5
282
330
276
100
AcDbEntity
  8
1-1
  6
CONTINUOUS
 62
     7
100
AcDbText
 10
713.341276
 20
141.6396
 30
0.0
 40
2.0
  1
７５
 50
16.699244
 41
0.666667
  7
FX_VECTOR
 72
     5
 11
715.895479
 21
142.405861
 31
0.0
100
AcDbText
  0
ENDBLK
  5
278
330
276
100
AcDbEntity
  8
0
100
AcDbBlockEnd
  0
BLOCK
  5
284
330
283
100
AcDbEntity
  8
0
100
AcDbBlockBegin
  2
BLKF047
 70
     0
 71
     0
 10
0.0
 20
0.0
 30
0.0
  3
BLKF047
  1

  0
LINE
  5
287
330
283
100
AcDbEntity
  8
1-1
  6
細い実線
 62
     7
100
AcDbLine
 10
705.758535
 20
132.404567
 30
0.0
 11
704.800708
 21
135.597322
 31
0.0
  0
LINE
  5
288
330
283
100
AcDbEntity
  8
1-1
  6
細い実線
 62
     7
100
AcDbLine
 10
706.397086
 20
132.596133
 30
0.0
 11
705.439259
 21
135.788887
 31
0.0
  0
LINE
  5
289
330
283
100
AcDbEntity
  8
1-1
  6
細い実線
 62
     7
100
AcDbLine
 10
707.546477
 20
135.725032
 30
0.0
 11
703.076621
 21
134.384075
 31
0.0
  0
LINE
  5
28A
330
283
100
AcDbEntity
  8
1-1
  6
細い実線
 62
     7
100
AcDbLine
 10
703.85785
 20
134.258157
 30
0.0
 11
703.659527
 21
134.919234
 31
0.0
  0
LINE
  5
28B
330
283
100
AcDbEntity
  8
1-1
  6
細い実線
 62
     7
100
AcDbLine
 10
703.659527
 20
134.919234
 30
0.0
 11
704.992274
 21
134.958771
 31
0.0
  0
LINE
  5
28C
330
283
100
AcDbEntity
  8
1-1
  6
細い実線
 62
     7
100
AcDbLine
 10
704.992274
 20
134.958771
 30
0.0
 11
703.85785
 21
134.258157
 31
0.0
  0
LINE
  5
28D
330
283
100
AcDbEntity
  8
1-1
  6
細い実線
 62
     7
100
AcDbLine
 10
706.765249
 20
135.85095
 30
0.0
 11
706.963572
 21
135.189874
 31
0.0
  0
LINE
  5
28E
330
283
100
AcDbEntity
  8
1-1
  6
細い実線
 62
     7
100
AcDbLine
 10
706.963572
 20
135.189874
 30
0.0
 11
705.630825
 21
135.150336
 31
0.0
  0
LINE
  5
28F
330
283
100
AcDbEntity
  8
1-1
  6
細い実線
 62
     7
100
AcDbLine
 10
705.630825
 20
135.150336
 30
0.0
 11
706.765249
 21
135.85095
 31
0.0
  0
TEXT
  5
290
330
283
100
AcDbEntity
  8
1-1
  6
CONTINUOUS
 62
     7
100
AcDbText
 10
703.842839
 20
135.309977
 30
0.0
 40
2.0
  1
２０
 50
16.699244
 41
0.666667
  7
FX_VECTOR
 72
     5
 11
706.397042
 21
136.076238
 31
0.0
100
AcDbText
  0
ENDBLK
  5
285
330
283
100
AcDbEntity
  8
0
100
AcDbBlockEnd
  0
BLOCK
  5
292
330
291
100
AcDbEntity
  8
0
100
AcDbBlockBegin
  2
BLKF048
 70
     0
 71
     0
 10
0.0
 20
0.0
 30
0.0
  3
BLKF048
  1

  0
LINE
  5
295
330
291
100
AcDbEntity
  8
1-1
  6
細い実線
 62
     7
100
AcDbLine
 10
714.698247
 20
135.086481
 30
0.0
 11
713.74042
 21
138.279235
 31
0.0
  0
LINE
  5
296
330
291
100
AcDbEntity
  8
1-1
  6
細い実線
 62
     7
100
AcDbLine
 10
713.931986
 20
137.640685
 30
0.0
 11
705.630825
 21
135.150336
 31
0.0
  0
LINE
  5
297
330
291
100
AcDbEntity
  8
1-1
  6
細い実線
 62
     7
100
AcDbLine
 10
706.765249
 20
135.85095
 30
0.0
 11
706.963572
 21
135.189874
 31
0.0
  0
LINE
  5
298
330
291
100
AcDbEntity
  8
1-1
  6
細い実線
 62
     7
100
AcDbLine
 10
706.963572
 20
135.189874
 30
0.0
 11
705.630825
 21
135.150336
 31
0.0
  0
LINE
  5
299
330
291
100
AcDbEntity
  8
1-1
  6
細い実線
 62
     7
100
AcDbLine
 10
705.630825
 20
135.150336
 30
0.0
 11
706.765249
 21
135.85095
 31
0.0
  0
LINE
  5
29A
330
291
100
AcDbEntity
  8
1-1
  6
細い実線
 62
     7
100
AcDbLine
 10
712.797562
 20
136.940071
 30
0.0
 11
712.599239
 21
137.601147
 31
0.0
  0
LINE
  5
29B
330
291
100
AcDbEntity
  8
1-1
  6
細い実線
 62
     7
100
AcDbLine
 10
712.599239
 20
137.601147
 30
0.0
 11
713.931986
 21
137.640685
 31
0.0
  0
LINE
  5
29C
330
291
100
AcDbEntity
  8
1-1
  6
細い実線
 62
     7
100
AcDbLine
 10
713.931986
 20
137.640685
 30
0.0
 11
712.797562
 21
136.940071
 31
0.0
  0
TEXT
  5
29D
330
291
100
AcDbEntity
  8
1-1
  6
CONTINUOUS
 62
     7
100
AcDbText
 10
707.865755
 20
135.820817
 30
0.0
 40
2.0
  1
２６０
 50
16.699244
 41
0.666667
  7
FX_VECTOR
 72
     5
 11
711.69706
 21
136.970209
 31
0.0
100
AcDbText
  0
ENDBLK
  5
293
330
291
100
AcDbEntity
  8
0
100
AcDbBlockEnd
  0
BLOCK
  5
29F
330
29E
100
AcDbEntity
  8
0
100
AcDbBlockBegin
  2
BLKF049
 70
     0
 71
     0
 10
0.0
 20
0.0
 30
0.0
  3
BLKF049
  1

  0
LINE
  5
2A2
330
29E
100
AcDbEntity
  8
1-1
  6
細い実線
 62
     7
100
AcDbLine
 10
715.336798
 20
135.278046
 30
0.0
 11
714.378971
 21
138.470801
 31
0.0
  0
LINE
  5
2A3
330
29E
100
AcDbEntity
  8
1-1
  6
細い実線
 62
     7
100
AcDbLine
 10
716.486189
 20
138.406946
 30
0.0
 11
712.016333
 21
137.065989
 31
0.0
  0
LINE
  5
2A4
330
29E
100
AcDbEntity
  8
1-1
  6
細い実線
 62
     7
100
AcDbLine
 10
712.797562
 20
136.940071
 30
0.0
 11
712.599239
 21
137.601147
 31
0.0
  0
LINE
  5
2A5
330
29E
100
AcDbEntity
  8
1-1
  6
細い実線
 62
     7
100
AcDbLine
 10
712.599239
 20
137.601147
 30
0.0
 11
713.931986
 21
137.640685
 31
0.0
  0
LINE
  5
2A6
330
29E
100
AcDbEntity
  8
1-1
  6
細い実線
 62
     7
100
AcDbLine
 10
713.931986
 20
137.640685
 30
0.0
 11
712.797562
 21
136.940071
 31
0.0
  0
LINE
  5
2A7
330
29E
100
AcDbEntity
  8
1-1
  6
細い実線
 62
     7
100
AcDbLine
 10
715.704961
 20
138.532864
 30
0.0
 11
715.903284
 21
137.871787
 31
0.0
  0
LINE
  5
2A8
330
29E
100
AcDbEntity
  8
1-1
  6
細い実線
 62
     7
100
AcDbLine
 10
715.903284
 20
137.871787
 30
0.0
 11
714.570537
 21
137.83225
 31
0.0
  0
LINE
  5
2A9
330
29E
100
AcDbEntity
  8
1-1
  6
細い実線
 62
     7
100
AcDbLine
 10
714.570537
 20
137.83225
 30
0.0
 11
715.704961
 21
138.532864
 31
0.0
  0
TEXT
  5
2AA
330
29E
100
AcDbEntity
  8
1-1
  6
CONTINUOUS
 62
     7
100
AcDbText
 10
712.782552
 20
137.991878
 30
0.0
 40
2.0
  1
２０
 50
16.699244
 41
0.666667
  7
FX_VECTOR
 72
     5
 11
715.336756
 21
138.758139
 31
0.0
100
AcDbText
  0
ENDBLK
  5
2A0
330
29E
100
AcDbEntity
  8
0
100
AcDbBlockEnd
  0
BLOCK
  5
2AC
330
2AB
100
AcDbEntity
  8
0
100
AcDbBlockBegin
  2
BLKF050
 70
     0
 71
     0
 10
0.0
 20
0.0
 30
0.0
  3
BLKF050
  1

  0
LINE
  5
2AF
330
2AB
100
AcDbEntity
  8
1-1
  6
細い実線
 62
     7
100
AcDbLine
 10
707.398272
 20
115.918451
 30
0.0
 11
697.82001
 21
113.044973
 31
0.0
  0
LINE
  5
2B0
330
2AB
100
AcDbEntity
  8
1-1
  6
細い実線
 62
     7
100
AcDbLine
 10
705.386837
 20
122.623235
 30
0.0
 11
695.808574
 21
119.749757
 31
0.0
  0
LINE
  5
2B1
330
2AB
100
AcDbEntity
  8
1-1
  6
細い実線
 62
     7
100
AcDbLine
 10
696.447125
 20
119.941322
 30
0.0
 11
698.45856
 21
113.236538
 31
0.0
  0
LINE
  5
2B2
330
2AB
100
AcDbEntity
  8
1-1
  6
細い実線
 62
     7
100
AcDbLine
 10
697.757947
 20
114.370962
 30
0.0
 11
698.419023
 21
114.569285
 31
0.0
  0
LINE
  5
2B3
330
2AB
100
AcDbEntity
  8
1-1
  6
細い実線
 62
     7
100
AcDbLine
 10
698.419023
 20
114.569285
 30
0.0
 11
698.45856
 21
113.236538
 31
0.0
  0
LINE
  5
2B4
330
2AB
100
AcDbEntity
  8
1-1
  6
細い実線
 62
     7
100
AcDbLine
 10
698.45856
 20
113.236538
 30
0.0
 11
697.757947
 21
114.370962
 31
0.0
  0
LINE
  5
2B5
330
2AB
100
AcDbEntity
  8
1-1
  6
細い実線
 62
     7
100
AcDbLine
 10
697.147739
 20
118.806898
 30
0.0
 11
696.486663
 21
118.608575
 31
0.0
  0
LINE
  5
2B6
330
2AB
100
AcDbEntity
  8
1-1
  6
細い実線
 62
     7
100
AcDbLine
 10
696.486663
 20
118.608575
 30
0.0
 11
696.447125
 21
119.941322
 31
0.0
  0
LINE
  5
2B7
330
2AB
100
AcDbEntity
  8
1-1
  6
細い実線
 62
     7
100
AcDbLine
 10
696.447125
 20
119.941322
 30
0.0
 11
697.147739
 21
118.806898
 31
0.0
  0
TEXT
  5
2B8
330
2AB
100
AcDbEntity
  8
1-1
  6
CONTINUOUS
 62
     7
100
AcDbText
 10
696.878125
 20
118.504574
 30
0.0
 40
2.0
  1
２１０
 50
286.699249
 41
0.666667
  7
FX_VECTOR
 72
     5
 11
698.027517
 21
114.673269
 31
0.0
100
AcDbText
  0
ENDBLK
  5
2AD
330
2AB
100
AcDbEntity
  8
0
100
AcDbBlockEnd
  0
BLOCK
  5
2BA
330
2B9
100
AcDbEntity
  8
0
100
AcDbBlockBegin
  2
BLKF051
 70
     0
 71
     0
 10
0.0
 20
0.0
 30
0.0
  3
BLKF051
  1

  0
LINE
  5
2BD
330
2B9
100
AcDbEntity
  8
1-1
  6
細い実線
 62
     7
100
AcDbLine
 10
707.398272
 20
115.918451
 30
0.0
 11
702.609141
 21
114.481712
 31
0.0
  0
LINE
  5
2BE
330
2B9
100
AcDbEntity
  8
1-1
  6
細い実線
 62
     7
100
AcDbLine
 10
707.110925
 20
116.876278
 30
0.0
 11
702.321793
 21
115.439538
 31
0.0
  0
LINE
  5
2BF
330
2B9
100
AcDbEntity
  8
1-1
  6
細い実線
 62
     7
100
AcDbLine
 10
702.385648
 20
117.546756
 30
0.0
 11
703.822388
 21
112.757625
 31
0.0
  0
LINE
  5
2C0
330
2B9
100
AcDbEntity
  8
1-1
  6
細い実線
 62
     7
100
AcDbLine
 10
703.948306
 20
113.538853
 30
0.0
 11
703.287229
 21
113.34053
 31
0.0
  0
LINE
  5
2C1
330
2B9
100
AcDbEntity
  8
1-1
  6
細い実線
 62
     7
100
AcDbLine
 10
703.287229
 20
113.34053
 30
0.0
 11
703.247692
 21
114.673277
 31
0.0
  0
LINE
  5
2C2
330
2B9
100
AcDbEntity
  8
1-1
  6
細い実線
 62
     7
100
AcDbLine
 10
703.247692
 20
114.673277
 30
0.0
 11
703.948306
 21
113.538853
 31
0.0
  0
LINE
  5
2C3
330
2B9
100
AcDbEntity
  8
1-1
  6
細い実線
 62
     7
100
AcDbLine
 10
702.25973
 20
116.765528
 30
0.0
 11
702.920807
 21
116.963851
 31
0.0
  0
LINE
  5
2C4
330
2B9
100
AcDbEntity
  8
1-1
  6
細い実線
 62
     7
100
AcDbLine
 10
702.920807
 20
116.963851
 30
0.0
 11
702.960344
 21
115.631104
 31
0.0
  0
LINE
  5
2C5
330
2B9
100
AcDbEntity
  8
1-1
  6
細い実線
 62
     7
100
AcDbLine
 10
702.960344
 20
115.631104
 30
0.0
 11
702.25973
 21
116.765528
 31
0.0
  0
TEXT
  5
2C6
330
2B9
100
AcDbEntity
  8
1-1
  6
CONTINUOUS
 62
     7
100
AcDbText
 10
703.703451
 20
113.154069
 30
0.0
 40
2.0
  1
３０
 50
286.699249
 41
0.666667
  7
FX_VECTOR
 72
     5
 11
704.469712
 21
110.599866
 31
0.0
100
AcDbText
  0
ENDBLK
  5
2BB
330
2B9
100
AcDbEntity
  8
0
100
AcDbBlockEnd
  0
BLOCK
  5
2C8
330
2C7
100
AcDbEntity
  8
0
100
AcDbBlockBegin
  2
BLKF052
 70
     0
 71
     0
 10
0.0
 20
0.0
 30
0.0
  3
BLKF052
  1

  0
LINE
  5
2CB
330
2C7
100
AcDbEntity
  8
1-1
  6
細い実線
 62
     7
100
AcDbLine
 10
707.110925
 20
116.876278
 30
0.0
 11
702.321793
 21
115.439538
 31
0.0
  0
LINE
  5
2CC
330
2C7
100
AcDbEntity
  8
1-1
  6
細い実線
 62
     7
100
AcDbLine
 10
705.674185
 20
121.665409
 30
0.0
 11
700.885054
 21
120.22867
 31
0.0
  0
LINE
  5
2CD
330
2C7
100
AcDbEntity
  8
1-1
  6
細い実線
 62
     7
100
AcDbLine
 10
701.523605
 20
120.420235
 30
0.0
 11
702.960344
 21
115.631104
 31
0.0
  0
LINE
  5
2CE
330
2C7
100
AcDbEntity
  8
1-1
  6
細い実線
 62
     7
100
AcDbLine
 10
702.25973
 20
116.765528
 30
0.0
 11
702.920807
 21
116.963851
 31
0.0
  0
LINE
  5
2CF
330
2C7
100
AcDbEntity
  8
1-1
  6
細い実線
 62
     7
100
AcDbLine
 10
702.920807
 20
116.963851
 30
0.0
 11
702.960344
 21
115.631104
 31
0.0
  0
LINE
  5
2D0
330
2C7
100
AcDbEntity
  8
1-1
  6
細い実線
 62
     7
100
AcDbLine
 10
702.960344
 20
115.631104
 30
0.0
 11
702.25973
 21
116.765528
 31
0.0
  0
LINE
  5
2D1
330
2C7
100
AcDbEntity
  8
1-1
  6
細い実線
 62
     7
100
AcDbLine
 10
702.224218
 20
119.285811
 30
0.0
 11
701.563142
 21
119.087488
 31
0.0
  0
LINE
  5
2D2
330
2C7
100
AcDbEntity
  8
1-1
  6
細い実線
 62
     7
100
AcDbLine
 10
701.563142
 20
119.087488
 30
0.0
 11
701.523605
 21
120.420235
 31
0.0
  0
LINE
  5
2D3
330
2C7
100
AcDbEntity
  8
1-1
  6
細い実線
 62
     7
100
AcDbLine
 10
701.523605
 20
120.420235
 30
0.0
 11
702.224218
 21
119.285811
 31
0.0
  0
TEXT
  5
2D4
330
2C7
100
AcDbEntity
  8
1-1
  6
CONTINUOUS
 62
     7
100
AcDbText
 10
701.667253
 20
119.941325
 30
0.0
 40
2.0
  1
１５０
 50
286.699249
 41
0.666667
  7
FX_VECTOR
 72
     5
 11
702.816644
 21
116.11002
 31
0.0
100
AcDbText
  0
ENDBLK
  5
2C9
330
2C7
100
AcDbEntity
  8
0
100
AcDbBlockEnd
  0
BLOCK
  5
2D6
330
2D5
100
AcDbEntity
  8
0
100
AcDbBlockBegin
  2
BLKF053
 70
     0
 71
     0
 10
0.0
 20
0.0
 30
0.0
  3
BLKF053
  1

  0
LINE
  5
2D9
330
2D5
100
AcDbEntity
  8
1-1
  6
細い実線
 62
     7
100
AcDbLine
 10
705.386837
 20
122.623235
 30
0.0
 11
700.597706
 21
121.186496
 31
0.0
  0
LINE
  5
2DA
330
2D5
100
AcDbEntity
  8
1-1
  6
細い実線
 62
     7
100
AcDbLine
 10
700.661561
 20
123.293714
 30
0.0
 11
702.0983
 21
118.504582
 31
0.0
  0
LINE
  5
2DB
330
2D5
100
AcDbEntity
  8
1-1
  6
細い実線
 62
     7
100
AcDbLine
 10
702.224218
 20
119.285811
 30
0.0
 11
701.563142
 21
119.087488
 31
0.0
  0
LINE
  5
2DC
330
2D5
100
AcDbEntity
  8
1-1
  6
細い実線
 62
     7
100
AcDbLine
 10
701.563142
 20
119.087488
 30
0.0
 11
701.523605
 21
120.420235
 31
0.0
  0
LINE
  5
2DD
330
2D5
100
AcDbEntity
  8
1-1
  6
細い実線
 62
     7
100
AcDbLine
 10
701.523605
 20
120.420235
 30
0.0
 11
702.224218
 21
119.285811
 31
0.0
  0
LINE
  5
2DE
330
2D5
100
AcDbEntity
  8
1-1
  6
細い実線
 62
     7
100
AcDbLine
 10
700.535643
 20
122.512485
 30
0.0
 11
701.196719
 21
122.710808
 31
0.0
  0
LINE
  5
2DF
330
2D5
100
AcDbEntity
  8
1-1
  6
細い実線
 62
     7
100
AcDbLine
 10
701.196719
 20
122.710808
 30
0.0
 11
701.236257
 21
121.378061
 31
0.0
  0
LINE
  5
2E0
330
2D5
100
AcDbEntity
  8
1-1
  6
細い実線
 62
     7
100
AcDbLine
 10
701.236257
 20
121.378061
 30
0.0
 11
700.535643
 21
122.512485
 31
0.0
  0
TEXT
  5
2E1
330
2D5
100
AcDbEntity
  8
1-1
  6
CONTINUOUS
 62
     7
100
AcDbText
 10
698.442578
 20
121.409977
 30
0.0
 40
2.0
  1
３０
 50
286.699249
 41
0.666667
  7
FX_VECTOR
 72
     5
 11
699.208839
 21
118.855774
 31
0.0
100
AcDbText
  0
ENDBLK
  5
2D7
330
2D5
100
AcDbEntity
  8
0
100
AcDbBlockEnd
  0
BLOCK
  5
2E3
330
2E2
100
AcDbEntity
  8
0
100
AcDbBlockBegin
  2
BLKF054
 70
     0
 71
     0
 10
0.0
 20
0.0
 30
0.0
  3
BLKF054
  1

  0
LINE
  5
2E6
330
2E2
100
AcDbEntity
  8
1-1
  6
細い実線
 62
     7
100
AcDbLine
 10
707.673169
 20
115.002131
 30
0.0
 11
698.094906
 21
112.128652
 31
0.0
  0
LINE
  5
2E7
330
2E2
100
AcDbEntity
  8
1-1
  6
細い実線
 62
     7
100
AcDbLine
 10
707.398272
 20
115.918451
 30
0.0
 11
697.82001
 21
113.044973
 31
0.0
  0
LINE
  5
2E8
330
2E2
100
AcDbEntity
  8
1-1
  6
細い実線
 62
     7
100
AcDbLine
 10
697.883865
 20
115.15219
 30
0.0
 11
699.308152
 21
110.404565
 31
0.0
  0
LINE
  5
2E9
330
2E2
100
AcDbEntity
  8
1-1
  6
細い実線
 62
     7
100
AcDbLine
 10
699.434071
 20
111.185793
 30
0.0
 11
698.772994
 21
110.98747
 31
0.0
  0
LINE
  5
2EA
330
2E2
100
AcDbEntity
  8
1-1
  6
細い実線
 62
     7
100
AcDbLine
 10
698.772994
 20
110.98747
 30
0.0
 11
698.733457
 21
112.320217
 31
0.0
  0
LINE
  5
2EB
330
2E2
100
AcDbEntity
  8
1-1
  6
細い実線
 62
     7
100
AcDbLine
 10
698.733457
 20
112.320217
 30
0.0
 11
699.434071
 21
111.185793
 31
0.0
  0
LINE
  5
2EC
330
2E2
100
AcDbEntity
  8
1-1
  6
細い実線
 62
     7
100
AcDbLine
 10
697.757947
 20
114.370962
 30
0.0
 11
698.419023
 21
114.569285
 31
0.0
  0
LINE
  5
2ED
330
2E2
100
AcDbEntity
  8
1-1
  6
細い実線
 62
     7
100
AcDbLine
 10
698.419023
 20
114.569285
 30
0.0
 11
698.45856
 21
113.236538
 31
0.0
  0
LINE
  5
2EE
330
2E2
100
AcDbEntity
  8
1-1
  6
細い実線
 62
     7
100
AcDbLine
 10
698.45856
 20
113.236538
 30
0.0
 11
697.757947
 21
114.370962
 31
0.0
  0
TEXT
  5
2EF
330
2E2
100
AcDbEntity
  8
1-1
  6
CONTINUOUS
 62
     7
100
AcDbText
 10
695.092839
 20
113.561572
 30
0.0
 40
2.0
  1
２８．７
 50
286.699249
 41
0.666667
  7
FX_VECTOR
 72
     5
 11
696.625361
 21
108.453166
 31
0.0
100
AcDbText
  0
ENDBLK
  5
2E4
330
2E2
100
AcDbEntity
  8
0
100
AcDbBlockEnd
  0
BLOCK
  5
2F1
330
2F0
100
AcDbEntity
  8
0
100
AcDbBlockBegin
  2
BLKF055
 70
     0
 71
     0
 10
0.0
 20
0.0
 30
0.0
  3
BLKF055
  1

  0
LINE
  5
2F4
330
2F0
100
AcDbEntity
  8
1-1
  6
細い実線
 62
     7
100
AcDbLine
 10
724.61073
 20
115.385261
 30
0.0
 11
730.996239
 21
117.300914
 31
0.0
  0
LINE
  5
2F5
330
2F0
100
AcDbEntity
  8
1-1
  6
細い実線
 62
     7
100
AcDbLine
 10
720.77873
 20
128.158595
 30
0.0
 11
727.164239
 21
130.074247
 31
0.0
  0
LINE
  5
2F6
330
2F0
100
AcDbEntity
  8
1-1
  6
細い実線
 62
     7
100
AcDbLine
 10
726.525688
 20
129.882682
 30
0.0
 11
730.357688
 21
117.109349
 31
0.0
  0
LINE
  5
2F7
330
2F0
100
AcDbEntity
  8
1-1
  6
細い実線
 62
     7
100
AcDbLine
 10
729.657074
 20
118.243773
 30
0.0
 11
730.31815
 21
118.442096
 31
0.0
  0
LINE
  5
2F8
330
2F0
100
AcDbEntity
  8
1-1
  6
細い実線
 62
     7
100
AcDbLine
 10
730.31815
 20
118.442096
 30
0.0
 11
730.357688
 21
117.109349
 31
0.0
  0
LINE
  5
2F9
330
2F0
100
AcDbEntity
  8
1-1
  6
細い実線
 62
     7
100
AcDbLine
 10
730.357688
 20
117.109349
 30
0.0
 11
729.657074
 21
118.243773
 31
0.0
  0
LINE
  5
2FA
330
2F0
100
AcDbEntity
  8
1-1
  6
細い実線
 62
     7
100
AcDbLine
 10
727.226302
 20
128.748258
 30
0.0
 11
726.565225
 21
128.549935
 31
0.0
  0
LINE
  5
2FB
330
2F0
100
AcDbEntity
  8
1-1
  6
細い実線
 62
     7
100
AcDbLine
 10
726.565225
 20
128.549935
 30
0.0
 11
726.525688
 21
129.882682
 31
0.0
  0
LINE
  5
2FC
330
2F0
100
AcDbEntity
  8
1-1
  6
細い実線
 62
     7
100
AcDbLine
 10
726.525688
 20
129.882682
 30
0.0
 11
727.226302
 21
128.748258
 31
0.0
  0
TEXT
  5
2FD
330
2F0
100
AcDbEntity
  8
1-1
  6
CONTINUOUS
 62
     7
100
AcDbText
 10
727.866992
 20
125.41167
 30
0.0
 40
2.0
  1
４００
 50
286.699249
 41
0.666667
  7
FX_VECTOR
 72
     5
 11
729.016384
 21
121.580365
 31
0.0
100
AcDbText
  0
ENDBLK
  5
2F2
330
2F0
100
AcDbEntity
  8
0
100
AcDbBlockEnd
  0
BLOCK
  5
2FF
330
2FE
100
AcDbEntity
  8
0
100
AcDbBlockBegin
  2
BLKF056
 70
     0
 71
     0
 10
0.0
 20
0.0
 30
0.0
  3
BLKF056
  1

  0
LINE
  5
302
330
2FE
100
AcDbEntity
  8
1-1
  6
細い実線
 62
     7
100
AcDbLine
 10
710.397593
 20
108.240786
 30
0.0
 11
714.228898
 21
95.469769
 31
0.0
  0
LINE
  5
303
330
2FE
100
AcDbEntity
  8
1-1
  6
細い実線
 62
     7
100
AcDbLine
 10
724.764987
 20
112.551004
 30
0.0
 11
728.596292
 21
99.779987
 31
0.0
  0
LINE
  5
304
330
2FE
100
AcDbEntity
  8
1-1
  6
細い実線
 62
     7
100
AcDbLine
 10
728.404727
 20
100.418538
 30
0.0
 11
714.037332
 21
96.108319
 31
0.0
  0
LINE
  5
305
330
2FE
100
AcDbEntity
  8
1-1
  6
細い実線
 62
     7
100
AcDbLine
 10
715.171757
 20
96.808933
 30
0.0
 11
715.370079
 21
96.147857
 31
0.0
  0
LINE
  5
306
330
2FE
100
AcDbEntity
  8
1-1
  6
細い実線
 62
     7
100
AcDbLine
 10
715.370079
 20
96.147857
 30
0.0
 11
714.037332
 21
96.108319
 31
0.0
  0
LINE
  5
307
330
2FE
100
AcDbEntity
  8
1-1
  6
細い実線
 62
     7
100
AcDbLine
 10
714.037332
 20
96.108319
 30
0.0
 11
715.171757
 21
96.808933
 31
0.0
  0
LINE
  5
308
330
2FE
100
AcDbEntity
  8
1-1
  6
細い実線
 62
     7
100
AcDbLine
 10
727.270303
 20
99.717924
 30
0.0
 11
727.07198
 21
100.379
 31
0.0
  0
LINE
  5
309
330
2FE
100
AcDbEntity
  8
1-1
  6
細い実線
 62
     7
100
AcDbLine
 10
727.07198
 20
100.379
 30
0.0
 11
728.404727
 21
100.418538
 31
0.0
  0
LINE
  5
30A
330
2FE
100
AcDbEntity
  8
1-1
  6
細い実線
 62
     7
100
AcDbLine
 10
728.404727
 20
100.418538
 30
0.0
 11
727.270303
 21
99.717924
 31
0.0
  0
TEXT
  5
30B
330
2FE
100
AcDbEntity
  8
1-1
  6
CONTINUOUS
 62
     7
100
AcDbText
 10
719.305339
 20
97.688737
 30
0.0
 40
2.0
  1
４５０
 50
16.699244
 41
0.666667
  7
FX_VECTOR
 72
     5
 11
723.136644
 21
98.838128
 31
0.0
100
AcDbText
  0
ENDBLK
  5
300
330
2FE
100
AcDbEntity
  8
0
100
AcDbBlockEnd
  0
BLOCK
  5
30D
330
30C
100
AcDbEntity
  8
0
100
AcDbBlockBegin
  2
BLKF057
 70
     0
 71
     0
 10
0.0
 20
0.0
 30
0.0
  3
BLKF057
  1

  0
LINE
  5
310
330
30C
100
AcDbEntity
  8
1-1
  6
細い実線
 62
     7
100
AcDbLine
 10
725.882451
 20
112.886243
 30
0.0
 11
729.713756
 21
100.115226
 31
0.0
  0
LINE
  5
311
330
30C
100
AcDbEntity
  8
1-1
  6
細い実線
 62
     7
100
AcDbLine
 10
731.437843
 20
101.328473
 30
0.0
 11
726.489074
 21
99.843842
 31
0.0
  0
LINE
  5
312
330
30C
100
AcDbEntity
  8
1-1
  6
細い実線
 62
     7
100
AcDbLine
 10
727.270303
 20
99.717924
 30
0.0
 11
727.07198
 21
100.379
 31
0.0
  0
LINE
  5
313
330
30C
100
AcDbEntity
  8
1-1
  6
細い実線
 62
     7
100
AcDbLine
 10
727.07198
 20
100.379
 30
0.0
 11
728.404727
 21
100.418538
 31
0.0
  0
LINE
  5
314
330
30C
100
AcDbEntity
  8
1-1
  6
細い実線
 62
     7
100
AcDbLine
 10
728.404727
 20
100.418538
 30
0.0
 11
727.270303
 21
99.717924
 31
0.0
  0
LINE
  5
315
330
30C
100
AcDbEntity
  8
1-1
  6
細い実線
 62
     7
100
AcDbLine
 10
730.656615
 20
101.454391
 30
0.0
 11
730.854938
 21
100.793314
 31
0.0
  0
LINE
  5
316
330
30C
100
AcDbEntity
  8
1-1
  6
細い実線
 62
     7
100
AcDbLine
 10
730.854938
 20
100.793314
 30
0.0
 11
729.522191
 21
100.753777
 31
0.0
  0
LINE
  5
317
330
30C
100
AcDbEntity
  8
1-1
  6
細い実線
 62
     7
100
AcDbLine
 10
729.522191
 20
100.753777
 30
0.0
 11
730.656615
 21
101.454391
 31
0.0
  0
TEXT
  5
318
330
30C
100
AcDbEntity
  8
1-1
  6
CONTINUOUS
 62
     7
100
AcDbText
 10
728.452604
 20
97.648812
 30
0.0
 40
2.0
  1
３５
 50
16.699244
 41
0.666667
  7
FX_VECTOR
 72
     5
 11
731.006808
 21
98.415073
 31
0.0
100
AcDbText
  0
ENDBLK
  5
30E
330
30C
100
AcDbEntity
  8
0
100
AcDbBlockEnd
  0
BLOCK
  5
31A
330
319
100
AcDbEntity
  8
0
100
AcDbBlockBegin
  2
BLKF058
 70
     0
 71
     0
 10
0.0
 20
0.0
 30
0.0
  3
BLKF058
  1

  0
LINE
  5
31D
330
319
100
AcDbEntity
  8
1-1
  6
細い実線
 62
     7
100
AcDbLine
 10
711.834332
 20
108.671808
 30
0.0
 11
713.749985
 21
102.286299
 31
0.0
  0
LINE
  5
31E
330
319
100
AcDbEntity
  8
1-1
  6
細い実線
 62
     7
100
AcDbLine
 10
715.474072
 20
103.499546
 30
0.0
 11
710.206027
 21
101.919132
 31
0.0
  0
LINE
  5
31F
330
319
100
AcDbEntity
  8
1-1
  6
細い実線
 62
     7
100
AcDbLine
 10
710.987256
 20
101.793214
 30
0.0
 11
710.788933
 21
102.454291
 31
0.0
  0
LINE
  5
320
330
319
100
AcDbEntity
  8
1-1
  6
細い実線
 62
     7
100
AcDbLine
 10
710.788933
 20
102.454291
 30
0.0
 11
712.12168
 21
102.493828
 31
0.0
  0
LINE
  5
321
330
319
100
AcDbEntity
  8
1-1
  6
細い実線
 62
     7
100
AcDbLine
 10
712.12168
 20
102.493828
 30
0.0
 11
710.987256
 21
101.793214
 31
0.0
  0
LINE
  5
322
330
319
100
AcDbEntity
  8
1-1
  6
細い実線
 62
     7
100
AcDbLine
 10
714.692843
 20
103.625464
 30
0.0
 11
714.891166
 21
102.964387
 31
0.0
  0
LINE
  5
323
330
319
100
AcDbEntity
  8
1-1
  6
細い実線
 62
     7
100
AcDbLine
 10
714.891166
 20
102.964387
 30
0.0
 11
713.558419
 21
102.92485
 31
0.0
  0
LINE
  5
324
330
319
100
AcDbEntity
  8
1-1
  6
細い実線
 62
     7
100
AcDbLine
 10
713.558419
 20
102.92485
 30
0.0
 11
714.692843
 21
103.625464
 31
0.0
  0
TEXT
  5
325
330
319
100
AcDbEntity
  8
1-1
  6
CONTINUOUS
 62
     7
100
AcDbText
 10
713.242578
 20
99.406641
 30
0.0
 40
2.0
  1
４５
 50
16.699244
 41
0.666667
  7
FX_VECTOR
 72
     5
 11
715.796782
 21
100.172902
 31
0.0
100
AcDbText
  0
ENDBLK
  5
31B
330
319
100
AcDbEntity
  8
0
100
AcDbBlockEnd
  0
BLOCK
  5
327
330
326
100
AcDbEntity
  8
0
100
AcDbBlockBegin
  2
BLKF059
 70
     0
 71
     0
 10
0.0
 20
0.0
 30
0.0
  3
BLKF059
  1

  0
LINE
  5
32A
330
326
100
AcDbEntity
  8
1-1
  6
細い実線
 62
     7
100
AcDbLine
 10
723.328247
 20
112.119982
 30
0.0
 11
725.2439
 21
105.734474
 31
0.0
  0
LINE
  5
32B
330
326
100
AcDbEntity
  8
1-1
  6
細い実線
 62
     7
100
AcDbLine
 10
725.052335
 20
106.373025
 30
0.0
 11
713.558419
 21
102.92485
 31
0.0
  0
LINE
  5
32C
330
326
100
AcDbEntity
  8
1-1
  6
細い実線
 62
     7
100
AcDbLine
 10
714.692843
 20
103.625464
 30
0.0
 11
714.891166
 21
102.964387
 31
0.0
  0
LINE
  5
32D
330
326
100
AcDbEntity
  8
1-1
  6
細い実線
 62
     7
100
AcDbLine
 10
714.891166
 20
102.964387
 30
0.0
 11
713.558419
 21
102.92485
 31
0.0
  0
LINE
  5
32E
330
326
100
AcDbEntity
  8
1-1
  6
細い実線
 62
     7
100
AcDbLine
 10
713.558419
 20
102.92485
 30
0.0
 11
714.692843
 21
103.625464
 31
0.0
  0
LINE
  5
32F
330
326
100
AcDbEntity
  8
1-1
  6
細い実線
 62
     7
100
AcDbLine
 10
723.917911
 20
105.672411
 30
0.0
 11
723.719588
 21
106.333487
 31
0.0
  0
LINE
  5
330
330
326
100
AcDbEntity
  8
1-1
  6
細い実線
 62
     7
100
AcDbLine
 10
723.719588
 20
106.333487
 30
0.0
 11
725.052335
 21
106.373025
 31
0.0
  0
LINE
  5
331
330
326
100
AcDbEntity
  8
1-1
  6
細い実線
 62
     7
100
AcDbLine
 10
725.052335
 20
106.373025
 30
0.0
 11
723.917911
 21
105.672411
 31
0.0
  0
TEXT
  5
332
330
326
100
AcDbEntity
  8
1-1
  6
CONTINUOUS
 62
     7
100
AcDbText
 10
717.389714
 20
104.074235
 30
0.0
 40
2.0
  1
３６０
 50
16.699244
 41
0.666667
  7
FX_VECTOR
 72
     5
 11
721.221019
 21
105.223627
 31
0.0
100
AcDbText
  0
ENDBLK
  5
328
330
326
100
AcDbEntity
  8
0
100
AcDbBlockEnd
  0
BLOCK
  5
334
330
333
100
AcDbEntity
  8
0
100
AcDbBlockBegin
  2
BLKF060
 70
     0
 71
     0
 10
0.0
 20
0.0
 30
0.0
  3
BLKF060
  1

  0
LINE
  5
337
330
333
100
AcDbEntity
  8
1-1
  6
細い実線
 62
     7
100
AcDbLine
 10
728.404727
 20
107.378742
 30
0.0
 11
723.136682
 21
105.798329
 31
0.0
  0
LINE
  5
338
330
333
100
AcDbEntity
  8
1-1
  6
細い実線
 62
     7
100
AcDbLine
 10
723.917911
 20
105.672411
 30
0.0
 11
723.719588
 21
106.333487
 31
0.0
  0
LINE
  5
339
330
333
100
AcDbEntity
  8
1-1
  6
細い実線
 62
     7
100
AcDbLine
 10
723.719588
 20
106.333487
 30
0.0
 11
725.052335
 21
106.373025
 31
0.0
  0
LINE
  5
33A
330
333
100
AcDbEntity
  8
1-1
  6
細い実線
 62
     7
100
AcDbLine
 10
725.052335
 20
106.373025
 30
0.0
 11
723.917911
 21
105.672411
 31
0.0
  0
LINE
  5
33B
330
333
100
AcDbEntity
  8
1-1
  6
細い実線
 62
     7
100
AcDbLine
 10
727.623498
 20
107.50466
 30
0.0
 11
727.821821
 21
106.843584
 31
0.0
  0
LINE
  5
33C
330
333
100
AcDbEntity
  8
1-1
  6
細い実線
 62
     7
100
AcDbLine
 10
727.821821
 20
106.843584
 30
0.0
 11
726.489074
 21
106.804046
 31
0.0
  0
LINE
  5
33D
330
333
100
AcDbEntity
  8
1-1
  6
細い実線
 62
     7
100
AcDbLine
 10
726.489074
 20
106.804046
 30
0.0
 11
727.623498
 21
107.50466
 31
0.0
  0
TEXT
  5
33E
330
333
100
AcDbEntity
  8
1-1
  6
CONTINUOUS
 62
     7
100
AcDbText
 10
724.711784
 20
103.011816
 30
0.0
 40
2.0
  1
４５
 50
16.699244
 41
0.666667
  7
FX_VECTOR
 72
     5
 11
727.265987
 21
103.778077
 31
0.0
100
AcDbText
  0
ENDBLK
  5
335
330
333
100
AcDbEntity
  8
0
100
AcDbBlockEnd
  0
BLOCK
  5
370
330
36F
100
AcDbEntity
  8
0
100
AcDbBlockBegin
  2
BLKF061
 70
     0
 71
     0
 10
0.0
 20
0.0
 30
0.0
  3
BLKF061
  1

  0
LINE
  5
373
330
36F
100
AcDbEntity
  8
1-1
  6
細い実線
 62
     7
100
AcDbLine
 10
707.645053
 20
115.193696
 30
0.0
 11
693.845053
 21
115.193696
 31
0.0
  0
LINE
  5
374
330
36F
100
AcDbEntity
  8
1-1
  6
細い実線
 62
     7
100
AcDbLine
 10
703.845053
 20
127.860363
 30
0.0
 11
693.845053
 21
127.860363
 31
0.0
  0
LINE
  5
375
330
36F
100
AcDbEntity
  8
1-1
  6
細い実線
 62
     7
100
AcDbLine
 10
694.511719
 20
127.860363
 30
0.0
 11
694.511719
 21
115.193696
 31
0.0
  0
LINE
  5
376
330
36F
100
AcDbEntity
  8
1-1
  6
細い実線
 62
     7
100
AcDbLine
 10
694.166627
 20
116.481597
 30
0.0
 11
694.856812
 21
116.481597
 31
0.0
  0
LINE
  5
377
330
36F
100
AcDbEntity
  8
1-1
  6
細い実線
 62
     7
100
AcDbLine
 10
694.856812
 20
116.481597
 30
0.0
 11
694.511719
 21
115.193696
 31
0.0
  0
LINE
  5
378
330
36F
100
AcDbEntity
  8
1-1
  6
細い実線
 62
     7
100
AcDbLine
 10
694.511719
 20
115.193696
 30
0.0
 11
694.166627
 21
116.481597
 31
0.0
  0
LINE
  5
379
330
36F
100
AcDbEntity
  8
1-1
  6
細い実線
 62
     7
100
AcDbLine
 10
694.856812
 20
126.572462
 30
0.0
 11
694.166627
 21
126.572462
 31
0.0
  0
LINE
  5
37A
330
36F
100
AcDbEntity
  8
1-1
  6
細い実線
 62
     7
100
AcDbLine
 10
694.166627
 20
126.572462
 30
0.0
 11
694.511719
 21
127.860363
 31
0.0
  0
LINE
  5
37B
330
36F
100
AcDbEntity
  8
1-1
  6
細い実線
 62
     7
100
AcDbLine
 10
694.511719
 20
127.860363
 30
0.0
 11
694.856812
 21
126.572462
 31
0.0
  0
TEXT
  5
37C
330
36F
100
AcDbEntity
  8
1-1
  6
CONTINUOUS
 62
     7
100
AcDbText
 10
694.511719
 20
119.527018
 30
0.0
 40
2.0
  1
３８０
 50
90.0
 41
0.666667
  7
FX_VECTOR
 72
     5
 11
694.511719
 21
123.527018
 31
0.0
100
AcDbText
  0
ENDBLK
  5
371
330
36F
100
AcDbEntity
  8
0
100
AcDbBlockEnd
  0
BLOCK
  5
37E
330
37D
100
AcDbEntity
  8
0
100
AcDbBlockBegin
  2
BLKF062
 70
     0
 71
     0
 10
0.0
 20
0.0
 30
0.0
  3
BLKF062
  1

  0
LINE
  5
381
330
37D
100
AcDbEntity
  8
1-1
  6
細い実線
 62
     7
100
AcDbLine
 10
703.845053
 20
127.860363
 30
0.0
 11
693.845053
 21
127.860363
 31
0.0
  0
LINE
  5
382
330
37D
100
AcDbEntity
  8
1-1
  6
細い実線
 62
     7
100
AcDbLine
 10
711.769402
 20
131.300363
 30
0.0
 11
693.845053
 21
131.300363
 31
0.0
  0
LINE
  5
383
330
37D
100
AcDbEntity
  8
1-1
  6
細い実線
 62
     7
100
AcDbLine
 10
694.511719
 20
131.300363
 30
0.0
 11
694.511719
 21
127.860363
 31
0.0
  0
LINE
  5
384
330
37D
100
AcDbEntity
  8
1-1
  6
細い実線
 62
     7
100
AcDbLine
 10
694.166627
 20
129.148264
 30
0.0
 11
694.856812
 21
129.148264
 31
0.0
  0
LINE
  5
385
330
37D
100
AcDbEntity
  8
1-1
  6
細い実線
 62
     7
100
AcDbLine
 10
694.856812
 20
129.148264
 30
0.0
 11
694.511719
 21
127.860363
 31
0.0
  0
LINE
  5
386
330
37D
100
AcDbEntity
  8
1-1
  6
細い実線
 62
     7
100
AcDbLine
 10
694.511719
 20
127.860363
 30
0.0
 11
694.166627
 21
129.148264
 31
0.0
  0
LINE
  5
387
330
37D
100
AcDbEntity
  8
1-1
  6
細い実線
 62
     7
100
AcDbLine
 10
694.856812
 20
130.012462
 30
0.0
 11
694.166627
 21
130.012462
 31
0.0
  0
LINE
  5
388
330
37D
100
AcDbEntity
  8
1-1
  6
細い実線
 62
     7
100
AcDbLine
 10
694.166627
 20
130.012462
 30
0.0
 11
694.511719
 21
131.300363
 31
0.0
  0
LINE
  5
389
330
37D
100
AcDbEntity
  8
1-1
  6
細い実線
 62
     7
100
AcDbLine
 10
694.511719
 20
131.300363
 30
0.0
 11
694.856812
 21
130.012462
 31
0.0
  0
TEXT
  5
38A
330
37D
100
AcDbEntity
  8
1-1
  6
CONTINUOUS
 62
     7
100
AcDbText
 10
693.845052
 20
126.247021
 30
0.0
 40
2.0
  1
１０３．２
 50
90.0
 41
0.666667
  7
FX_VECTOR
 72
     5
 11
693.845052
 21
132.913688
 31
0.0
100
AcDbText
  0
ENDBLK
  5
37F
330
37D
100
AcDbEntity
  8
0
100
AcDbBlockEnd
  0
BLOCK
  5
3B3
330
3B2
100
AcDbEntity
  8
0
100
AcDbBlockBegin
  2
BLKF063
 70
     0
 71
     0
 10
0.0
 20
0.0
 30
0.0
  3
BLKF063
  1

  0
LINE
  5
3B6
330
3B2
100
AcDbEntity
  8
1-1
  6
細い実線
 62
     7
100
AcDbLine
 10
810.464352
 20
162.910505
 30
0.0
 11
810.464352
 21
162.220321
 31
0.0
  0
LINE
  5
3B7
330
3B2
100
AcDbEntity
  8
1-1
  6
細い実線
 62
     7
100
AcDbLine
 10
810.464352
 20
162.220321
 30
0.0
 11
809.176451
 21
162.565413
 31
0.0
  0
LINE
  5
3B8
330
3B2
100
AcDbEntity
  8
1-1
  6
細い実線
 62
     7
100
AcDbLine
 10
809.176451
 20
162.565413
 30
0.0
 11
810.464352
 21
162.910505
 31
0.0
  0
LINE
  5
3B9
330
3B2
100
AcDbEntity
  8
1-1
  6
細い実線
 62
     7
100
AcDbLine
 10
809.176451
 20
162.565413
 30
0.0
 11
814.835576
 21
162.565413
 31
0.0
  0
LINE
  5
3BA
330
3B2
100
AcDbEntity
  8
1-1
  6
細い実線
 62
     7
100
AcDbLine
 10
814.835576
 20
162.565413
 30
0.0
 11
814.835576
 21
166.884071
 31
0.0
  0
ENDBLK
  5
3B4
330
3B2
100
AcDbEntity
  8
0
100
AcDbBlockEnd
  0
BLOCK
  5
3BD
330
3BC
100
AcDbEntity
  8
0
100
AcDbBlockBegin
  2
BLKF064
 70
     0
 71
     0
 10
0.0
 20
0.0
 30
0.0
  3
BLKF064
  1

  0
LINE
  5
3C0
330
3BC
100
AcDbEntity
  8
1-1
  6
細い実線
 62
     7
100
AcDbLine
 10
810.464352
 20
192.160683
 30
0.0
 11
810.464352
 21
191.470499
 31
0.0
  0
LINE
  5
3C1
330
3BC
100
AcDbEntity
  8
1-1
  6
細い実線
 62
     7
100
AcDbLine
 10
810.464352
 20
191.470499
 30
0.0
 11
809.176451
 21
191.815591
 31
0.0
  0
LINE
  5
3C2
330
3BC
100
AcDbEntity
  8
1-1
  6
細い実線
 62
     7
100
AcDbLine
 10
809.176451
 20
191.815591
 30
0.0
 11
810.464352
 21
192.160683
 31
0.0
  0
LINE
  5
3C3
330
3BC
100
AcDbEntity
  8
1-1
  6
細い実線
 62
     7
100
AcDbLine
 10
809.176451
 20
191.815591
 30
0.0
 11
814.835576
 21
191.815591
 31
0.0
  0
LINE
  5
3C4
330
3BC
100
AcDbEntity
  8
1-1
  6
細い実線
 62
     7
100
AcDbLine
 10
814.835576
 20
191.815591
 30
0.0
 11
814.835576
 21
189.338222
 31
0.0
  0
ENDBLK
  5
3BE
330
3BC
100
AcDbEntity
  8
0
100
AcDbBlockEnd
  0
BLOCK
  5
3C7
330
3C6
100
AcDbEntity
  8
0
100
AcDbBlockBegin
  2
BLKF065
 70
     0
 71
     0
 10
0.0
 20
0.0
 30
0.0
  3
BLKF065
  1

  0
LINE
  5
3CA
330
3C6
100
AcDbEntity
  8
1-1
  6
細い実線
 62
     7
100
AcDbLine
 10
794.002242
 20
188.671212
 30
0.0
 11
794.002242
 21
198.671212
 31
0.0
  0
LINE
  5
3CB
330
3C6
100
AcDbEntity
  8
1-1
  6
細い実線
 62
     7
100
AcDbLine
 10
835.668909
 20
188.671212
 30
0.0
 11
835.668909
 21
198.671212
 31
0.0
  0
LINE
  5
3CC
330
3C6
100
AcDbEntity
  8
1-1
  6
細い実線
 62
     7
100
AcDbLine
 10
835.668909
 20
198.004545
 30
0.0
 11
794.002242
 21
198.004545
 31
0.0
  0
LINE
  5
3CD
330
3C6
100
AcDbEntity
  8
1-1
  6
細い実線
 62
     7
100
AcDbLine
 10
795.290144
 20
198.349637
 30
0.0
 11
795.290144
 21
197.659453
 31
0.0
  0
LINE
  5
3CE
330
3C6
100
AcDbEntity
  8
1-1
  6
細い実線
 62
     7
100
AcDbLine
 10
795.290144
 20
197.659453
 30
0.0
 11
794.002242
 21
198.004545
 31
0.0
  0
LINE
  5
3CF
330
3C6
100
AcDbEntity
  8
1-1
  6
細い実線
 62
     7
100
AcDbLine
 10
794.002242
 20
198.004545
 30
0.0
 11
795.290144
 21
198.349637
 31
0.0
  0
LINE
  5
3D0
330
3C6
100
AcDbEntity
  8
1-1
  6
細い実線
 62
     7
100
AcDbLine
 10
834.381008
 20
197.659453
 30
0.0
 11
834.381008
 21
198.349637
 31
0.0
  0
LINE
  5
3D1
330
3C6
100
AcDbEntity
  8
1-1
  6
細い実線
 62
     7
100
AcDbLine
 10
834.381008
 20
198.349637
 30
0.0
 11
835.668909
 21
198.004545
 31
0.0
  0
LINE
  5
3D2
330
3C6
100
AcDbEntity
  8
1-1
  6
細い実線
 62
     7
100
AcDbLine
 10
835.668909
 20
198.004545
 30
0.0
 11
834.381008
 21
197.659453
 31
0.0
  0
TEXT
  5
3D3
330
3C6
100
AcDbEntity
  8
1-1
  6
CONTINUOUS
 62
     7
100
AcDbText
 10
812.168945
 20
198.004557
 30
0.0
 40
2.0
  1
１２５０
 41
0.666667
  7
FX_VECTOR
 72
     5
 11
817.502279
 21
198.004557
 31
0.0
100
AcDbText
  0
ENDBLK
  5
3C8
330
3C6
100
AcDbEntity
  8
0
100
AcDbBlockEnd
  0
BLOCK
  5
3D5
330
3D4
100
AcDbEntity
  8
0
100
AcDbBlockBegin
  2
BLKF066
 70
     0
 71
     0
 10
0.0
 20
0.0
 30
0.0
  3
BLKF066
  1

  0
LINE
  5
3D8
330
3D4
100
AcDbEntity
  8
1-1
  6
細い実線
 62
     7
100
AcDbLine
 10
794.002242
 20
188.671212
 30
0.0
 11
794.002242
 21
195.337878
 31
0.0
  0
LINE
  5
3D9
330
3D4
100
AcDbEntity
  8
1-1
  6
細い実線
 62
     7
100
AcDbLine
 10
804.585576
 20
188.671212
 30
0.0
 11
804.585576
 21
195.337878
 31
0.0
  0
LINE
  5
3DA
330
3D4
100
AcDbEntity
  8
1-1
  6
細い実線
 62
     7
100
AcDbLine
 10
804.585576
 20
194.671212
 30
0.0
 11
794.002242
 21
194.671212
 31
0.0
  0
LINE
  5
3DB
330
3D4
100
AcDbEntity
  8
1-1
  6
細い実線
 62
     7
100
AcDbLine
 10
795.290144
 20
195.016304
 30
0.0
 11
795.290144
 21
194.32612
 31
0.0
  0
LINE
  5
3DC
330
3D4
100
AcDbEntity
  8
1-1
  6
細い実線
 62
     7
100
AcDbLine
 10
795.290144
 20
194.32612
 30
0.0
 11
794.002242
 21
194.671212
 31
0.0
  0
LINE
  5
3DD
330
3D4
100
AcDbEntity
  8
1-1
  6
細い実線
 62
     7
100
AcDbLine
 10
794.002242
 20
194.671212
 30
0.0
 11
795.290144
 21
195.016304
 31
0.0
  0
LINE
  5
3DE
330
3D4
100
AcDbEntity
  8
1-1
  6
細い実線
 62
     7
100
AcDbLine
 10
803.297675
 20
194.32612
 30
0.0
 11
803.297675
 21
195.016304
 31
0.0
  0
LINE
  5
3DF
330
3D4
100
AcDbEntity
  8
1-1
  6
細い実線
 62
     7
100
AcDbLine
 10
803.297675
 20
195.016304
 30
0.0
 11
804.585576
 21
194.671212
 31
0.0
  0
LINE
  5
3E0
330
3D4
100
AcDbEntity
  8
1-1
  6
細い実線
 62
     7
100
AcDbLine
 10
804.585576
 20
194.671212
 30
0.0
 11
803.297675
 21
194.32612
 31
0.0
  0
TEXT
  5
3E1
330
3D4
100
AcDbEntity
  8
1-1
  6
CONTINUOUS
 62
     7
100
AcDbText
 10
795.960612
 20
194.671224
 30
0.0
 40
2.0
  1
３１７．５
 41
0.666667
  7
FX_VECTOR
 72
     5
 11
802.627279
 21
194.671224
 31
0.0
100
AcDbText
  0
ENDBLK
  5
3D6
330
3D4
100
AcDbEntity
  8
0
100
AcDbBlockEnd
  0
BLOCK
  5
3E3
330
3E2
100
AcDbEntity
  8
0
100
AcDbBlockBegin
  2
BLKF067
 70
     0
 71
     0
 10
0.0
 20
0.0
 30
0.0
  3
BLKF067
  1

  0
LINE
  5
3E6
330
3E2
100
AcDbEntity
  8
1-1
  6
細い実線
 62
     7
100
AcDbLine
 10
808.252242
 20
188.671212
 30
0.0
 11
808.252242
 21
195.337878
 31
0.0
  0
LINE
  5
3E7
330
3E2
100
AcDbEntity
  8
1-1
  6
細い実線
 62
     7
100
AcDbLine
 10
808.252242
 20
194.671212
 30
0.0
 11
804.585576
 21
194.671212
 31
0.0
  0
LINE
  5
3E8
330
3E2
100
AcDbEntity
  8
1-1
  6
細い実線
 62
     7
100
AcDbLine
 10
805.873477
 20
195.016304
 30
0.0
 11
805.873477
 21
194.32612
 31
0.0
  0
LINE
  5
3E9
330
3E2
100
AcDbEntity
  8
1-1
  6
細い実線
 62
     7
100
AcDbLine
 10
805.873477
 20
194.32612
 30
0.0
 11
804.585576
 21
194.671212
 31
0.0
  0
LINE
  5
3EA
330
3E2
100
AcDbEntity
  8
1-1
  6
細い実線
 62
     7
100
AcDbLine
 10
804.585576
 20
194.671212
 30
0.0
 11
805.873477
 21
195.016304
 31
0.0
  0
LINE
  5
3EB
330
3E2
100
AcDbEntity
  8
1-1
  6
細い実線
 62
     7
100
AcDbLine
 10
806.964341
 20
194.32612
 30
0.0
 11
806.964341
 21
195.016304
 31
0.0
  0
LINE
  5
3EC
330
3E2
100
AcDbEntity
  8
1-1
  6
細い実線
 62
     7
100
AcDbLine
 10
806.964341
 20
195.016304
 30
0.0
 11
808.252242
 21
194.671212
 31
0.0
  0
LINE
  5
3ED
330
3E2
100
AcDbEntity
  8
1-1
  6
細い実線
 62
     7
100
AcDbLine
 10
808.252242
 20
194.671212
 30
0.0
 11
806.964341
 21
194.32612
 31
0.0
  0
TEXT
  5
3EE
330
3E2
100
AcDbEntity
  8
1-1
  6
CONTINUOUS
 62
     7
100
AcDbText
 10
804.418945
 20
195.337891
 30
0.0
 40
2.0
  1
１１０
 41
0.666667
  7
FX_VECTOR
 72
     5
 11
808.418945
 21
195.337891
 31
0.0
100
AcDbText
  0
ENDBLK
  5
3E4
330
3E2
100
AcDbEntity
  8
0
100
AcDbBlockEnd
  0
BLOCK
  5
3F0
330
3EF
100
AcDbEntity
  8
0
100
AcDbBlockBegin
  2
BLKF068
 70
     0
 71
     0
 10
0.0
 20
0.0
 30
0.0
  3
BLKF068
  1

  0
LINE
  5
3F3
330
3EF
100
AcDbEntity
  8
1-1
  6
細い実線
 62
     7
100
AcDbLine
 10
821.418909
 20
188.671212
 30
0.0
 11
821.418909
 21
195.337878
 31
0.0
  0
LINE
  5
3F4
330
3EF
100
AcDbEntity
  8
1-1
  6
細い実線
 62
     7
100
AcDbLine
 10
821.418909
 20
194.671212
 30
0.0
 11
808.252242
 21
194.671212
 31
0.0
  0
LINE
  5
3F5
330
3EF
100
AcDbEntity
  8
1-1
  6
細い実線
 62
     7
100
AcDbLine
 10
809.540144
 20
195.016304
 30
0.0
 11
809.540144
 21
194.32612
 31
0.0
  0
LINE
  5
3F6
330
3EF
100
AcDbEntity
  8
1-1
  6
細い実線
 62
     7
100
AcDbLine
 10
809.540144
 20
194.32612
 30
0.0
 11
808.252242
 21
194.671212
 31
0.0
  0
LINE
  5
3F7
330
3EF
100
AcDbEntity
  8
1-1
  6
細い実線
 62
     7
100
AcDbLine
 10
808.252242
 20
194.671212
 30
0.0
 11
809.540144
 21
195.016304
 31
0.0
  0
LINE
  5
3F8
330
3EF
100
AcDbEntity
  8
1-1
  6
細い実線
 62
     7
100
AcDbLine
 10
820.131008
 20
194.32612
 30
0.0
 11
820.131008
 21
195.016304
 31
0.0
  0
LINE
  5
3F9
330
3EF
100
AcDbEntity
  8
1-1
  6
細い実線
 62
     7
100
AcDbLine
 10
820.131008
 20
195.016304
 30
0.0
 11
821.418909
 21
194.671212
 31
0.0
  0
LINE
  5
3FA
330
3EF
100
AcDbEntity
  8
1-1
  6
細い実線
 62
     7
100
AcDbLine
 10
821.418909
 20
194.671212
 30
0.0
 11
820.131008
 21
194.32612
 31
0.0
  0
TEXT
  5
3FB
330
3EF
100
AcDbEntity
  8
1-1
  6
CONTINUOUS
 62
     7
100
AcDbText
 10
812.835612
 20
194.671224
 30
0.0
 40
2.0
  1
３９５
 41
0.666667
  7
FX_VECTOR
 72
     5
 11
816.835612
 21
194.671224
 31
0.0
100
AcDbText
  0
ENDBLK
  5
3F1
330
3EF
100
AcDbEntity
  8
0
100
AcDbBlockEnd
  0
BLOCK
  5
3FD
330
3FC
100
AcDbEntity
  8
0
100
AcDbBlockBegin
  2
BLKF069
 70
     0
 71
     0
 10
0.0
 20
0.0
 30
0.0
  3
BLKF069
  1

  0
LINE
  5
400
330
3FC
100
AcDbEntity
  8
1-1
  6
細い実線
 62
     7
100
AcDbLine
 10
825.085576
 20
188.671212
 30
0.0
 11
825.085576
 21
195.337878
 31
0.0
  0
LINE
  5
401
330
3FC
100
AcDbEntity
  8
1-1
  6
細い実線
 62
     7
100
AcDbLine
 10
825.085576
 20
194.671212
 30
0.0
 11
821.418909
 21
194.671212
 31
0.0
  0
LINE
  5
402
330
3FC
100
AcDbEntity
  8
1-1
  6
細い実線
 62
     7
100
AcDbLine
 10
822.70681
 20
195.016304
 30
0.0
 11
822.70681
 21
194.32612
 31
0.0
  0
LINE
  5
403
330
3FC
100
AcDbEntity
  8
1-1
  6
細い実線
 62
     7
100
AcDbLine
 10
822.70681
 20
194.32612
 30
0.0
 11
821.418909
 21
194.671212
 31
0.0
  0
LINE
  5
404
330
3FC
100
AcDbEntity
  8
1-1
  6
細い実線
 62
     7
100
AcDbLine
 10
821.418909
 20
194.671212
 30
0.0
 11
822.70681
 21
195.016304
 31
0.0
  0
LINE
  5
405
330
3FC
100
AcDbEntity
  8
1-1
  6
細い実線
 62
     7
100
AcDbLine
 10
823.797675
 20
194.32612
 30
0.0
 11
823.797675
 21
195.016304
 31
0.0
  0
LINE
  5
406
330
3FC
100
AcDbEntity
  8
1-1
  6
細い実線
 62
     7
100
AcDbLine
 10
823.797675
 20
195.016304
 30
0.0
 11
825.085576
 21
194.671212
 31
0.0
  0
LINE
  5
407
330
3FC
100
AcDbEntity
  8
1-1
  6
細い実線
 62
     7
100
AcDbLine
 10
825.085576
 20
194.671212
 30
0.0
 11
823.797675
 21
194.32612
 31
0.0
  0
TEXT
  5
408
330
3FC
100
AcDbEntity
  8
1-1
  6
CONTINUOUS
 62
     7
100
AcDbText
 10
821.252279
 20
195.337891
 30
0.0
 40
2.0
  1
１１０
 41
0.666667
  7
FX_VECTOR
 72
     5
 11
825.252279
 21
195.337891
 31
0.0
100
AcDbText
  0
ENDBLK
  5
3FE
330
3FC
100
AcDbEntity
  8
0
100
AcDbBlockEnd
  0
BLOCK
  5
40A
330
409
100
AcDbEntity
  8
0
100
AcDbBlockBegin
  2
BLKF070
 70
     0
 71
     0
 10
0.0
 20
0.0
 30
0.0
  3
BLKF070
  1

  0
LINE
  5
40D
330
409
100
AcDbEntity
  8
1-1
  6
細い実線
 62
     7
100
AcDbLine
 10
835.668909
 20
188.671212
 30
0.0
 11
835.668909
 21
195.337878
 31
0.0
  0
LINE
  5
40E
330
409
100
AcDbEntity
  8
1-1
  6
細い実線
 62
     7
100
AcDbLine
 10
835.668909
 20
194.671212
 30
0.0
 11
825.085576
 21
194.671212
 31
0.0
  0
LINE
  5
40F
330
409
100
AcDbEntity
  8
1-1
  6
細い実線
 62
     7
100
AcDbLine
 10
826.373477
 20
195.016304
 30
0.0
 11
826.373477
 21
194.32612
 31
0.0
  0
LINE
  5
410
330
409
100
AcDbEntity
  8
1-1
  6
細い実線
 62
     7
100
AcDbLine
 10
826.373477
 20
194.32612
 30
0.0
 11
825.085576
 21
194.671212
 31
0.0
  0
LINE
  5
411
330
409
100
AcDbEntity
  8
1-1
  6
細い実線
 62
     7
100
AcDbLine
 10
825.085576
 20
194.671212
 30
0.0
 11
826.373477
 21
195.016304
 31
0.0
  0
LINE
  5
412
330
409
100
AcDbEntity
  8
1-1
  6
細い実線
 62
     7
100
AcDbLine
 10
834.381008
 20
194.32612
 30
0.0
 11
834.381008
 21
195.016304
 31
0.0
  0
LINE
  5
413
330
409
100
AcDbEntity
  8
1-1
  6
細い実線
 62
     7
100
AcDbLine
 10
834.381008
 20
195.016304
 30
0.0
 11
835.668909
 21
194.671212
 31
0.0
  0
LINE
  5
414
330
409
100
AcDbEntity
  8
1-1
  6
細い実線
 62
     7
100
AcDbLine
 10
835.668909
 20
194.671212
 30
0.0
 11
834.381008
 21
194.32612
 31
0.0
  0
TEXT
  5
415
330
409
100
AcDbEntity
  8
1-1
  6
CONTINUOUS
 62
     7
100
AcDbText
 10
827.043945
 20
194.671224
 30
0.0
 40
2.0
  1
３１７．５
 41
0.666667
  7
FX_VECTOR
 72
     5
 11
833.710612
 21
194.671224
 31
0.0
100
AcDbText
  0
ENDBLK
  5
40B
330
409
100
AcDbEntity
  8
0
100
AcDbBlockEnd
  0
BLOCK
  5
417
330
416
100
AcDbEntity
  8
0
100
AcDbBlockBegin
  2
BLKF071
 70
     0
 71
     0
 10
0.0
 20
0.0
 30
0.0
  3
BLKF071
  1

  0
LINE
  5
41A
330
416
100
AcDbEntity
  8
1-1
  6
細い実線
 62
     7
100
AcDbLine
 10
793.335576
 20
187.972545
 30
0.0
 11
786.668909
 21
187.972545
 31
0.0
  0
LINE
  5
41B
330
416
100
AcDbEntity
  8
1-1
  6
細い実線
 62
     7
100
AcDbLine
 10
793.335576
 20
172.344085
 30
0.0
 11
786.668909
 21
172.344085
 31
0.0
  0
LINE
  5
41C
330
416
100
AcDbEntity
  8
1-1
  6
細い実線
 62
     7
100
AcDbLine
 10
787.335576
 20
172.344085
 30
0.0
 11
787.335576
 21
187.972545
 31
0.0
  0
LINE
  5
41D
330
416
100
AcDbEntity
  8
1-1
  6
細い実線
 62
     7
100
AcDbLine
 10
787.680668
 20
186.684644
 30
0.0
 11
786.990484
 21
186.684644
 31
0.0
  0
LINE
  5
41E
330
416
100
AcDbEntity
  8
1-1
  6
細い実線
 62
     7
100
AcDbLine
 10
786.990484
 20
186.684644
 30
0.0
 11
787.335576
 21
187.972545
 31
0.0
  0
LINE
  5
41F
330
416
100
AcDbEntity
  8
1-1
  6
細い実線
 62
     7
100
AcDbLine
 10
787.335576
 20
187.972545
 30
0.0
 11
787.680668
 21
186.684644
 31
0.0
  0
LINE
  5
420
330
416
100
AcDbEntity
  8
1-1
  6
細い実線
 62
     7
100
AcDbLine
 10
786.990484
 20
173.631986
 30
0.0
 11
787.680668
 21
173.631986
 31
0.0
  0
LINE
  5
421
330
416
100
AcDbEntity
  8
1-1
  6
細い実線
 62
     7
100
AcDbLine
 10
787.680668
 20
173.631986
 30
0.0
 11
787.335576
 21
172.344085
 31
0.0
  0
LINE
  5
422
330
416
100
AcDbEntity
  8
1-1
  6
細い実線
 62
     7
100
AcDbLine
 10
787.335576
 20
172.344085
 30
0.0
 11
786.990484
 21
173.631986
 31
0.0
  0
TEXT
  5
423
330
416
100
AcDbEntity
  8
1-1
  6
CONTINUOUS
 62
     7
100
AcDbText
 10
787.335612
 20
176.825
 30
0.0
 40
2.0
  1
４６８．９
 50
90.0
 41
0.666667
  7
FX_VECTOR
 72
     5
 11
787.335612
 21
183.491667
 31
0.0
100
AcDbText
  0
ENDBLK
  5
418
330
416
100
AcDbEntity
  8
0
100
AcDbBlockEnd
  0
BLOCK
  5
425
330
424
100
AcDbEntity
  8
0
100
AcDbBlockBegin
  2
BLKF072
 70
     0
 71
     0
 10
0.0
 20
0.0
 30
0.0
  3
BLKF072
  1

  0
LINE
  5
428
330
424
100
AcDbEntity
  8
1-1
  6
細い実線
 62
     7
100
AcDbLine
 10
793.335576
 20
168.512085
 30
0.0
 11
786.668909
 21
168.512085
 31
0.0
  0
LINE
  5
429
330
424
100
AcDbEntity
  8
1-1
  6
細い実線
 62
     7
100
AcDbLine
 10
787.335576
 20
168.512085
 30
0.0
 11
787.335576
 21
172.344085
 31
0.0
  0
LINE
  5
42A
330
424
100
AcDbEntity
  8
1-1
  6
細い実線
 62
     7
100
AcDbLine
 10
787.680668
 20
171.056184
 30
0.0
 11
786.990484
 21
171.056184
 31
0.0
  0
LINE
  5
42B
330
424
100
AcDbEntity
  8
1-1
  6
細い実線
 62
     7
100
AcDbLine
 10
786.990484
 20
171.056184
 30
0.0
 11
787.335576
 21
172.344085
 31
0.0
  0
LINE
  5
42C
330
424
100
AcDbEntity
  8
1-1
  6
細い実線
 62
     7
100
AcDbLine
 10
787.335576
 20
172.344085
 30
0.0
 11
787.680668
 21
171.056184
 31
0.0
  0
LINE
  5
42D
330
424
100
AcDbEntity
  8
1-1
  6
細い実線
 62
     7
100
AcDbLine
 10
786.990484
 20
169.799986
 30
0.0
 11
787.680668
 21
169.799986
 31
0.0
  0
LINE
  5
42E
330
424
100
AcDbEntity
  8
1-1
  6
細い実線
 62
     7
100
AcDbLine
 10
787.680668
 20
169.799986
 30
0.0
 11
787.335576
 21
168.512085
 31
0.0
  0
LINE
  5
42F
330
424
100
AcDbEntity
  8
1-1
  6
細い実線
 62
     7
100
AcDbLine
 10
787.335576
 20
168.512085
 30
0.0
 11
786.990484
 21
169.799986
 31
0.0
  0
TEXT
  5
430
330
424
100
AcDbEntity
  8
1-1
  6
CONTINUOUS
 62
     7
100
AcDbText
 10
786.668945
 20
168.428092
 30
0.0
 40
2.0
  1
１１５
 50
90.0
 41
0.666667
  7
FX_VECTOR
 72
     5
 11
786.668945
 21
172.428092
 31
0.0
100
AcDbText
  0
ENDBLK
  5
426
330
424
100
AcDbEntity
  8
0
100
AcDbBlockEnd
  0
BLOCK
  5
432
330
431
100
AcDbEntity
  8
0
100
AcDbBlockBegin
  2
BLKF073
 70
     0
 71
     0
 10
0.0
 20
0.0
 30
0.0
  3
BLKF073
  1

  0
LINE
  5
435
330
431
100
AcDbEntity
  8
1-1
  6
細い実線
 62
     7
100
AcDbLine
 10
793.335576
 20
187.972545
 30
0.0
 11
790.002242
 21
187.972545
 31
0.0
  0
LINE
  5
436
330
431
100
AcDbEntity
  8
1-1
  6
細い実線
 62
     7
100
AcDbLine
 10
793.335576
 20
186.406499
 30
0.0
 11
790.002242
 21
186.406499
 31
0.0
  0
LINE
  5
437
330
431
100
AcDbEntity
  8
1-1
  6
細い実線
 62
     7
100
AcDbLine
 10
790.668909
 20
184.406499
 30
0.0
 11
790.668909
 21
189.972545
 31
0.0
  0
LINE
  5
438
330
431
100
AcDbEntity
  8
1-1
  6
細い実線
 62
     7
100
AcDbLine
 10
790.323817
 20
189.260446
 30
0.0
 11
791.014001
 21
189.260446
 31
0.0
  0
LINE
  5
439
330
431
100
AcDbEntity
  8
1-1
  6
細い実線
 62
     7
100
AcDbLine
 10
791.014001
 20
189.260446
 30
0.0
 11
790.668909
 21
187.972545
 31
0.0
  0
LINE
  5
43A
330
431
100
AcDbEntity
  8
1-1
  6
細い実線
 62
     7
100
AcDbLine
 10
790.668909
 20
187.972545
 30
0.0
 11
790.323817
 21
189.260446
 31
0.0
  0
LINE
  5
43B
330
431
100
AcDbEntity
  8
1-1
  6
細い実線
 62
     7
100
AcDbLine
 10
791.014001
 20
185.118598
 30
0.0
 11
790.323817
 21
185.118598
 31
0.0
  0
LINE
  5
43C
330
431
100
AcDbEntity
  8
1-1
  6
細い実線
 62
     7
100
AcDbLine
 10
790.323817
 20
185.118598
 30
0.0
 11
790.668909
 21
186.406499
 31
0.0
  0
LINE
  5
43D
330
431
100
AcDbEntity
  8
1-1
  6
細い実線
 62
     7
100
AcDbLine
 10
790.668909
 20
186.406499
 30
0.0
 11
791.014001
 21
185.118598
 31
0.0
  0
TEXT
  5
43E
330
431
100
AcDbEntity
  8
1-1
  6
CONTINUOUS
 62
     7
100
AcDbText
 10
790.076888
 20
188.244792
 30
0.0
 40
2.0
  1
４７
 50
90.0
 41
0.666667
  7
FX_VECTOR
 72
     5
 11
790.076888
 21
190.911458
 31
0.0
100
AcDbText
  0
ENDBLK
  5
433
330
431
100
AcDbEntity
  8
0
100
AcDbBlockEnd
  0
BLOCK
  5
440
330
43F
100
AcDbEntity
  8
0
100
AcDbBlockBegin
  2
BLKF074
 70
     0
 71
     0
 10
0.0
 20
0.0
 30
0.0
  3
BLKF074
  1

  0
LINE
  5
443
330
43F
100
AcDbEntity
  8
1-1
  6
細い実線
 62
     7
100
AcDbLine
 10
793.335576
 20
173.910131
 30
0.0
 11
790.002242
 21
173.910131
 31
0.0
  0
LINE
  5
444
330
43F
100
AcDbEntity
  8
1-1
  6
細い実線
 62
     7
100
AcDbLine
 10
790.668909
 20
173.910131
 30
0.0
 11
790.668909
 21
186.406499
 31
0.0
  0
LINE
  5
445
330
43F
100
AcDbEntity
  8
1-1
  6
細い実線
 62
     7
100
AcDbLine
 10
791.014001
 20
185.118598
 30
0.0
 11
790.323817
 21
185.118598
 31
0.0
  0
LINE
  5
446
330
43F
100
AcDbEntity
  8
1-1
  6
細い実線
 62
     7
100
AcDbLine
 10
790.323817
 20
185.118598
 30
0.0
 11
790.668909
 21
186.406499
 31
0.0
  0
LINE
  5
447
330
43F
100
AcDbEntity
  8
1-1
  6
細い実線
 62
     7
100
AcDbLine
 10
790.668909
 20
186.406499
 30
0.0
 11
791.014001
 21
185.118598
 31
0.0
  0
LINE
  5
448
330
43F
100
AcDbEntity
  8
1-1
  6
細い実線
 62
     7
100
AcDbLine
 10
790.323817
 20
175.198032
 30
0.0
 11
791.014001
 21
175.198032
 31
0.0
  0
LINE
  5
449
330
43F
100
AcDbEntity
  8
1-1
  6
細い実線
 62
     7
100
AcDbLine
 10
791.014001
 20
175.198032
 30
0.0
 11
790.668909
 21
173.910131
 31
0.0
  0
LINE
  5
44A
330
43F
100
AcDbEntity
  8
1-1
  6
細い実線
 62
     7
100
AcDbLine
 10
790.668909
 20
173.910131
 30
0.0
 11
790.323817
 21
175.198032
 31
0.0
  0
TEXT
  5
44B
330
43F
100
AcDbEntity
  8
1-1
  6
CONTINUOUS
 62
     7
100
AcDbText
 10
790.668945
 20
176.825
 30
0.0
 40
2.0
  1
３７４．９
 50
90.0
 41
0.666667
  7
FX_VECTOR
 72
     5
 11
790.668945
 21
183.491667
 31
0.0
100
AcDbText
  0
ENDBLK
  5
441
330
43F
100
AcDbEntity
  8
0
100
AcDbBlockEnd
  0
BLOCK
  5
44D
330
44C
100
AcDbEntity
  8
0
100
AcDbBlockBegin
  2
BLKF075
 70
     0
 71
     0
 10
0.0
 20
0.0
 30
0.0
  3
BLKF075
  1

  0
LINE
  5
450
330
44C
100
AcDbEntity
  8
1-1
  6
細い実線
 62
     7
100
AcDbLine
 10
793.335576
 20
172.344085
 30
0.0
 11
790.002242
 21
172.344085
 31
0.0
  0
LINE
  5
451
330
44C
100
AcDbEntity
  8
1-1
  6
細い実線
 62
     7
100
AcDbLine
 10
790.668909
 20
170.344085
 30
0.0
 11
790.668909
 21
175.910131
 31
0.0
  0
LINE
  5
452
330
44C
100
AcDbEntity
  8
1-1
  6
細い実線
 62
     7
100
AcDbLine
 10
790.323817
 20
175.198032
 30
0.0
 11
791.014001
 21
175.198032
 31
0.0
  0
LINE
  5
453
330
44C
100
AcDbEntity
  8
1-1
  6
細い実線
 62
     7
100
AcDbLine
 10
791.014001
 20
175.198032
 30
0.0
 11
790.668909
 21
173.910131
 31
0.0
  0
LINE
  5
454
330
44C
100
AcDbEntity
  8
1-1
  6
細い実線
 62
     7
100
AcDbLine
 10
790.668909
 20
173.910131
 30
0.0
 11
790.323817
 21
175.198032
 31
0.0
  0
LINE
  5
455
330
44C
100
AcDbEntity
  8
1-1
  6
細い実線
 62
     7
100
AcDbLine
 10
791.014001
 20
171.056184
 30
0.0
 11
790.323817
 21
171.056184
 31
0.0
  0
LINE
  5
456
330
44C
100
AcDbEntity
  8
1-1
  6
細い実線
 62
     7
100
AcDbLine
 10
790.323817
 20
171.056184
 30
0.0
 11
790.668909
 21
172.344085
 31
0.0
  0
LINE
  5
457
330
44C
100
AcDbEntity
  8
1-1
  6
細い実線
 62
     7
100
AcDbLine
 10
790.668909
 20
172.344085
 30
0.0
 11
791.014001
 21
171.056184
 31
0.0
  0
TEXT
  5
458
330
44C
100
AcDbEntity
  8
1-1
  6
CONTINUOUS
 62
     7
100
AcDbText
 10
790.375521
 20
169.55446
 30
0.0
 40
2.0
  1
４７
 50
90.0
 41
0.666667
  7
FX_VECTOR
 72
     5
 11
790.375521
 21
172.221126
 31
0.0
100
AcDbText
  0
ENDBLK
  5
44E
330
44C
100
AcDbEntity
  8
0
100
AcDbBlockEnd
  0
BLOCK
  5
4A7
330
4A6
100
AcDbEntity
  8
0
100
AcDbBlockBegin
  2
BLKF076
 70
     0
 71
     0
 10
0.0
 20
0.0
 30
0.0
  3
BLKF076
  1

  0
LINE
  5
4AA
330
4A6
100
AcDbEntity
  8
1-1
  6
細い実線
 62
     7
100
AcDbLine
 10
830.511957
 20
128.52703
 30
0.0
 11
830.511957
 21
143.52703
 31
0.0
  0
LINE
  5
4AB
330
4A6
100
AcDbEntity
  8
1-1
  6
細い実線
 62
     7
100
AcDbLine
 10
846.140417
 20
128.52703
 30
0.0
 11
846.140417
 21
143.52703
 31
0.0
  0
LINE
  5
4AC
330
4A6
100
AcDbEntity
  8
1-1
  6
細い実線
 62
     7
100
AcDbLine
 10
846.140417
 20
142.860363
 30
0.0
 11
830.511957
 21
142.860363
 31
0.0
  0
LINE
  5
4AD
330
4A6
100
AcDbEntity
  8
1-1
  6
細い実線
 62
     7
100
AcDbLine
 10
831.799858
 20
143.205455
 30
0.0
 11
831.799858
 21
142.515271
 31
0.0
  0
LINE
  5
4AE
330
4A6
100
AcDbEntity
  8
1-1
  6
細い実線
 62
     7
100
AcDbLine
 10
831.799858
 20
142.515271
 30
0.0
 11
830.511957
 21
142.860363
 31
0.0
  0
LINE
  5
4AF
330
4A6
100
AcDbEntity
  8
1-1
  6
細い実線
 62
     7
100
AcDbLine
 10
830.511957
 20
142.860363
 30
0.0
 11
831.799858
 21
143.205455
 31
0.0
  0
LINE
  5
4B0
330
4A6
100
AcDbEntity
  8
1-1
  6
細い実線
 62
     7
100
AcDbLine
 10
844.852516
 20
142.515271
 30
0.0
 11
844.852516
 21
143.205455
 31
0.0
  0
LINE
  5
4B1
330
4A6
100
AcDbEntity
  8
1-1
  6
細い実線
 62
     7
100
AcDbLine
 10
844.852516
 20
143.205455
 30
0.0
 11
846.140417
 21
142.860363
 31
0.0
  0
LINE
  5
4B2
330
4A6
100
AcDbEntity
  8
1-1
  6
細い実線
 62
     7
100
AcDbLine
 10
846.140417
 20
142.860363
 30
0.0
 11
844.852516
 21
142.515271
 31
0.0
  0
TEXT
  5
4B3
330
4A6
100
AcDbEntity
  8
1-1
  6
CONTINUOUS
 62
     7
100
AcDbText
 10
834.992904
 20
142.860368
 30
0.0
 40
2.0
  1
４６８．９
 41
0.666667
  7
FX_VECTOR
 72
     5
 11
841.65957
 21
142.860368
 31
0.0
100
AcDbText
  0
ENDBLK
  5
4A8
330
4A6
100
AcDbEntity
  8
0
100
AcDbBlockEnd
  0
BLOCK
  5
4B5
330
4B4
100
AcDbEntity
  8
0
100
AcDbBlockBegin
  2
BLKF077
 70
     0
 71
     0
 10
0.0
 20
0.0
 30
0.0
  3
BLKF077
  1

  0
LINE
  5
4B8
330
4B4
100
AcDbEntity
  8
1-1
  6
細い実線
 62
     7
100
AcDbLine
 10
826.488392
 20
114.555145
 30
0.0
 11
823.614913
 21
104.976883
 31
0.0
  0
LINE
  5
4B9
330
4B4
100
AcDbEntity
  8
1-1
  6
細い実線
 62
     7
100
AcDbLine
 10
828.72332
 20
113.884667
 30
0.0
 11
825.849841
 21
104.306404
 31
0.0
  0
LINE
  5
4BA
330
4B4
100
AcDbEntity
  8
1-1
  6
細い実線
 62
     7
100
AcDbLine
 10
827.957059
 20
104.370259
 30
0.0
 11
821.890826
 21
106.190129
 31
0.0
  0
LINE
  5
4BB
330
4B4
100
AcDbEntity
  8
1-1
  6
細い実線
 62
     7
100
AcDbLine
 10
822.473731
 20
105.654971
 30
0.0
 11
822.672054
 21
106.316047
 31
0.0
  0
LINE
  5
4BC
330
4B4
100
AcDbEntity
  8
1-1
  6
細い実線
 62
     7
100
AcDbLine
 10
822.672054
 20
106.316047
 30
0.0
 11
823.806478
 21
105.615433
 31
0.0
  0
LINE
  5
4BD
330
4B4
100
AcDbEntity
  8
1-1
  6
細い実線
 62
     7
100
AcDbLine
 10
823.806478
 20
105.615433
 30
0.0
 11
822.473731
 21
105.654971
 31
0.0
  0
LINE
  5
4BE
330
4B4
100
AcDbEntity
  8
1-1
  6
細い実線
 62
     7
100
AcDbLine
 10
827.374153
 20
104.905418
 30
0.0
 11
827.17583
 21
104.244341
 31
0.0
  0
LINE
  5
4BF
330
4B4
100
AcDbEntity
  8
1-1
  6
細い実線
 62
     7
100
AcDbLine
 10
827.17583
 20
104.244341
 30
0.0
 11
826.041406
 21
104.944955
 31
0.0
  0
LINE
  5
4C0
330
4B4
100
AcDbEntity
  8
1-1
  6
細い実線
 62
     7
100
AcDbLine
 10
826.041406
 20
104.944955
 30
0.0
 11
827.374153
 21
104.905418
 31
0.0
  0
TEXT
  5
4C1
330
4B4
100
AcDbEntity
  8
1-1
  6
CONTINUOUS
 62
     7
100
AcDbText
 10
822.880599
 20
103.109115
 30
0.0
 40
2.0
  1
７０
 50
343.300751
 41
0.666667
  7
FX_VECTOR
 72
     5
 11
825.434802
 21
102.342853
 31
0.0
100
AcDbText
  0
ENDBLK
  5
4B6
330
4B4
100
AcDbEntity
  8
0
100
AcDbBlockEnd
  0
BLOCK
  5
4C3
330
4C2
100
AcDbEntity
  8
0
100
AcDbBlockBegin
  2
BLKF078
 70
     0
 71
     0
 10
0.0
 20
0.0
 30
0.0
  3
BLKF078
  1

  0
LINE
  5
4C6
330
4C2
100
AcDbEntity
  8
1-1
  6
細い実線
 62
     7
100
AcDbLine
 10
838.620858
 20
110.915405
 30
0.0
 11
835.747379
 21
101.337143
 31
0.0
  0
LINE
  5
4C7
330
4C2
100
AcDbEntity
  8
1-1
  6
細い実線
 62
     7
100
AcDbLine
 10
835.938944
 20
101.975693
 30
0.0
 11
826.041406
 21
104.944955
 31
0.0
  0
LINE
  5
4C8
330
4C2
100
AcDbEntity
  8
1-1
  6
細い実線
 62
     7
100
AcDbLine
 10
827.374153
 20
104.905418
 30
0.0
 11
827.17583
 21
104.244341
 31
0.0
  0
LINE
  5
4C9
330
4C2
100
AcDbEntity
  8
1-1
  6
細い実線
 62
     7
100
AcDbLine
 10
827.17583
 20
104.244341
 30
0.0
 11
826.041406
 21
104.944955
 31
0.0
  0
LINE
  5
4CA
330
4C2
100
AcDbEntity
  8
1-1
  6
細い実線
 62
     7
100
AcDbLine
 10
826.041406
 20
104.944955
 30
0.0
 11
827.374153
 21
104.905418
 31
0.0
  0
LINE
  5
4CB
330
4C2
100
AcDbEntity
  8
1-1
  6
細い実線
 62
     7
100
AcDbLine
 10
834.606197
 20
102.015231
 30
0.0
 11
834.80452
 21
102.676307
 31
0.0
  0
LINE
  5
4CC
330
4C2
100
AcDbEntity
  8
1-1
  6
細い実線
 62
     7
100
AcDbLine
 10
834.80452
 20
102.676307
 30
0.0
 11
835.938944
 21
101.975693
 31
0.0
  0
LINE
  5
4CD
330
4C2
100
AcDbEntity
  8
1-1
  6
細い実線
 62
     7
100
AcDbLine
 10
835.938944
 20
101.975693
 30
0.0
 11
834.606197
 21
102.015231
 31
0.0
  0
TEXT
  5
4CE
330
4C2
100
AcDbEntity
  8
1-1
  6
CONTINUOUS
 62
     7
100
AcDbText
 10
829.074544
 20
104.03501
 30
0.0
 40
2.0
  1
３１０
 50
343.300751
 41
0.666667
  7
FX_VECTOR
 72
     5
 11
832.905849
 21
102.885618
 31
0.0
100
AcDbText
  0
ENDBLK
  5
4C4
330
4C2
100
AcDbEntity
  8
0
100
AcDbBlockEnd
  0
BLOCK
  5
4D0
330
4CF
100
AcDbEntity
  8
0
100
AcDbBlockBegin
  2
BLKF079
 70
     0
 71
     0
 10
0.0
 20
0.0
 30
0.0
  3
BLKF079
  1

  0
LINE
  5
4D3
330
4CF
100
AcDbEntity
  8
1-1
  6
細い実線
 62
     7
100
AcDbLine
 10
840.855786
 20
110.244927
 30
0.0
 11
837.982307
 21
100.666664
 31
0.0
  0
LINE
  5
4D4
330
4CF
100
AcDbEntity
  8
1-1
  6
細い実線
 62
     7
100
AcDbLine
 10
840.089525
 20
100.730519
 30
0.0
 11
834.023292
 21
102.550389
 31
0.0
  0
LINE
  5
4D5
330
4CF
100
AcDbEntity
  8
1-1
  6
細い実線
 62
     7
100
AcDbLine
 10
834.606197
 20
102.015231
 30
0.0
 11
834.80452
 21
102.676307
 31
0.0
  0
LINE
  5
4D6
330
4CF
100
AcDbEntity
  8
1-1
  6
細い実線
 62
     7
100
AcDbLine
 10
834.80452
 20
102.676307
 30
0.0
 11
835.938944
 21
101.975693
 31
0.0
  0
LINE
  5
4D7
330
4CF
100
AcDbEntity
  8
1-1
  6
細い実線
 62
     7
100
AcDbLine
 10
835.938944
 20
101.975693
 30
0.0
 11
834.606197
 21
102.015231
 31
0.0
  0
LINE
  5
4D8
330
4CF
100
AcDbEntity
  8
1-1
  6
細い実線
 62
     7
100
AcDbLine
 10
839.506619
 20
101.265678
 30
0.0
 11
839.308297
 21
100.604601
 31
0.0
  0
LINE
  5
4D9
330
4CF
100
AcDbEntity
  8
1-1
  6
細い実線
 62
     7
100
AcDbLine
 10
839.308297
 20
100.604601
 30
0.0
 11
838.173872
 21
101.305215
 31
0.0
  0
LINE
  5
4DA
330
4CF
100
AcDbEntity
  8
1-1
  6
細い実線
 62
     7
100
AcDbLine
 10
838.173872
 20
101.305215
 30
0.0
 11
839.506619
 21
101.265678
 31
0.0
  0
TEXT
  5
4DB
330
4CF
100
AcDbEntity
  8
1-1
  6
CONTINUOUS
 62
     7
100
AcDbText
 10
835.013086
 20
99.469385
 30
0.0
 40
2.0
  1
７０
 50
343.300751
 41
0.666667
  7
FX_VECTOR
 72
     5
 11
837.567289
 21
98.703124
 31
0.0
100
AcDbText
  0
ENDBLK
  5
4D1
330
4CF
100
AcDbEntity
  8
0
100
AcDbBlockEnd
  0
BLOCK
  5
4DD
330
4DC
100
AcDbEntity
  8
0
100
AcDbBlockBegin
  2
BLKF080
 70
     0
 71
     0
 10
0.0
 20
0.0
 30
0.0
  3
BLKF080
  1

  0
LINE
  5
4E0
330
4DC
100
AcDbEntity
  8
1-1
  6
細い実線
 62
     7
100
AcDbLine
 10
826.488392
 20
114.555145
 30
0.0
 11
822.657087
 21
101.784128
 31
0.0
  0
LINE
  5
4E1
330
4DC
100
AcDbEntity
  8
1-1
  6
細い実線
 62
     7
100
AcDbLine
 10
840.855786
 20
110.244927
 30
0.0
 11
837.024481
 21
97.47391
 31
0.0
  0
LINE
  5
4E2
330
4DC
100
AcDbEntity
  8
1-1
  6
細い実線
 62
     7
100
AcDbLine
 10
837.216046
 20
98.112461
 30
0.0
 11
822.848652
 21
102.422679
 31
0.0
  0
LINE
  5
4E3
330
4DC
100
AcDbEntity
  8
1-1
  6
細い実線
 62
     7
100
AcDbLine
 10
824.181399
 20
102.383142
 30
0.0
 11
823.983076
 21
101.722065
 31
0.0
  0
LINE
  5
4E4
330
4DC
100
AcDbEntity
  8
1-1
  6
細い実線
 62
     7
100
AcDbLine
 10
823.983076
 20
101.722065
 30
0.0
 11
822.848652
 21
102.422679
 31
0.0
  0
LINE
  5
4E5
330
4DC
100
AcDbEntity
  8
1-1
  6
細い実線
 62
     7
100
AcDbLine
 10
822.848652
 20
102.422679
 30
0.0
 11
824.181399
 21
102.383142
 31
0.0
  0
LINE
  5
4E6
330
4DC
100
AcDbEntity
  8
1-1
  6
細い実線
 62
     7
100
AcDbLine
 10
835.883299
 20
98.151998
 30
0.0
 11
836.081622
 21
98.813075
 31
0.0
  0
LINE
  5
4E7
330
4DC
100
AcDbEntity
  8
1-1
  6
細い実線
 62
     7
100
AcDbLine
 10
836.081622
 20
98.813075
 30
0.0
 11
837.216046
 21
98.112461
 31
0.0
  0
LINE
  5
4E8
330
4DC
100
AcDbEntity
  8
1-1
  6
細い実線
 62
     7
100
AcDbLine
 10
837.216046
 20
98.112461
 30
0.0
 11
835.883299
 21
98.151998
 31
0.0
  0
TEXT
  5
4E9
330
4DC
100
AcDbEntity
  8
1-1
  6
CONTINUOUS
 62
     7
100
AcDbText
 10
828.116732
 20
100.842269
 30
0.0
 40
2.0
  1
４５０
 50
343.300751
 41
0.666667
  7
FX_VECTOR
 72
     5
 11
831.948037
 21
99.692877
 31
0.0
100
AcDbText
  0
ENDBLK
  5
4DE
330
4DC
100
AcDbEntity
  8
0
100
AcDbBlockEnd
  0
BLOCK
  5
4EB
330
4EA
100
AcDbEntity
  8
0
100
AcDbBlockBegin
  2
BLKF081
 70
     0
 71
     0
 10
0.0
 20
0.0
 30
0.0
  3
BLKF081
  1

  0
LINE
  5
4EE
330
4EA
100
AcDbEntity
  8
1-1
  6
細い実線
 62
     7
100
AcDbLine
 10
842.978968
 20
115.002131
 30
0.0
 11
849.364476
 21
113.086478
 31
0.0
  0
LINE
  5
4EF
330
4EA
100
AcDbEntity
  8
1-1
  6
細い実線
 62
     7
100
AcDbLine
 10
843.541212
 20
116.876278
 30
0.0
 11
849.92672
 21
114.960625
 31
0.0
  0
LINE
  5
4F0
330
4EA
100
AcDbEntity
  8
1-1
  6
細い実線
 62
     7
100
AcDbLine
 10
849.862865
 20
117.067843
 30
0.0
 11
848.15123
 21
111.362391
 31
0.0
  0
LINE
  5
4F1
330
4EA
100
AcDbEntity
  8
1-1
  6
細い実線
 62
     7
100
AcDbLine
 10
848.686388
 20
111.945297
 30
0.0
 11
848.025312
 21
112.14362
 31
0.0
  0
LINE
  5
4F2
330
4EA
100
AcDbEntity
  8
1-1
  6
細い実線
 62
     7
100
AcDbLine
 10
848.025312
 20
112.14362
 30
0.0
 11
848.725925
 21
113.278044
 31
0.0
  0
LINE
  5
4F3
330
4EA
100
AcDbEntity
  8
1-1
  6
細い実線
 62
     7
100
AcDbLine
 10
848.725925
 20
113.278044
 30
0.0
 11
848.686388
 21
111.945297
 31
0.0
  0
LINE
  5
4F4
330
4EA
100
AcDbEntity
  8
1-1
  6
細い実線
 62
     7
100
AcDbLine
 10
849.327707
 20
116.484937
 30
0.0
 11
849.988783
 21
116.286614
 31
0.0
  0
LINE
  5
4F5
330
4EA
100
AcDbEntity
  8
1-1
  6
細い実線
 62
     7
100
AcDbLine
 10
849.988783
 20
116.286614
 30
0.0
 11
849.288169
 21
115.15219
 31
0.0
  0
LINE
  5
4F6
330
4EA
100
AcDbEntity
  8
1-1
  6
細い実線
 62
     7
100
AcDbLine
 10
849.288169
 20
115.15219
 30
0.0
 11
849.327707
 21
116.484937
 31
0.0
  0
TEXT
  5
4F7
330
4EA
100
AcDbEntity
  8
1-1
  6
CONTINUOUS
 62
     7
100
AcDbText
 10
850.715169
 20
109.536898
 30
0.0
 40
2.0
  1
５８．７
 50
73.300758
 41
0.666667
  7
FX_VECTOR
 72
     5
 11
852.247691
 21
114.645305
 31
0.0
100
AcDbText
  0
ENDBLK
  5
4EC
330
4EA
100
AcDbEntity
  8
0
100
AcDbBlockEnd
  0
BLOCK
  5
4F9
330
4F8
100
AcDbEntity
  8
0
100
AcDbBlockBegin
  2
BLKF082
 70
     0
 71
     0
 10
0.0
 20
0.0
 30
0.0
  3
BLKF082
  1

  0
LINE
  5
4FC
330
4F8
100
AcDbEntity
  8
1-1
  6
細い実線
 62
     7
100
AcDbLine
 10
844.977951
 20
121.665409
 30
0.0
 11
851.36346
 21
119.749757
 31
0.0
  0
LINE
  5
4FD
330
4F8
100
AcDbEntity
  8
1-1
  6
細い実線
 62
     7
100
AcDbLine
 10
850.724909
 20
119.941322
 30
0.0
 11
849.288169
 21
115.15219
 31
0.0
  0
LINE
  5
4FE
330
4F8
100
AcDbEntity
  8
1-1
  6
細い実線
 62
     7
100
AcDbLine
 10
849.327707
 20
116.484937
 30
0.0
 11
849.988783
 21
116.286614
 31
0.0
  0
LINE
  5
4FF
330
4F8
100
AcDbEntity
  8
1-1
  6
細い実線
 62
     7
100
AcDbLine
 10
849.988783
 20
116.286614
 30
0.0
 11
849.288169
 21
115.15219
 31
0.0
  0
LINE
  5
500
330
4F8
100
AcDbEntity
  8
1-1
  6
細い実線
 62
     7
100
AcDbLine
 10
849.288169
 20
115.15219
 30
0.0
 11
849.327707
 21
116.484937
 31
0.0
  0
LINE
  5
501
330
4F8
100
AcDbEntity
  8
1-1
  6
細い実線
 62
     7
100
AcDbLine
 10
850.685371
 20
118.608575
 30
0.0
 11
850.024295
 21
118.806898
 31
0.0
  0
LINE
  5
502
330
4F8
100
AcDbEntity
  8
1-1
  6
細い実線
 62
     7
100
AcDbLine
 10
850.024295
 20
118.806898
 30
0.0
 11
850.724909
 21
119.941322
 31
0.0
  0
LINE
  5
503
330
4F8
100
AcDbEntity
  8
1-1
  6
細い実線
 62
     7
100
AcDbLine
 10
850.724909
 20
119.941322
 30
0.0
 11
850.685371
 21
118.608575
 31
0.0
  0
TEXT
  5
504
330
4F8
100
AcDbEntity
  8
1-1
  6
CONTINUOUS
 62
     7
100
AcDbText
 10
849.431901
 20
115.631104
 30
0.0
 40
2.0
  1
１５０
 50
73.300758
 41
0.666667
  7
FX_VECTOR
 72
     5
 11
850.581292
 21
119.462409
 31
0.0
100
AcDbText
  0
ENDBLK
  5
4FA
330
4F8
100
AcDbEntity
  8
0
100
AcDbBlockEnd
  0
BLOCK
  5
506
330
505
100
AcDbEntity
  8
0
100
AcDbBlockBegin
  2
BLKF083
 70
     0
 71
     0
 10
0.0
 20
0.0
 30
0.0
  3
BLKF083
  1

  0
LINE
  5
509
330
505
100
AcDbEntity
  8
1-1
  6
細い実線
 62
     7
100
AcDbLine
 10
826.488392
 20
114.555145
 30
0.0
 11
824.572739
 21
108.169637
 31
0.0
  0
LINE
  5
50A
330
505
100
AcDbEntity
  8
1-1
  6
細い実線
 62
     7
100
AcDbLine
 10
827.765494
 20
114.172015
 30
0.0
 11
825.849841
 21
107.786506
 31
0.0
  0
LINE
  5
50B
330
505
100
AcDbEntity
  8
1-1
  6
細い実線
 62
     7
100
AcDbLine
 10
827.957059
 20
107.850361
 30
0.0
 11
822.848652
 21
109.382883
 31
0.0
  0
LINE
  5
50C
330
505
100
AcDbEntity
  8
1-1
  6
細い実線
 62
     7
100
AcDbLine
 10
823.431558
 20
108.847725
 30
0.0
 11
823.62988
 21
109.508802
 31
0.0
  0
LINE
  5
50D
330
505
100
AcDbEntity
  8
1-1
  6
細い実線
 62
     7
100
AcDbLine
 10
823.62988
 20
109.508802
 30
0.0
 11
824.764305
 21
108.808188
 31
0.0
  0
LINE
  5
50E
330
505
100
AcDbEntity
  8
1-1
  6
細い実線
 62
     7
100
AcDbLine
 10
824.764305
 20
108.808188
 30
0.0
 11
823.431558
 21
108.847725
 31
0.0
  0
LINE
  5
50F
330
505
100
AcDbEntity
  8
1-1
  6
細い実線
 62
     7
100
AcDbLine
 10
827.374153
 20
108.38552
 30
0.0
 11
827.17583
 21
107.724443
 31
0.0
  0
LINE
  5
510
330
505
100
AcDbEntity
  8
1-1
  6
細い実線
 62
     7
100
AcDbLine
 10
827.17583
 20
107.724443
 30
0.0
 11
826.041406
 21
108.425057
 31
0.0
  0
LINE
  5
511
330
505
100
AcDbEntity
  8
1-1
  6
細い実線
 62
     7
100
AcDbLine
 10
826.041406
 20
108.425057
 30
0.0
 11
827.374153
 21
108.38552
 31
0.0
  0
TEXT
  5
512
330
505
100
AcDbEntity
  8
1-1
  6
CONTINUOUS
 62
     7
100
AcDbText
 10
823.35957
 20
106.44554
 30
0.0
 40
2.0
  1
４０
 50
343.300751
 41
0.666667
  7
FX_VECTOR
 72
     5
 11
825.913774
 21
105.679279
 31
0.0
100
AcDbText
  0
ENDBLK
  5
507
330
505
100
AcDbEntity
  8
0
100
AcDbBlockEnd
  0
BLOCK
  5
514
330
513
100
AcDbEntity
  8
0
100
AcDbBlockBegin
  2
BLKF084
 70
     0
 71
     0
 10
0.0
 20
0.0
 30
0.0
  3
BLKF084
  1

  0
LINE
  5
517
330
513
100
AcDbEntity
  8
1-1
  6
細い実線
 62
     7
100
AcDbLine
 10
839.578684
 20
110.628058
 30
0.0
 11
837.663032
 21
104.242549
 31
0.0
  0
LINE
  5
518
330
513
100
AcDbEntity
  8
1-1
  6
細い実線
 62
     7
100
AcDbLine
 10
840.855786
 20
110.244927
 30
0.0
 11
838.940134
 21
103.859419
 31
0.0
  0
LINE
  5
519
330
513
100
AcDbEntity
  8
1-1
  6
細い実線
 62
     7
100
AcDbLine
 10
841.047351
 20
103.923274
 30
0.0
 11
835.938944
 21
105.455796
 31
0.0
  0
LINE
  5
51A
330
513
100
AcDbEntity
  8
1-1
  6
細い実線
 62
     7
100
AcDbLine
 10
836.52185
 20
104.920637
 30
0.0
 11
836.720173
 21
105.581714
 31
0.0
  0
LINE
  5
51B
330
513
100
AcDbEntity
  8
1-1
  6
細い実線
 62
     7
100
AcDbLine
 10
836.720173
 20
105.581714
 30
0.0
 11
837.854597
 21
104.8811
 31
0.0
  0
LINE
  5
51C
330
513
100
AcDbEntity
  8
1-1
  6
細い実線
 62
     7
100
AcDbLine
 10
837.854597
 20
104.8811
 30
0.0
 11
836.52185
 21
104.920637
 31
0.0
  0
LINE
  5
51D
330
513
100
AcDbEntity
  8
1-1
  6
細い実線
 62
     7
100
AcDbLine
 10
840.464446
 20
104.458432
 30
0.0
 11
840.266123
 21
103.797355
 31
0.0
  0
LINE
  5
51E
330
513
100
AcDbEntity
  8
1-1
  6
細い実線
 62
     7
100
AcDbLine
 10
840.266123
 20
103.797355
 30
0.0
 11
839.131699
 21
104.497969
 31
0.0
  0
LINE
  5
51F
330
513
100
AcDbEntity
  8
1-1
  6
細い実線
 62
     7
100
AcDbLine
 10
839.131699
 20
104.497969
 30
0.0
 11
840.464446
 21
104.458432
 31
0.0
  0
TEXT
  5
520
330
513
100
AcDbEntity
  8
1-1
  6
CONTINUOUS
 62
     7
100
AcDbText
 10
836.449805
 20
102.518457
 30
0.0
 40
2.0
  1
４０
 50
343.300751
 41
0.666667
  7
FX_VECTOR
 72
     5
 11
839.004008
 21
101.752196
 31
0.0
100
AcDbText
  0
ENDBLK
  5
515
330
513
100
AcDbEntity
  8
0
100
AcDbBlockEnd
  0
BLOCK
  5
522
330
521
100
AcDbEntity
  8
0
100
AcDbBlockBegin
  2
BLKF085
 70
     0
 71
     0
 10
0.0
 20
0.0
 30
0.0
  3
BLKF085
  1

  0
LINE
  5
525
330
521
100
AcDbEntity
  8
1-1
  6
細い実線
 62
     7
100
AcDbLine
 10
830.479335
 20
113.357862
 30
0.0
 11
829.521508
 21
110.165108
 31
0.0
  0
LINE
  5
526
330
521
100
AcDbEntity
  8
1-1
  6
細い実線
 62
     7
100
AcDbLine
 10
836.864843
 20
111.44221
 30
0.0
 11
835.907017
 21
108.249456
 31
0.0
  0
LINE
  5
527
330
521
100
AcDbEntity
  8
1-1
  6
細い実線
 62
     7
100
AcDbLine
 10
836.098582
 20
108.888006
 30
0.0
 11
829.713074
 21
110.803659
 31
0.0
  0
LINE
  5
528
330
521
100
AcDbEntity
  8
1-1
  6
細い実線
 62
     7
100
AcDbLine
 10
831.045821
 20
110.764122
 30
0.0
 11
830.847498
 21
110.103045
 31
0.0
  0
LINE
  5
529
330
521
100
AcDbEntity
  8
1-1
  6
細い実線
 62
     7
100
AcDbLine
 10
830.847498
 20
110.103045
 30
0.0
 11
829.713074
 21
110.803659
 31
0.0
  0
LINE
  5
52A
330
521
100
AcDbEntity
  8
1-1
  6
細い実線
 62
     7
100
AcDbLine
 10
829.713074
 20
110.803659
 30
0.0
 11
831.045821
 21
110.764122
 31
0.0
  0
LINE
  5
52B
330
521
100
AcDbEntity
  8
1-1
  6
細い実線
 62
     7
100
AcDbLine
 10
834.765835
 20
108.927544
 30
0.0
 11
834.964158
 21
109.58862
 31
0.0
  0
LINE
  5
52C
330
521
100
AcDbEntity
  8
1-1
  6
細い実線
 62
     7
100
AcDbLine
 10
834.964158
 20
109.58862
 30
0.0
 11
836.098582
 21
108.888006
 31
0.0
  0
LINE
  5
52D
330
521
100
AcDbEntity
  8
1-1
  6
細い実線
 62
     7
100
AcDbLine
 10
836.098582
 20
108.888006
 30
0.0
 11
834.765835
 21
108.927544
 31
0.0
  0
TEXT
  5
52E
330
521
100
AcDbEntity
  8
1-1
  6
CONTINUOUS
 62
     7
100
AcDbText
 10
830.990234
 20
110.420524
 30
0.0
 40
2.0
  1
２００
 50
343.300751
 41
0.666667
  7
FX_VECTOR
 72
     5
 11
834.821539
 21
109.271132
 31
0.0
100
AcDbText
  0
ENDBLK
  5
523
330
521
100
AcDbEntity
  8
0
100
AcDbBlockEnd
  0
BLOCK
  5
533
330
532
100
AcDbEntity
  8
0
100
AcDbBlockBegin
  2
BLKF086
 70
     0
 71
     0
 10
0.0
 20
0.0
 30
0.0
  3
BLKF086
  1

  0
LINE
  5
536
330
532
100
AcDbEntity
  8
1-1
  6
細い実線
 62
     7
100
AcDbLine
 10
833.819139
 20
133.52703
 30
0.0
 11
833.819139
 21
136.860363
 31
0.0
  0
LINE
  5
537
330
532
100
AcDbEntity
  8
1-1
  6
細い実線
 62
     7
100
AcDbLine
 10
838.216068
 20
131.860363
 30
0.0
 11
838.216068
 21
136.860363
 31
0.0
  0
LINE
  5
538
330
532
100
AcDbEntity
  8
1-1
  6
細い実線
 62
     7
100
AcDbLine
 10
838.216068
 20
136.193696
 30
0.0
 11
833.819139
 21
136.193696
 31
0.0
  0
LINE
  5
539
330
532
100
AcDbEntity
  8
1-1
  6
細い実線
 62
     7
100
AcDbLine
 10
835.10704
 20
136.538788
 30
0.0
 11
835.10704
 21
135.848604
 31
0.0
  0
LINE
  5
53A
330
532
100
AcDbEntity
  8
1-1
  6
細い実線
 62
     7
100
AcDbLine
 10
835.10704
 20
135.848604
 30
0.0
 11
833.819139
 21
136.193696
 31
0.0
  0
LINE
  5
53B
330
532
100
AcDbEntity
  8
1-1
  6
細い実線
 62
     7
100
AcDbLine
 10
833.819139
 20
136.193696
 30
0.0
 11
835.10704
 21
136.538788
 31
0.0
  0
LINE
  5
53C
330
532
100
AcDbEntity
  8
1-1
  6
細い実線
 62
     7
100
AcDbLine
 10
836.928167
 20
135.848604
 30
0.0
 11
836.928167
 21
136.538788
 31
0.0
  0
LINE
  5
53D
330
532
100
AcDbEntity
  8
1-1
  6
細い実線
 62
     7
100
AcDbLine
 10
836.928167
 20
136.538788
 30
0.0
 11
838.216068
 21
136.193696
 31
0.0
  0
LINE
  5
53E
330
532
100
AcDbEntity
  8
1-1
  6
細い実線
 62
     7
100
AcDbLine
 10
838.216068
 20
136.193696
 30
0.0
 11
836.928167
 21
135.848604
 31
0.0
  0
TEXT
  5
53F
330
532
100
AcDbEntity
  8
1-1
  6
CONTINUOUS
 62
     7
100
AcDbText
 10
832.68431
 20
136.860335
 30
0.0
 40
2.0
  1
１３１．９
 41
0.666667
  7
FX_VECTOR
 72
     5
 11
839.350977
 21
136.860335
 31
0.0
100
AcDbText
  0
ENDBLK
  5
534
330
532
100
AcDbEntity
  8
0
100
AcDbBlockEnd
  0
BLOCK
  5
548
330
547
100
AcDbEntity
  8
0
100
AcDbBlockBegin
  2
BLKF087
 70
     0
 71
     0
 10
0.0
 20
0.0
 30
0.0
  3
BLKF087
  1

  0
LINE
  5
54B
330
547
100
AcDbEntity
  8
1-1
  6
細い実線
 62
     7
100
AcDbLine
 10
826.01329
 20
115.193696
 30
0.0
 11
816.01329
 21
115.193696
 31
0.0
  0
LINE
  5
54C
330
547
100
AcDbEntity
  8
1-1
  6
細い実線
 62
     7
100
AcDbLine
 10
828.01329
 20
121.860363
 30
0.0
 11
816.01329
 21
121.860363
 31
0.0
  0
LINE
  5
54D
330
547
100
AcDbEntity
  8
1-1
  6
細い実線
 62
     7
100
AcDbLine
 10
816.679957
 20
121.860363
 30
0.0
 11
816.679957
 21
115.193696
 31
0.0
  0
LINE
  5
54E
330
547
100
AcDbEntity
  8
1-1
  6
細い実線
 62
     7
100
AcDbLine
 10
816.334865
 20
116.481597
 30
0.0
 11
817.025049
 21
116.481597
 31
0.0
  0
LINE
  5
54F
330
547
100
AcDbEntity
  8
1-1
  6
細い実線
 62
     7
100
AcDbLine
 10
817.025049
 20
116.481597
 30
0.0
 11
816.679957
 21
115.193696
 31
0.0
  0
LINE
  5
550
330
547
100
AcDbEntity
  8
1-1
  6
細い実線
 62
     7
100
AcDbLine
 10
816.679957
 20
115.193696
 30
0.0
 11
816.334865
 21
116.481597
 31
0.0
  0
LINE
  5
551
330
547
100
AcDbEntity
  8
1-1
  6
細い実線
 62
     7
100
AcDbLine
 10
817.025049
 20
120.572462
 30
0.0
 11
816.334865
 21
120.572462
 31
0.0
  0
LINE
  5
552
330
547
100
AcDbEntity
  8
1-1
  6
細い実線
 62
     7
100
AcDbLine
 10
816.334865
 20
120.572462
 30
0.0
 11
816.679957
 21
121.860363
 31
0.0
  0
LINE
  5
553
330
547
100
AcDbEntity
  8
1-1
  6
細い実線
 62
     7
100
AcDbLine
 10
816.679957
 20
121.860363
 30
0.0
 11
817.025049
 21
120.572462
 31
0.0
  0
TEXT
  5
554
330
547
100
AcDbEntity
  8
1-1
  6
CONTINUOUS
 62
     7
100
AcDbText
 10
816.680013
 20
116.527018
 30
0.0
 40
2.0
  1
２００
 50
90.0
 41
0.666667
  7
FX_VECTOR
 72
     5
 11
816.680013
 21
120.527018
 31
0.0
100
AcDbText
  0
ENDBLK
  5
549
330
547
100
AcDbEntity
  8
0
100
AcDbBlockEnd
  0
BLOCK
  5
556
330
555
100
AcDbEntity
  8
0
100
AcDbBlockBegin
  2
BLKF088
 70
     0
 71
     0
 10
0.0
 20
0.0
 30
0.0
  3
BLKF088
  1

  0
LINE
  5
559
330
555
100
AcDbEntity
  8
1-1
  6
細い実線
 62
     7
100
AcDbLine
 10
828.01329
 20
121.860363
 30
0.0
 11
816.01329
 21
121.860363
 31
0.0
  0
LINE
  5
55A
330
555
100
AcDbEntity
  8
1-1
  6
細い実線
 62
     7
100
AcDbLine
 10
829.84529
 20
127.96703
 30
0.0
 11
816.01329
 21
127.96703
 31
0.0
  0
LINE
  5
55B
330
555
100
AcDbEntity
  8
1-1
  6
細い実線
 62
     7
100
AcDbLine
 10
816.679957
 20
127.96703
 30
0.0
 11
816.679957
 21
121.860363
 31
0.0
  0
LINE
  5
55C
330
555
100
AcDbEntity
  8
1-1
  6
細い実線
 62
     7
100
AcDbLine
 10
816.334865
 20
123.148264
 30
0.0
 11
817.025049
 21
123.148264
 31
0.0
  0
LINE
  5
55D
330
555
100
AcDbEntity
  8
1-1
  6
細い実線
 62
     7
100
AcDbLine
 10
817.025049
 20
123.148264
 30
0.0
 11
816.679957
 21
121.860363
 31
0.0
  0
LINE
  5
55E
330
555
100
AcDbEntity
  8
1-1
  6
細い実線
 62
     7
100
AcDbLine
 10
816.679957
 20
121.860363
 30
0.0
 11
816.334865
 21
123.148264
 31
0.0
  0
LINE
  5
55F
330
555
100
AcDbEntity
  8
1-1
  6
細い実線
 62
     7
100
AcDbLine
 10
817.025049
 20
126.679128
 30
0.0
 11
816.334865
 21
126.679128
 31
0.0
  0
LINE
  5
560
330
555
100
AcDbEntity
  8
1-1
  6
細い実線
 62
     7
100
AcDbLine
 10
816.334865
 20
126.679128
 30
0.0
 11
816.679957
 21
127.96703
 31
0.0
  0
LINE
  5
561
330
555
100
AcDbEntity
  8
1-1
  6
細い実線
 62
     7
100
AcDbLine
 10
816.679957
 20
127.96703
 30
0.0
 11
817.025049
 21
126.679128
 31
0.0
  0
TEXT
  5
562
330
555
100
AcDbEntity
  8
1-1
  6
CONTINUOUS
 62
     7
100
AcDbText
 10
816.680013
 20
121.580355
 30
0.0
 40
2.0
  1
１８３．２
 50
90.0
 41
0.666667
  7
FX_VECTOR
 72
     5
 11
816.680013
 21
128.247021
 31
0.0
100
AcDbText
  0
ENDBLK
  5
557
330
555
100
AcDbEntity
  8
0
100
AcDbBlockEnd
  0
BLOCK
  5
564
330
563
100
AcDbEntity
  8
0
100
AcDbBlockBegin
  2
BLKF089
 70
     0
 71
     0
 10
0.0
 20
0.0
 30
0.0
  3
BLKF089
  1

  0
LINE
  5
567
330
563
100
AcDbEntity
  8
1-1
  6
細い実線
 62
     7
100
AcDbLine
 10
829.84529
 20
127.96703
 30
0.0
 11
816.01329
 21
127.96703
 31
0.0
  0
LINE
  5
568
330
563
100
AcDbEntity
  8
1-1
  6
細い実線
 62
     7
100
AcDbLine
 10
833.182722
 20
131.300363
 30
0.0
 11
816.01329
 21
131.300363
 31
0.0
  0
LINE
  5
569
330
563
100
AcDbEntity
  8
1-1
  6
細い実線
 62
     7
100
AcDbLine
 10
816.679957
 20
131.300363
 30
0.0
 11
816.679957
 21
127.96703
 31
0.0
  0
LINE
  5
56A
330
563
100
AcDbEntity
  8
1-1
  6
細い実線
 62
     7
100
AcDbLine
 10
816.334865
 20
129.254931
 30
0.0
 11
817.025049
 21
129.254931
 31
0.0
  0
LINE
  5
56B
330
563
100
AcDbEntity
  8
1-1
  6
細い実線
 62
     7
100
AcDbLine
 10
817.025049
 20
129.254931
 30
0.0
 11
816.679957
 21
127.96703
 31
0.0
  0
LINE
  5
56C
330
563
100
AcDbEntity
  8
1-1
  6
細い実線
 62
     7
100
AcDbLine
 10
816.679957
 20
127.96703
 30
0.0
 11
816.334865
 21
129.254931
 31
0.0
  0
LINE
  5
56D
330
563
100
AcDbEntity
  8
1-1
  6
細い実線
 62
     7
100
AcDbLine
 10
817.025049
 20
130.012462
 30
0.0
 11
816.334865
 21
130.012462
 31
0.0
  0
LINE
  5
56E
330
563
100
AcDbEntity
  8
1-1
  6
細い実線
 62
     7
100
AcDbLine
 10
816.334865
 20
130.012462
 30
0.0
 11
816.679957
 21
131.300363
 31
0.0
  0
LINE
  5
56F
330
563
100
AcDbEntity
  8
1-1
  6
細い実線
 62
     7
100
AcDbLine
 10
816.679957
 20
131.300363
 30
0.0
 11
817.025049
 21
130.012462
 31
0.0
  0
TEXT
  5
570
330
563
100
AcDbEntity
  8
1-1
  6
CONTINUOUS
 62
     7
100
AcDbText
 10
816.157161
 20
128.352946
 30
0.0
 40
2.0
  1
１００
 50
90.0
 41
0.666667
  7
FX_VECTOR
 72
     5
 11
816.157161
 21
132.352946
 31
0.0
100
AcDbText
  0
ENDBLK
  5
565
330
563
100
AcDbEntity
  8
0
100
AcDbBlockEnd
  0
BLOCK
  5
572
330
571
100
AcDbEntity
  8
0
100
AcDbBlockBegin
  2
BLKF090
 70
     0
 71
     0
 10
0.0
 20
0.0
 30
0.0
  3
BLKF090
  1

  0
LINE
  5
575
330
571
100
AcDbEntity
  8
1-1
  6
細い実線
 62
     7
100
AcDbLine
 10
826.01329
 20
115.193696
 30
0.0
 11
812.679957
 21
115.193696
 31
0.0
  0
LINE
  5
576
330
571
100
AcDbEntity
  8
1-1
  6
細い実線
 62
     7
100
AcDbLine
 10
829.84529
 20
127.96703
 30
0.0
 11
812.679957
 21
127.96703
 31
0.0
  0
LINE
  5
577
330
571
100
AcDbEntity
  8
1-1
  6
細い実線
 62
     7
100
AcDbLine
 10
813.346624
 20
127.96703
 30
0.0
 11
813.346624
 21
115.193696
 31
0.0
  0
LINE
  5
578
330
571
100
AcDbEntity
  8
1-1
  6
細い実線
 62
     7
100
AcDbLine
 10
813.001532
 20
116.481597
 30
0.0
 11
813.691716
 21
116.481597
 31
0.0
  0
LINE
  5
579
330
571
100
AcDbEntity
  8
1-1
  6
細い実線
 62
     7
100
AcDbLine
 10
813.691716
 20
116.481597
 30
0.0
 11
813.346624
 21
115.193696
 31
0.0
  0
LINE
  5
57A
330
571
100
AcDbEntity
  8
1-1
  6
細い実線
 62
     7
100
AcDbLine
 10
813.346624
 20
115.193696
 30
0.0
 11
813.001532
 21
116.481597
 31
0.0
  0
LINE
  5
57B
330
571
100
AcDbEntity
  8
1-1
  6
細い実線
 62
     7
100
AcDbLine
 10
813.691716
 20
126.679128
 30
0.0
 11
813.001532
 21
126.679128
 31
0.0
  0
LINE
  5
57C
330
571
100
AcDbEntity
  8
1-1
  6
細い実線
 62
     7
100
AcDbLine
 10
813.001532
 20
126.679128
 30
0.0
 11
813.346624
 21
127.96703
 31
0.0
  0
LINE
  5
57D
330
571
100
AcDbEntity
  8
1-1
  6
細い実線
 62
     7
100
AcDbLine
 10
813.346624
 20
127.96703
 30
0.0
 11
813.691716
 21
126.679128
 31
0.0
  0
TEXT
  5
57E
330
571
100
AcDbEntity
  8
1-1
  6
CONTINUOUS
 62
     7
100
AcDbText
 10
813.34668
 20
118.247021
 30
0.0
 40
2.0
  1
３８３．２
 50
90.0
 41
0.666667
  7
FX_VECTOR
 72
     5
 11
813.34668
 21
124.913688
 31
0.0
100
AcDbText
  0
ENDBLK
  5
573
330
571
100
AcDbEntity
  8
0
100
AcDbBlockEnd
  0
BLOCK
  5
580
330
57F
100
AcDbEntity
  8
0
100
AcDbBlockBegin
  2
BLKF091
 70
     0
 71
     0
 10
0.0
 20
0.0
 30
0.0
  3
BLKF091
  1

  0
LINE
  5
583
330
57F
100
AcDbEntity
  8
1-1
  6
細い実線
 62
     7
100
AcDbLine
 10
838.882734
 20
131.300363
 30
0.0
 11
856.807084
 21
131.300363
 31
0.0
  0
LINE
  5
584
330
57F
100
AcDbEntity
  8
1-1
  6
細い実線
 62
     7
100
AcDbLine
 10
846.807084
 20
127.860363
 30
0.0
 11
856.807084
 21
127.860363
 31
0.0
  0
LINE
  5
585
330
57F
100
AcDbEntity
  8
1-1
  6
細い実線
 62
     7
100
AcDbLine
 10
856.140417
 20
127.860363
 30
0.0
 11
856.140417
 21
131.300363
 31
0.0
  0
LINE
  5
586
330
57F
100
AcDbEntity
  8
1-1
  6
細い実線
 62
     7
100
AcDbLine
 10
856.485509
 20
130.012462
 30
0.0
 11
855.795325
 21
130.012462
 31
0.0
  0
LINE
  5
587
330
57F
100
AcDbEntity
  8
1-1
  6
細い実線
 62
     7
100
AcDbLine
 10
855.795325
 20
130.012462
 30
0.0
 11
856.140417
 21
131.300363
 31
0.0
  0
LINE
  5
588
330
57F
100
AcDbEntity
  8
1-1
  6
細い実線
 62
     7
100
AcDbLine
 10
856.140417
 20
131.300363
 30
0.0
 11
856.485509
 21
130.012462
 31
0.0
  0
LINE
  5
589
330
57F
100
AcDbEntity
  8
1-1
  6
細い実線
 62
     7
100
AcDbLine
 10
855.795325
 20
129.148264
 30
0.0
 11
856.485509
 21
129.148264
 31
0.0
  0
LINE
  5
58A
330
57F
100
AcDbEntity
  8
1-1
  6
細い実線
 62
     7
100
AcDbLine
 10
856.485509
 20
129.148264
 30
0.0
 11
856.140417
 21
127.860363
 31
0.0
  0
LINE
  5
58B
330
57F
100
AcDbEntity
  8
1-1
  6
細い実線
 62
     7
100
AcDbLine
 10
856.140417
 20
127.860363
 30
0.0
 11
855.795325
 21
129.148264
 31
0.0
  0
TEXT
  5
58C
330
57F
100
AcDbEntity
  8
1-1
  6
CONTINUOUS
 62
     7
100
AcDbText
 10
859.196615
 20
127.693799
 30
0.0
 40
2.0
  1
１０３．２
 50
90.0
 41
0.666667
  7
FX_VECTOR
 72
     5
 11
859.196615
 21
134.360465
 31
0.0
100
AcDbText
  0
ENDBLK
  5
581
330
57F
100
AcDbEntity
  8
0
100
AcDbBlockEnd
  0
BLOCK
  5
58E
330
58D
100
AcDbEntity
  8
0
100
AcDbBlockBegin
  2
BLKF092
 70
     0
 71
     0
 10
0.0
 20
0.0
 30
0.0
  3
BLKF092
  1

  0
LINE
  5
591
330
58D
100
AcDbEntity
  8
1-1
  6
細い実線
 62
     7
100
AcDbLine
 10
846.807084
 20
127.860363
 30
0.0
 11
856.807084
 21
127.860363
 31
0.0
  0
LINE
  5
592
330
58D
100
AcDbEntity
  8
1-1
  6
細い実線
 62
     7
100
AcDbLine
 10
845.007084
 20
121.860363
 30
0.0
 11
856.807084
 21
121.860363
 31
0.0
  0
LINE
  5
593
330
58D
100
AcDbEntity
  8
1-1
  6
細い実線
 62
     7
100
AcDbLine
 10
856.140417
 20
121.860363
 30
0.0
 11
856.140417
 21
127.860363
 31
0.0
  0
LINE
  5
594
330
58D
100
AcDbEntity
  8
1-1
  6
細い実線
 62
     7
100
AcDbLine
 10
856.485509
 20
126.572462
 30
0.0
 11
855.795325
 21
126.572462
 31
0.0
  0
LINE
  5
595
330
58D
100
AcDbEntity
  8
1-1
  6
細い実線
 62
     7
100
AcDbLine
 10
855.795325
 20
126.572462
 30
0.0
 11
856.140417
 21
127.860363
 31
0.0
  0
LINE
  5
596
330
58D
100
AcDbEntity
  8
1-1
  6
細い実線
 62
     7
100
AcDbLine
 10
856.140417
 20
127.860363
 30
0.0
 11
856.485509
 21
126.572462
 31
0.0
  0
LINE
  5
597
330
58D
100
AcDbEntity
  8
1-1
  6
細い実線
 62
     7
100
AcDbLine
 10
855.795325
 20
123.148264
 30
0.0
 11
856.485509
 21
123.148264
 31
0.0
  0
LINE
  5
598
330
58D
100
AcDbEntity
  8
1-1
  6
細い実線
 62
     7
100
AcDbLine
 10
856.485509
 20
123.148264
 30
0.0
 11
856.140417
 21
121.860363
 31
0.0
  0
LINE
  5
599
330
58D
100
AcDbEntity
  8
1-1
  6
細い実線
 62
     7
100
AcDbLine
 10
856.140417
 20
121.860363
 30
0.0
 11
855.795325
 21
123.148264
 31
0.0
  0
TEXT
  5
59A
330
58D
100
AcDbEntity
  8
1-1
  6
CONTINUOUS
 62
     7
100
AcDbText
 10
856.14043
 20
122.860352
 30
0.0
 40
2.0
  1
１８０
 50
90.0
 41
0.666667
  7
FX_VECTOR
 72
     5
 11
856.14043
 21
126.860352
 31
0.0
100
AcDbText
  0
ENDBLK
  5
58F
330
58D
100
AcDbEntity
  8
0
100
AcDbBlockEnd
  0
BLOCK
  5
59C
330
59B
100
AcDbEntity
  8
0
100
AcDbBlockBegin
  2
BLKF093
 70
     0
 71
     0
 10
0.0
 20
0.0
 30
0.0
  3
BLKF093
  1

  0
LINE
  5
59F
330
59B
100
AcDbEntity
  8
1-1
  6
細い実線
 62
     7
100
AcDbLine
 10
845.007084
 20
121.860363
 30
0.0
 11
856.807084
 21
121.860363
 31
0.0
  0
LINE
  5
5A0
330
59B
100
AcDbEntity
  8
1-1
  6
細い実線
 62
     7
100
AcDbLine
 10
843.007084
 20
115.193696
 30
0.0
 11
856.807084
 21
115.193696
 31
0.0
  0
LINE
  5
5A1
330
59B
100
AcDbEntity
  8
1-1
  6
細い実線
 62
     7
100
AcDbLine
 10
856.140417
 20
115.193696
 30
0.0
 11
856.140417
 21
121.860363
 31
0.0
  0
LINE
  5
5A2
330
59B
100
AcDbEntity
  8
1-1
  6
細い実線
 62
     7
100
AcDbLine
 10
856.485509
 20
120.572462
 30
0.0
 11
855.795325
 21
120.572462
 31
0.0
  0
LINE
  5
5A3
330
59B
100
AcDbEntity
  8
1-1
  6
細い実線
 62
     7
100
AcDbLine
 10
855.795325
 20
120.572462
 30
0.0
 11
856.140417
 21
121.860363
 31
0.0
  0
LINE
  5
5A4
330
59B
100
AcDbEntity
  8
1-1
  6
細い実線
 62
     7
100
AcDbLine
 10
856.140417
 20
121.860363
 30
0.0
 11
856.485509
 21
120.572462
 31
0.0
  0
LINE
  5
5A5
330
59B
100
AcDbEntity
  8
1-1
  6
細い実線
 62
     7
100
AcDbLine
 10
855.795325
 20
116.481597
 30
0.0
 11
856.485509
 21
116.481597
 31
0.0
  0
LINE
  5
5A6
330
59B
100
AcDbEntity
  8
1-1
  6
細い実線
 62
     7
100
AcDbLine
 10
856.485509
 20
116.481597
 30
0.0
 11
856.140417
 21
115.193696
 31
0.0
  0
LINE
  5
5A7
330
59B
100
AcDbEntity
  8
1-1
  6
細い実線
 62
     7
100
AcDbLine
 10
856.140417
 20
115.193696
 30
0.0
 11
855.795325
 21
116.481597
 31
0.0
  0
TEXT
  5
5A8
330
59B
100
AcDbEntity
  8
1-1
  6
CONTINUOUS
 62
     7
100
AcDbText
 10
856.14043
 20
116.527018
 30
0.0
 40
2.0
  1
２００
 50
90.0
 41
0.666667
  7
FX_VECTOR
 72
     5
 11
856.14043
 21
120.527018
 31
0.0
100
AcDbText
  0
ENDBLK
  5
59D
330
59B
100
AcDbEntity
  8
0
100
AcDbBlockEnd
  0
BLOCK
  5
5AA
330
5A9
100
AcDbEntity
  8
0
100
AcDbBlockBegin
  2
BLKF094
 70
     0
 71
     0
 10
0.0
 20
0.0
 30
0.0
  3
BLKF094
  1

  0
LINE
  5
5AD
330
5A9
100
AcDbEntity
  8
1-1
  6
細い実線
 62
     7
100
AcDbLine
 10
846.807084
 20
127.860363
 30
0.0
 11
860.140417
 21
127.860363
 31
0.0
  0
LINE
  5
5AE
330
5A9
100
AcDbEntity
  8
1-1
  6
細い実線
 62
     7
100
AcDbLine
 10
843.007084
 20
115.193696
 30
0.0
 11
860.140417
 21
115.193696
 31
0.0
  0
LINE
  5
5AF
330
5A9
100
AcDbEntity
  8
1-1
  6
細い実線
 62
     7
100
AcDbLine
 10
859.47375
 20
115.193696
 30
0.0
 11
859.47375
 21
127.860363
 31
0.0
  0
LINE
  5
5B0
330
5A9
100
AcDbEntity
  8
1-1
  6
細い実線
 62
     7
100
AcDbLine
 10
859.818842
 20
126.572462
 30
0.0
 11
859.128658
 21
126.572462
 31
0.0
  0
LINE
  5
5B1
330
5A9
100
AcDbEntity
  8
1-1
  6
細い実線
 62
     7
100
AcDbLine
 10
859.128658
 20
126.572462
 30
0.0
 11
859.47375
 21
127.860363
 31
0.0
  0
LINE
  5
5B2
330
5A9
100
AcDbEntity
  8
1-1
  6
細い実線
 62
     7
100
AcDbLine
 10
859.47375
 20
127.860363
 30
0.0
 11
859.818842
 21
126.572462
 31
0.0
  0
LINE
  5
5B3
330
5A9
100
AcDbEntity
  8
1-1
  6
細い実線
 62
     7
100
AcDbLine
 10
859.128658
 20
116.481597
 30
0.0
 11
859.818842
 21
116.481597
 31
0.0
  0
LINE
  5
5B4
330
5A9
100
AcDbEntity
  8
1-1
  6
細い実線
 62
     7
100
AcDbLine
 10
859.818842
 20
116.481597
 30
0.0
 11
859.47375
 21
115.193696
 31
0.0
  0
LINE
  5
5B5
330
5A9
100
AcDbEntity
  8
1-1
  6
細い実線
 62
     7
100
AcDbLine
 10
859.47375
 20
115.193696
 30
0.0
 11
859.128658
 21
116.481597
 31
0.0
  0
TEXT
  5
5B6
330
5A9
100
AcDbEntity
  8
1-1
  6
CONTINUOUS
 62
     7
100
AcDbText
 10
859.473763
 20
119.527018
 30
0.0
 40
2.0
  1
３８０
 50
90.0
 41
0.666667
  7
FX_VECTOR
 72
     5
 11
859.473763
 21
123.527018
 31
0.0
100
AcDbText
  0
ENDBLK
  5
5AB
330
5A9
100
AcDbEntity
  8
0
100
AcDbBlockEnd
  0
ENDSEC
  0
SECTION
  2
ENTITIES
  0
LINE
  5
A7
330
1F
100
AcDbEntity
  8
GR1-1
  6
極太の実線
 62
     3
100
AcDbLine
 10
915.845963
 20
234.360363
 30
0.0
 11
638.845974
 21
234.360363
 31
0.0
  0
LINE
  5
A8
330
1F
100
AcDbEntity
  8
GR1-1
  6
極太の実線
 62
     3
100
AcDbLine
 10
638.845974
 20
234.360363
 30
0.0
 11
638.845958
 21
44.360363
 31
0.0
  0
LINE
  5
A9
330
1F
100
AcDbEntity
  8
GR1-1
  6
極太の実線
 62
     3
100
AcDbLine
 10
638.845958
 20
44.360363
 30
0.0
 11
915.845958
 21
44.360363
 31
0.0
  0
LINE
  5
AA
330
1F
100
AcDbEntity
  8
GR1-1
  6
極太の実線
 62
     3
100
AcDbLine
 10
915.845958
 20
44.360363
 30
0.0
 11
915.845963
 21
234.360363
 31
0.0
  0
LINE
  5
AB
330
1F
100
AcDbEntity
  8
GR1-1
  6
極太の実線
 62
     3
100
AcDbLine
 10
914.845963
 20
233.360363
 30
0.0
 11
639.845974
 21
233.360363
 31
0.0
  0
LINE
  5
AC
330
1F
100
AcDbEntity
  8
GR1-1
  6
極太の実線
 62
     3
100
AcDbLine
 10
639.845974
 20
233.360363
 30
0.0
 11
639.845958
 21
45.360363
 31
0.0
  0
LINE
  5
AD
330
1F
100
AcDbEntity
  8
GR1-1
  6
極太の実線
 62
     3
100
AcDbLine
 10
639.845958
 20
45.360363
 30
0.0
 11
914.845958
 21
45.360363
 31
0.0
  0
LINE
  5
AE
330
1F
100
AcDbEntity
  8
GR1-1
  6
極太の実線
 62
     3
100
AcDbLine
 10
914.845958
 20
45.360363
 30
0.0
 11
914.845963
 21
233.360363
 31
0.0
  0
LINE
  5
B0
330
1F
100
AcDbEntity
  8
GR1-1
  6
太い実線
 62
     4
100
AcDbLine
 10
836.793212
 20
66.861168
 30
0.0
 11
911.793237
 21
66.861168
 31
0.0
  0
LINE
  5
B1
330
1F
100
AcDbEntity
  8
GR1-1
  6
太い実線
 62
     4
100
AcDbLine
 10
911.793237
 20
60.861168
 30
0.0
 11
836.793212
 21
60.861168
 31
0.0
  0
LINE
  5
B2
330
1F
100
AcDbEntity
  8
GR1-1
  6
太い実線
 62
     4
100
AcDbLine
 10
836.793212
 20
54.861172
 30
0.0
 11
911.793237
 21
54.861172
 31
0.0
  0
LINE
  5
B3
330
1F
100
AcDbEntity
  8
GR1-1
  6
太い実線
 62
     4
100
AcDbLine
 10
836.793212
 20
48.86117
 30
0.0
 11
836.793212
 21
66.861168
 31
0.0
  0
LINE
  5
B4
330
1F
100
AcDbEntity
  8
GR1-1
  6
太い実線
 62
     4
100
AcDbLine
 10
851.793212
 20
66.861168
 30
0.0
 11
851.793212
 21
54.861172
 31
0.0
  0
LINE
  5
B5
330
1F
100
AcDbEntity
  8
GR1-1
  6
太い実線
 62
     4
100
AcDbLine
 10
874.293224
 20
54.861172
 30
0.0
 11
874.293224
 21
60.861168
 31
0.0
  0
TEXT
  5
B7
330
1F
100
AcDbEntity
  8
GR1-1
  6
細い実線
 62
     7
100
AcDbText
 10
841.743229
 20
61.932613
 30
0.0
 40
3.5
  1
図名
 41
0.728571
  7
STYLE1
 72
     5
 11
846.843229
 21
61.932613
 31
0.0
100
AcDbText
  0
TEXT
  5
B8
330
1F
100
AcDbEntity
  8
GR1-1
  6
細い実線
 62
     7
100
AcDbText
 10
841.743229
 20
55.901058
 30
0.0
 40
3.5
  1
尺度
 41
0.728571
  7
STYLE1
 72
     5
 11
846.843229
 21
55.901058
 31
0.0
100
AcDbText
  0
TEXT
  5
B9
330
1F
100
AcDbEntity
  8
GR1-1
  6
細い実線
 62
     7
100
AcDbText
 10
876.443229
 20
55.901058
 30
0.0
 40
3.5
  1
参考重量
 41
0.764286
  7
STYLE1
 72
     5
 11
887.143229
 21
55.901058
 31
0.0
100
AcDbText
  0
TEXT
  5
BA
330
1F
100
AcDbEntity
  8
GR1-1
  6
細い実線
 62
     7
100
AcDbText
 10
854.943229
 20
49.869503
 30
0.0
 40
3.5
  1
小倉セメント製品工業株式会社
 41
0.789796
  7
STYLE1
 72
     5
 11
893.643229
 21
49.869503
 31
0.0
100
AcDbText
  0
LINE
  5
BB
330
1F
100
AcDbEntity
  8
GR1-1
  6
太い実線
 62
     4
100
AcDbLine
 10
889.293273
 20
60.861168
 30
0.0
 11
889.293273
 21
54.861172
 31
0.0
  0
TEXT
  5
BC
330
1F
100
AcDbEntity
  8
GR1-1
  6
細い実線
 62
     7
100
AcDbText
 10
858.443229
 20
56.064075
 30
0.0
 40
3.5
  1
1/30
 41
0.657143
  7
STYLE1
 72
     5
 11
867.643229
 21
56.064075
 31
0.0
100
AcDbText
  0
TEXT
  5
BD
330
1F
100
AcDbEntity
  8
GR1-1
  6
細い実線
 62
     7
100
AcDbText
 10
892.451823
 20
55.901058
 30
0.0
 40
3.5
  1
230　ｋｇ
 41
0.657143
  7
STYLE1
 72
     5
 11
906.251823
 21
55.901058
 31
0.0
100
AcDbText
  0
TEXT
  5
BE
330
1F
100
AcDbEntity
  8
GR1-1
  6
細い実線
 62
     7
100
AcDbText
 10
858.793229
 20
61.85887
 30
0.0
 40
3.5
  1
KP大型ブロック　450C　（低擁壁用）
 41
0.657143
  7
STYLE1
 72
     5
 11
904.793229
 21
61.85887
 31
0.0
100
AcDbText
  0
LINE
  5
BF
330
1F
100
AcDbEntity
  8
GR1-1
  6
太い実線
 62
     4
100
AcDbLine
 10
911.793237
 20
66.861168
 30
0.0
 11
911.793237
 21
48.86117
 31
0.0
  0
LINE
  5
C0
330
1F
100
AcDbEntity
  8
GR1-1
  6
太い実線
 62
     4
100
AcDbLine
 10
836.793212
 20
48.86117
 30
0.0
 11
911.793237
 21
48.86117
 31
0.0
  0
LINE
  5
C1
330
1F
100
AcDbEntity
  8
GR1-1
  6
細い実線
 62
     7
100
AcDbLine
 10
822.145684
 20
204.25905
 30
0.0
 11
807.732903
 21
204.25905
 31
0.0
  0
TEXT
  5
C2
330
1F
100
AcDbEntity
  8
GR1-1
  6
細い実線
 62
     7
100
AcDbText
 10
808.706185
 20
204.259049
 30
0.0
 40
3.0
  1
平　面　図
 41
0.851556
  7
STYLE1
 72
     5
 11
821.479518
 21
204.259049
 31
0.0
100
AcDbText
  0
LINE
  5
C3
330
1F
100
AcDbEntity
  8
GR1-1
  6
細い実線
 62
     7
100
AcDbLine
 10
847.925158
 20
148.212251
 30
0.0
 11
829.285326
 21
148.212251
 31
0.0
  0
TEXT
  5
C4
330
1F
100
AcDbEntity
  8
GR1-1
  6
細い実線
 62
     7
100
AcDbText
 10
830.11862
 20
148.212256
 30
0.0
 40
3.0
  1
Ａ－Ａ断面図
 41
0.933333
  7
STYLE1
 72
     5
 11
846.91862
 21
148.212256
 31
0.0
100
AcDbText
  0
LINE
  5
C5
330
1F
100
AcDbEntity
  8
GR1-1
  6
細い実線
 62
     7
100
AcDbLine
 10
785.260349
 20
147.950055
 30
0.0
 11
771.13725
 21
147.950055
 31
0.0
  0
TEXT
  5
C6
330
1F
100
AcDbEntity
  8
GR1-1
  6
細い実線
 62
     7
100
AcDbText
 10
772.110547
 20
147.950049
 30
0.0
 40
3.0
  1
正　面　図
 41
0.851556
  7
STYLE1
 72
     5
 11
784.88388
 21
147.950049
 31
0.0
100
AcDbText
  0
LINE
  5
C7
330
1F
100
AcDbEntity
  8
GR1-1
  6
細い実線
 62
     7
100
AcDbLine
 10
718.924798
 20
151.096405
 30
0.0
 11
705.426618
 21
151.096405
 31
0.0
  0
TEXT
  5
C8
330
1F
100
AcDbEntity
  8
GR1-1
  6
細い実線
 62
     7
100
AcDbText
 10
706.39987
 20
151.096403
 30
0.0
 40
3.0
  1
側　面　図
 41
0.851556
  7
STYLE1
 72
     5
 11
719.173203
 21
151.096403
 31
0.0
100
AcDbText
  0
LINE
  5
C9
330
1F
100
AcDbEntity
  8
GR1-1
  6
細い実線
 62
     7
100
AcDbLine
 10
759.304501
 20
205.021345
 30
0.0
 11
739.759425
 21
205.021345
 31
0.0
  0
TEXT
  5
CA
330
1F
100
AcDbEntity
  8
GR1-1
  6
細い実線
 62
     7
100
AcDbText
 10
740.732682
 20
205.021338
 30
0.0
 40
3.0
  1
正面図（模様部）
 41
0.851556
  7
STYLE1
 72
     5
 11
761.170015
 21
205.021338
 31
0.0
100
AcDbText
  0
LINE
  5
CB
330
1F
100
AcDbEntity
  8
GR1-1
  6
極太の実線
 62
     3
100
AcDbLine
 10
725.650078
 20
181.285419
 30
0.0
 11
746.483411
 21
181.285419
 31
0.0
  0
LINE
  5
CC
330
1F
100
AcDbEntity
  8
GR1-1
  6
極太の実線
 62
     3
100
AcDbLine
 10
725.650078
 20
168.512085
 30
0.0
 11
746.935254
 21
168.512085
 31
0.0
  0
LINE
  5
CD
330
1F
100
AcDbEntity
  8
GR1-1
  6
極太の実線
 62
     3
100
AcDbLine
 10
767.316745
 20
181.285419
 30
0.0
 11
746.483411
 21
181.285419
 31
0.0
  0
LINE
  5
CE
330
1F
100
AcDbEntity
  8
GR1-1
  6
極太の実線
 62
     3
100
AcDbLine
 10
767.316745
 20
168.512085
 30
0.0
 11
746.935254
 21
168.512085
 31
0.0
  0
LINE
  5
CF
330
1F
100
AcDbEntity
  8
GR1-1
  6
極太の実線
 62
     3
100
AcDbLine
 10
725.650078
 20
168.512085
 30
0.0
 11
725.650078
 21
181.285419
 31
0.0
  0
LINE
  5
D0
330
1F
100
AcDbEntity
  8
GR1-1
  6
極太の実線
 62
     3
100
AcDbLine
 10
767.316745
 20
168.512085
 30
0.0
 11
767.316745
 21
181.285419
 31
0.0
  0
INSERT
  5
D4
330
1F
100
AcDbEntity
  8
0
100
AcDbBlockReference
  2
BLKF021
 10
0.0
 20
0.0
 30
0.0
  0
INSERT
  5
E2
330
1F
100
AcDbEntity
  8
0
100
AcDbBlockReference
  2
BLKF022
 10
0.0
 20
0.0
 30
0.0
  0
INSERT
  5
F0
330
1F
100
AcDbEntity
  8
0
100
AcDbBlockReference
  2
BLKF023
 10
0.0
 20
0.0
 30
0.0
  0
INSERT
  5
FE
330
1F
100
AcDbEntity
  8
0
100
AcDbBlockReference
  2
BLKF024
 10
0.0
 20
0.0
 30
0.0
  0
INSERT
  5
10B
330
1F
100
AcDbEntity
  8
0
100
AcDbBlockReference
  2
BLKF025
 10
0.0
 20
0.0
 30
0.0
  0
INSERT
  5
118
330
1F
100
AcDbEntity
  8
0
100
AcDbBlockReference
  2
BLKF026
 10
0.0
 20
0.0
 30
0.0
  0
INSERT
  5
125
330
1F
100
AcDbEntity
  8
0
100
AcDbBlockReference
  2
BLKF027
 10
0.0
 20
0.0
 30
0.0
  0
LINE
  5
12F
330
1F
100
AcDbEntity
  8
GR1-1
  6
極太の実線
 62
     3
100
AcDbLine
 10
739.900078
 20
181.285419
 30
0.0
 11
736.233411
 21
181.285419
 31
0.0
  0
LINE
  5
130
330
1F
100
AcDbEntity
  8
GR1-1
  6
極太の実線
 62
     3
100
AcDbLine
 10
736.233411
 20
181.285419
 30
0.0
 11
736.677856
 21
184.618752
 31
0.0
  0
LINE
  5
131
330
1F
100
AcDbEntity
  8
GR1-1
  6
極太の実線
 62
     3
100
AcDbLine
 10
739.455634
 20
184.618752
 30
0.0
 11
739.900078
 21
181.285419
 31
0.0
  0
LINE
  5
132
330
1F
100
AcDbEntity
  8
GR1-1
  6
極太の実線
 62
     3
100
AcDbLine
 10
739.455634
 20
184.618752
 30
0.0
 11
736.677856
 21
184.618752
 31
0.0
  0
LINE
  5
133
330
1F
100
AcDbEntity
  8
GR1-1
  6
極太の実線
 62
     3
100
AcDbLine
 10
756.733411
 20
181.285419
 30
0.0
 11
753.066745
 21
181.285419
 31
0.0
  0
LINE
  5
134
330
1F
100
AcDbEntity
  8
GR1-1
  6
極太の実線
 62
     3
100
AcDbLine
 10
753.066745
 20
181.285419
 30
0.0
 11
753.511189
 21
184.618752
 31
0.0
  0
LINE
  5
135
330
1F
100
AcDbEntity
  8
GR1-1
  6
極太の実線
 62
     3
100
AcDbLine
 10
756.288967
 20
184.618752
 30
0.0
 11
756.733411
 21
181.285419
 31
0.0
  0
LINE
  5
136
330
1F
100
AcDbEntity
  8
GR1-1
  6
極太の実線
 62
     3
100
AcDbLine
 10
756.288967
 20
184.618752
 30
0.0
 11
753.511189
 21
184.618752
 31
0.0
  0
INSERT
  5
13A
330
1F
100
AcDbEntity
  8
0
100
AcDbBlockReference
  2
BLKF028
 10
0.0
 20
0.0
 30
0.0
  0
LINE
  5
144
330
1F
100
AcDbEntity
  8
GR1-1
  6
細い実線
 62
     7
100
AcDbLine
 10
754.4943
 20
180.002888
 30
0.0
 11
755.865352
 21
176.448307
 31
0.0
  0
LINE
  5
145
330
1F
100
AcDbEntity
  8
GR1-1
  6
細い実線
 62
     7
100
AcDbLine
 10
762.942267
 20
173.504781
 30
0.0
 11
758.008519
 21
171.654626
 31
0.0
  0
LINE
  5
146
330
1F
100
AcDbEntity
  8
GR1-1
  6
細い実線
 62
     7
100
AcDbLine
 10
759.611987
 20
170.976236
 30
0.0
 11
757.885175
 21
170.051158
 31
0.0
  0
LINE
  5
147
330
1F
100
AcDbEntity
  8
GR1-1
  6
細い実線
 62
     7
100
AcDbLine
 10
758.008519
 20
171.654626
 30
0.0
 11
757.905471
 21
174.230816
 31
0.0
  0
LINE
  5
148
330
1F
100
AcDbEntity
  8
GR1-1
  6
細い実線
 62
     7
100
AcDbLine
 10
755.865352
 20
176.448307
 30
0.0
 11
757.905471
 21
174.230816
 31
0.0
  0
LINE
  5
149
330
1F
100
AcDbEntity
  8
GR1-1
  6
細い実線
 62
     7
100
AcDbLine
 10
741.412113
 20
175.666422
 30
0.0
 11
736.236595
 21
171.317315
 31
0.0
  0
LINE
  5
14A
330
1F
100
AcDbEntity
  8
GR1-1
  6
細い実線
 62
     7
100
AcDbLine
 10
741.607663
 20
171.345675
 30
0.0
 11
740.997746
 21
173.456467
 31
0.0
  0
LINE
  5
14B
330
1F
100
AcDbEntity
  8
GR1-1
  6
細い実線
 62
     7
100
AcDbLine
 10
740.997746
 20
173.456467
 30
0.0
 11
744.588924
 21
176.840461
 31
0.0
  0
LINE
  5
14C
330
1F
100
AcDbEntity
  8
GR1-1
  6
細い実線
 62
     7
100
AcDbLine
 10
736.236595
 20
171.317315
 30
0.0
 11
730.655097
 21
171.820153
 31
0.0
  0
LINE
  5
14D
330
1F
100
AcDbEntity
  8
GR1-1
  6
細い実線
 62
     7
100
AcDbLine
 10
767.316745
 20
172.055485
 30
0.0
 11
765.546692
 21
174.167469
 31
0.0
  0
LINE
  5
14E
330
1F
100
AcDbEntity
  8
GR1-1
  6
細い実線
 62
     7
100
AcDbLine
 10
762.05432
 20
170.817642
 30
0.0
 11
759.611987
 21
170.976236
 31
0.0
  0
LINE
  5
14F
330
1F
100
AcDbEntity
  8
GR1-1
  6
細い実線
 62
     7
100
AcDbLine
 10
762.05432
 20
170.817642
 30
0.0
 11
765.546692
 21
174.167469
 31
0.0
  0
LINE
  5
150
330
1F
100
AcDbEntity
  8
GR1-1
  6
細い実線
 62
     7
100
AcDbLine
 10
767.316745
 20
174.211025
 30
0.0
 11
766.087957
 21
175.118907
 31
0.0
  0
LINE
  5
151
330
1F
100
AcDbEntity
  8
GR1-1
  6
細い実線
 62
     7
100
AcDbLine
 10
766.087957
 20
175.118907
 30
0.0
 11
766.2437
 21
175.936556
 31
0.0
  0
LINE
  5
152
330
1F
100
AcDbEntity
  8
GR1-1
  6
細い実線
 62
     7
100
AcDbLine
 10
732.169151
 20
169.259797
 30
0.0
 11
730.127296
 21
171.127348
 31
0.0
  0
LINE
  5
153
330
1F
100
AcDbEntity
  8
GR1-1
  6
細い実線
 62
     7
100
AcDbLine
 10
744.588924
 20
176.840461
 30
0.0
 11
751.868191
 21
178.533595
 31
0.0
  0
LINE
  5
154
330
1F
100
AcDbEntity
  8
GR1-1
  6
細い実線
 62
     7
100
AcDbLine
 10
753.926168
 20
178.282622
 30
0.0
 11
755.662233
 21
174.620237
 31
0.0
  0
LINE
  5
155
330
1F
100
AcDbEntity
  8
GR1-1
  6
細い実線
 62
     7
100
AcDbLine
 10
751.868191
 20
178.533595
 30
0.0
 11
753.926168
 21
178.282622
 31
0.0
  0
LINE
  5
156
330
1F
100
AcDbEntity
  8
GR1-1
  6
細い実線
 62
     7
100
AcDbLine
 10
729.788249
 20
174.532598
 30
0.0
 11
730.655097
 21
171.820153
 31
0.0
  0
LINE
  5
157
330
1F
100
AcDbEntity
  8
GR1-1
  6
細い実線
 62
     7
100
AcDbLine
 10
730.127296
 20
171.127348
 30
0.0
 11
727.652754
 21
175.349111
 31
0.0
  0
LINE
  5
158
330
1F
100
AcDbEntity
  8
GR1-1
  6
細い実線
 62
     7
100
AcDbLine
 10
727.652754
 20
175.349111
 30
0.0
 11
728.986066
 21
180.30141
 31
0.0
  0
LINE
  5
159
330
1F
100
AcDbEntity
  8
GR1-1
  6
細い実線
 62
     7
100
AcDbLine
 10
741.607663
 20
171.345675
 30
0.0
 11
746.369734
 21
169.256671
 31
0.0
  0
LINE
  5
15A
330
1F
100
AcDbEntity
  8
GR1-1
  6
細い実線
 62
     7
100
AcDbLine
 10
743.668962
 20
178.677969
 30
0.0
 11
744.045814
 21
177.484605
 31
0.0
  0
LINE
  5
15B
330
1F
100
AcDbEntity
  8
GR1-1
  6
細い実線
 62
     7
100
AcDbLine
 10
734.379409
 20
170.604166
 30
0.0
 11
733.815005
 21
169.3953
 31
0.0
  0
LINE
  5
15C
330
1F
100
AcDbEntity
  8
GR1-1
  6
細い実線
 62
     7
100
AcDbLine
 10
734.379409
 20
170.604166
 30
0.0
 11
740.54154
 21
170.304387
 31
0.0
  0
LINE
  5
15D
330
1F
100
AcDbEntity
  8
GR1-1
  6
細い実線
 62
     7
100
AcDbLine
 10
752.987301
 20
179.612546
 30
0.0
 11
747.947086
 21
179.17761
 31
0.0
  0
LINE
  5
15E
330
1F
100
AcDbEntity
  8
GR1-1
  6
細い実線
 62
     7
100
AcDbLine
 10
744.045814
 20
177.484605
 30
0.0
 11
747.947086
 21
179.17761
 31
0.0
  0
LINE
  5
15F
330
1F
100
AcDbEntity
  8
GR1-1
  6
細い実線
 62
     7
100
AcDbLine
 10
732.169151
 20
168.520786
 30
0.0
 11
732.169151
 21
169.259797
 31
0.0
  0
LINE
  5
160
330
1F
100
AcDbEntity
  8
GR1-1
  6
細い実線
 62
     7
100
AcDbLine
 10
733.815005
 20
169.3953
 30
0.0
 11
733.757471
 21
168.520786
 31
0.0
  0
LINE
  5
161
330
1F
100
AcDbEntity
  8
GR1-1
  6
細い実線
 62
     7
100
AcDbLine
 10
740.54154
 20
170.304387
 30
0.0
 11
744.060536
 21
168.520786
 31
0.0
  0
LINE
  5
162
330
1F
100
AcDbEntity
  8
GR1-1
  6
細い実線
 62
     7
100
AcDbLine
 10
746.369734
 20
169.256671
 30
0.0
 11
746.790239
 21
168.520786
 31
0.0
  0
LINE
  5
163
330
1F
100
AcDbEntity
  8
GR1-1
  6
細い実線
 62
     7
100
AcDbLine
 10
755.662233
 20
174.620237
 30
0.0
 11
756.252503
 21
168.520786
 31
0.0
  0
LINE
  5
164
330
1F
100
AcDbEntity
  8
GR1-1
  6
細い実線
 62
     7
100
AcDbLine
 10
757.885175
 20
170.051158
 30
0.0
 11
757.885175
 21
168.520786
 31
0.0
  0
LINE
  5
165
330
1F
100
AcDbEntity
  8
GR1-1
  6
細い実線
 62
     7
100
AcDbLine
 10
766.43701
 20
181.285419
 30
0.0
 11
766.298064
 21
180.976071
 31
0.0
  0
LINE
  5
166
330
1F
100
AcDbEntity
  8
GR1-1
  6
細い実線
 62
     7
100
AcDbLine
 10
766.298064
 20
180.976071
 30
0.0
 11
762.942267
 21
173.504781
 31
0.0
  0
LINE
  5
167
330
1F
100
AcDbEntity
  8
GR1-1
  6
細い実線
 62
     7
100
AcDbLine
 10
766.2437
 20
175.936556
 30
0.0
 11
767.316745
 21
178.829371
 31
0.0
  0
LINE
  5
168
330
1F
100
AcDbEntity
  8
GR1-1
  6
細い実線
 62
     7
100
AcDbLine
 10
753.458187
 20
180.945617
 30
0.0
 11
752.994228
 21
181.285419
 31
0.0
  0
LINE
  5
169
330
1F
100
AcDbEntity
  8
GR1-1
  6
細い実線
 62
     7
100
AcDbLine
 10
752.987301
 20
179.612546
 30
0.0
 11
753.480491
 21
180.976071
 31
0.0
  0
LINE
  5
16A
330
1F
100
AcDbEntity
  8
GR1-1
  6
細い実線
 62
     7
100
AcDbLine
 10
755.833427
 20
181.285419
 30
0.0
 11
754.4943
 21
180.002888
 31
0.0
  0
LINE
  5
16B
330
1F
100
AcDbEntity
  8
GR1-1
  6
細い実線
 62
     7
100
AcDbLine
 10
744.372559
 20
181.285419
 30
0.0
 11
743.668962
 21
178.677969
 31
0.0
  0
LINE
  5
16C
330
1F
100
AcDbEntity
  8
GR1-1
  6
細い実線
 62
     7
100
AcDbLine
 10
743.24209
 20
181.285419
 30
0.0
 11
741.412113
 21
175.666422
 31
0.0
  0
LINE
  5
16D
330
1F
100
AcDbEntity
  8
GR1-1
  6
細い実線
 62
     7
100
AcDbLine
 10
730.15623
 20
181.285419
 30
0.0
 11
729.788249
 21
174.532598
 31
0.0
  0
LINE
  5
16E
330
1F
100
AcDbEntity
  8
GR1-1
  6
細い実線
 62
     7
100
AcDbLine
 10
728.986066
 20
180.30141
 30
0.0
 11
728.388269
 21
180.976071
 31
0.0
  0
LINE
  5
16F
330
1F
100
AcDbEntity
  8
GR1-1
  6
細い実線
 62
     7
100
AcDbLine
 10
728.388269
 20
180.976071
 30
0.0
 11
725.650078
 21
180.499624
 31
0.0
  0
LINE
  5
171
330
1F
100
AcDbEntity
  8
GR1-1
  6
細い点線
 62
     7
100
AcDbLine
 10
768.095961
 20
115.193696
 30
0.0
 11
768.262627
 21
115.593696
 31
0.0
  0
LINE
  5
172
330
1F
100
AcDbEntity
  8
GR1-1
  6
細い点線
 62
     7
100
AcDbLine
 10
768.262627
 20
115.593696
 30
0.0
 11
769.595961
 21
115.593696
 31
0.0
  0
LINE
  5
173
330
1F
100
AcDbEntity
  8
GR1-1
  6
細い点線
 62
     7
100
AcDbLine
 10
769.595961
 20
115.593696
 30
0.0
 11
769.762627
 21
115.193696
 31
0.0
  0
LINE
  5
174
330
1F
100
AcDbEntity
  8
GR1-1
  6
細い点線
 62
     7
100
AcDbLine
 10
786.595961
 20
115.193696
 30
0.0
 11
786.429294
 21
115.593696
 31
0.0
  0
LINE
  5
175
330
1F
100
AcDbEntity
  8
GR1-1
  6
細い点線
 62
     7
100
AcDbLine
 10
786.429294
 20
115.593696
 30
0.0
 11
785.095961
 21
115.593696
 31
0.0
  0
LINE
  5
176
330
1F
100
AcDbEntity
  8
GR1-1
  6
細い点線
 62
     7
100
AcDbLine
 10
785.095961
 20
115.593696
 30
0.0
 11
784.929294
 21
115.193696
 31
0.0
  0
LINE
  5
177
330
1F
100
AcDbEntity
  8
GR1-1
  6
極太の実線
 62
     3
100
AcDbLine
 10
798.179294
 20
115.193696
 30
0.0
 11
777.345961
 21
115.193696
 31
0.0
  0
LINE
  5
178
330
1F
100
AcDbEntity
  8
GR1-1
  6
極太の実線
 62
     3
100
AcDbLine
 10
798.179294
 20
115.193696
 30
0.0
 11
798.179294
 21
127.860363
 31
0.0
  0
LINE
  5
179
330
1F
100
AcDbEntity
  8
GR1-1
  6
極太の実線
 62
     3
100
AcDbLine
 10
798.179294
 20
127.860363
 30
0.0
 11
777.345961
 21
127.860363
 31
0.0
  0
LINE
  5
17A
330
1F
100
AcDbEntity
  8
GR1-1
  6
極太の実線
 62
     3
100
AcDbLine
 10
756.512627
 20
127.860363
 30
0.0
 11
777.345961
 21
127.860363
 31
0.0
  0
LINE
  5
17B
330
1F
100
AcDbEntity
  8
GR1-1
  6
極太の実線
 62
     3
100
AcDbLine
 10
756.512627
 20
115.193696
 30
0.0
 11
777.345961
 21
115.193696
 31
0.0
  0
LINE
  5
17C
330
1F
100
AcDbEntity
  8
GR1-1
  6
極太の実線
 62
     3
100
AcDbLine
 10
756.512627
 20
115.193696
 30
0.0
 11
756.512627
 21
127.860363
 31
0.0
  0
INSERT
  5
180
330
1F
100
AcDbEntity
  8
0
100
AcDbBlockReference
  2
BLKF029
 10
0.0
 20
0.0
 30
0.0
  0
INSERT
  5
18E
330
1F
100
AcDbEntity
  8
0
100
AcDbBlockReference
  2
BLKF030
 10
0.0
 20
0.0
 30
0.0
  0
INSERT
  5
19B
330
1F
100
AcDbEntity
  8
0
100
AcDbBlockReference
  2
BLKF031
 10
0.0
 20
0.0
 30
0.0
  0
INSERT
  5
1A9
330
1F
100
AcDbEntity
  8
0
100
AcDbBlockReference
  2
BLKF032
 10
0.0
 20
0.0
 30
0.0
  0
INSERT
  5
1B7
330
1F
100
AcDbEntity
  8
0
100
AcDbBlockReference
  2
BLKF033
 10
0.0
 20
0.0
 30
0.0
  0
INSERT
  5
1C5
330
1F
100
AcDbEntity
  8
0
100
AcDbBlockReference
  2
BLKF034
 10
0.0
 20
0.0
 30
0.0
  0
INSERT
  5
1D2
330
1F
100
AcDbEntity
  8
0
100
AcDbBlockReference
  2
BLKF035
 10
0.0
 20
0.0
 30
0.0
  0
INSERT
  5
1DF
330
1F
100
AcDbEntity
  8
0
100
AcDbBlockReference
  2
BLKF036
 10
0.0
 20
0.0
 30
0.0
  0
INSERT
  5
1EC
330
1F
100
AcDbEntity
  8
0
100
AcDbBlockReference
  2
BLKF037
 10
0.0
 20
0.0
 30
0.0
  0
INSERT
  5
1F9
330
1F
100
AcDbEntity
  8
0
100
AcDbBlockReference
  2
BLKF038
 10
0.0
 20
0.0
 30
0.0
  0
INSERT
  5
207
330
1F
100
AcDbEntity
  8
0
100
AcDbBlockReference
  2
BLKF039
 10
0.0
 20
0.0
 30
0.0
  0
INSERT
  5
215
330
1F
100
AcDbEntity
  8
0
100
AcDbBlockReference
  2
BLKF040
 10
0.0
 20
0.0
 30
0.0
  0
LINE
  5
21F
330
1F
100
AcDbEntity
  8
GR1-1
  6
極太の実線
 62
     3
100
AcDbLine
 10
770.762627
 20
127.860363
 30
0.0
 11
770.313541
 21
131.300363
 31
0.0
  0
LINE
  5
220
330
1F
100
AcDbEntity
  8
GR1-1
  6
極太の実線
 62
     3
100
AcDbLine
 10
767.540405
 20
131.300363
 30
0.0
 11
767.081739
 21
127.860363
 31
0.0
  0
LINE
  5
221
330
1F
100
AcDbEntity
  8
GR1-1
  6
極太の実線
 62
     3
100
AcDbLine
 10
783.929294
 20
127.860363
 30
0.0
 11
784.37838
 21
131.300363
 31
0.0
  0
LINE
  5
222
330
1F
100
AcDbEntity
  8
GR1-1
  6
極太の実線
 62
     3
100
AcDbLine
 10
787.151516
 20
131.300363
 30
0.0
 11
787.610183
 21
127.860363
 31
0.0
  0
LINE
  5
223
330
1F
100
AcDbEntity
  8
GR1-1
  6
極太の実線
 62
     3
100
AcDbLine
 10
767.540405
 20
131.300363
 30
0.0
 11
770.313541
 21
131.300363
 31
0.0
  0
LINE
  5
224
330
1F
100
AcDbEntity
  8
GR1-1
  6
極太の実線
 62
     3
100
AcDbLine
 10
784.37838
 20
131.300363
 30
0.0
 11
787.151516
 21
131.300363
 31
0.0
  0
INSERT
  5
228
330
1F
100
AcDbEntity
  8
0
100
AcDbBlockReference
  2
BLKF041
 10
0.0
 20
0.0
 30
0.0
  0
LINE
  5
234
330
1F
100
AcDbEntity
  8
1-1
  6
極太の実線
 62
     3
100
AcDbLine
 10
723.972179
 20
115.193696
 30
0.0
 11
720.140179
 21
127.96703
 31
0.0
  0
LINE
  5
235
330
1F
100
AcDbEntity
  8
1-1
  6
細い実線
 62
     7
100
AcDbLine
 10
721.406133
 20
118.52703
 30
0.0
 11
720.362103
 21
116.206961
 31
0.0
  0
LINE
  5
236
330
1F
100
AcDbEntity
  8
1-1
  6
細い実線
 62
     7
100
AcDbLine
 10
722.356133
 20
115.360363
 30
0.0
 11
720.362103
 21
116.206961
 31
0.0
  0
LINE
  5
237
330
1F
100
AcDbEntity
  8
1-1
  6
細い実線
 62
     7
100
AcDbLine
 10
720.362103
 20
116.206961
 30
0.0
 11
721.312103
 21
115.360363
 31
0.0
  0
LINE
  5
238
330
1F
100
AcDbEntity
  8
1-1
  6
細い実線
 62
     7
100
AcDbLine
 10
721.406133
 20
118.52703
 30
0.0
 11
720.362103
 21
118.52703
 31
0.0
  0
LINE
  5
239
330
1F
100
AcDbEntity
  8
1-1
  6
細い実線
 62
     7
100
AcDbLine
 10
720.362103
 20
118.52703
 30
0.0
 11
720.362103
 21
116.206961
 31
0.0
  0
LINE
  5
23A
330
1F
100
AcDbEntity
  8
1-1
  6
細い実線
 62
     7
100
AcDbLine
 10
721.312103
 20
115.360363
 30
0.0
 11
722.356133
 21
115.360363
 31
0.0
  0
LINE
  5
23B
330
1F
100
AcDbEntity
  8
1-1
  6
極太の実線
 62
     3
100
AcDbLine
 10
720.666082
 20
115.193696
 30
0.0
 11
716.834082
 21
127.96703
 31
0.0
  0
LINE
  5
23C
330
1F
100
AcDbEntity
  8
1-1
  6
極太の実線
 62
     3
100
AcDbLine
 10
704.511719
 20
127.860363
 30
0.0
 11
708.311719
 21
115.193696
 31
0.0
  0
LINE
  5
23D
330
1F
100
AcDbEntity
  8
1-1
  6
極太の実線
 62
     3
100
AcDbLine
 10
707.817817
 20
127.860363
 30
0.0
 11
711.617817
 21
115.193696
 31
0.0
  0
LINE
  5
23E
330
1F
100
AcDbEntity
  8
1-1
  6
極太の実線
 62
     3
100
AcDbLine
 10
710.921796
 20
115.193696
 30
0.0
 11
707.121796
 21
127.860363
 31
0.0
  0
LINE
  5
23F
330
1F
100
AcDbEntity
  8
1-1
  6
極太の実線
 62
     3
100
AcDbLine
 10
717.530103
 20
127.96703
 30
0.0
 11
720.362103
 21
118.52703
 31
0.0
  0
LINE
  5
240
330
1F
100
AcDbEntity
  8
1-1
  6
極太の実線
 62
     3
100
AcDbLine
 10
721.312103
 20
115.360363
 30
0.0
 11
721.362103
 21
115.193696
 31
0.0
  0
LINE
  5
241
330
1F
100
AcDbEntity
  8
1-1
  6
極太の実線
 62
     3
100
AcDbLine
 10
706.077765
 20
127.860363
 30
0.0
 11
709.877765
 21
115.193696
 31
0.0
  0
LINE
  5
242
330
1F
100
AcDbEntity
  8
1-1
  6
極太の実線
 62
     3
100
AcDbLine
 10
722.406133
 20
115.193696
 30
0.0
 11
718.574133
 21
127.96703
 31
0.0
  0
INSERT
  5
246
330
1F
100
AcDbEntity
  8
0
100
AcDbBlockReference
  2
BLKF042
 10
0.0
 20
0.0
 30
0.0
  0
INSERT
  5
250
330
1F
100
AcDbEntity
  8
0
100
AcDbBlockReference
  2
BLKF043
 10
0.0
 20
0.0
 30
0.0
  0
INSERT
  5
25E
330
1F
100
AcDbEntity
  8
0
100
AcDbBlockReference
  2
BLKF044
 10
0.0
 20
0.0
 30
0.0
  0
INSERT
  5
26C
330
1F
100
AcDbEntity
  8
0
100
AcDbBlockReference
  2
BLKF045
 10
0.0
 20
0.0
 30
0.0
  0
INSERT
  5
279
330
1F
100
AcDbEntity
  8
0
100
AcDbBlockReference
  2
BLKF046
 10
0.0
 20
0.0
 30
0.0
  0
INSERT
  5
286
330
1F
100
AcDbEntity
  8
0
100
AcDbBlockReference
  2
BLKF047
 10
0.0
 20
0.0
 30
0.0
  0
INSERT
  5
294
330
1F
100
AcDbEntity
  8
0
100
AcDbBlockReference
  2
BLKF048
 10
0.0
 20
0.0
 30
0.0
  0
INSERT
  5
2A1
330
1F
100
AcDbEntity
  8
0
100
AcDbBlockReference
  2
BLKF049
 10
0.0
 20
0.0
 30
0.0
  0
INSERT
  5
2AE
330
1F
100
AcDbEntity
  8
0
100
AcDbBlockReference
  2
BLKF050
 10
0.0
 20
0.0
 30
0.0
  0
INSERT
  5
2BC
330
1F
100
AcDbEntity
  8
0
100
AcDbBlockReference
  2
BLKF051
 10
0.0
 20
0.0
 30
0.0
  0
INSERT
  5
2CA
330
1F
100
AcDbEntity
  8
0
100
AcDbBlockReference
  2
BLKF052
 10
0.0
 20
0.0
 30
0.0
  0
INSERT
  5
2D8
330
1F
100
AcDbEntity
  8
0
100
AcDbBlockReference
  2
BLKF053
 10
0.0
 20
0.0
 30
0.0
  0
INSERT
  5
2E5
330
1F
100
AcDbEntity
  8
0
100
AcDbBlockReference
  2
BLKF054
 10
0.0
 20
0.0
 30
0.0
  0
INSERT
  5
2F3
330
1F
100
AcDbEntity
  8
0
100
AcDbBlockReference
  2
BLKF055
 10
0.0
 20
0.0
 30
0.0
  0
INSERT
  5
301
330
1F
100
AcDbEntity
  8
0
100
AcDbBlockReference
  2
BLKF056
 10
0.0
 20
0.0
 30
0.0
  0
INSERT
  5
30F
330
1F
100
AcDbEntity
  8
0
100
AcDbBlockReference
  2
BLKF057
 10
0.0
 20
0.0
 30
0.0
  0
INSERT
  5
31C
330
1F
100
AcDbEntity
  8
0
100
AcDbBlockReference
  2
BLKF058
 10
0.0
 20
0.0
 30
0.0
  0
INSERT
  5
329
330
1F
100
AcDbEntity
  8
0
100
AcDbBlockReference
  2
BLKF059
 10
0.0
 20
0.0
 30
0.0
  0
INSERT
  5
336
330
1F
100
AcDbEntity
  8
0
100
AcDbBlockReference
  2
BLKF060
 10
0.0
 20
0.0
 30
0.0
  0
LINE
  5
33F
330
1F
100
AcDbEntity
  8
1-1
  6
極太の実線
 62
     3
100
AcDbLine
 10
723.972179
 20
115.193696
 30
0.0
 11
708.311719
 21
115.193696
 31
0.0
  0
LINE
  5
340
330
1F
100
AcDbEntity
  8
1-1
  6
極太の実線
 62
     3
100
AcDbLine
 10
708.311719
 20
115.193696
 30
0.0
 11
704.511719
 21
127.860363
 31
0.0
  0
LINE
  5
341
330
1F
100
AcDbEntity
  8
1-1
  6
極太の実線
 62
     3
100
AcDbLine
 10
720.140179
 20
127.96703
 30
0.0
 11
723.972179
 21
115.193696
 31
0.0
  0
LINE
  5
342
330
1F
100
AcDbEntity
  8
1-1
  6
極太の実線
 62
     3
100
AcDbLine
 10
716.802748
 20
131.300363
 30
0.0
 11
716.832998
 21
127.96703
 31
0.0
  0
LINE
  5
343
330
1F
100
AcDbEntity
  8
1-1
  6
極太の実線
 62
     3
100
AcDbLine
 10
711.324958
 20
127.96703
 30
0.0
 11
711.289402
 21
127.860363
 31
0.0
  0
LINE
  5
344
330
1F
100
AcDbEntity
  8
1-1
  6
極太の実線
 62
     3
100
AcDbLine
 10
704.511719
 20
127.860363
 30
0.0
 11
711.289402
 21
127.860363
 31
0.0
  0
LINE
  5
345
330
1F
100
AcDbEntity
  8
1-1
  6
極太の実線
 62
     3
100
AcDbLine
 10
710.303679
 20
123.054257
 30
0.0
 11
716.689187
 21
124.96991
 31
0.0
  0
LINE
  5
346
330
1F
100
AcDbEntity
  8
1-1
  6
極太の実線
 62
     3
100
AcDbLine
 10
716.689187
 20
124.96991
 30
0.0
 11
718.125927
 21
120.180778
 31
0.0
  0
LINE
  5
347
330
1F
100
AcDbEntity
  8
1-1
  6
極太の実線
 62
     3
100
AcDbLine
 10
718.125927
 20
120.180778
 30
0.0
 11
711.740418
 21
118.265126
 31
0.0
  0
LINE
  5
348
330
1F
100
AcDbEntity
  8
1-1
  6
極太の実線
 62
     3
100
AcDbLine
 10
711.740418
 20
118.265126
 30
0.0
 11
710.303679
 21
123.054257
 31
0.0
  0
LINE
  5
349
330
1F
100
AcDbEntity
  8
1-1
  6
極太の実線
 62
     3
100
AcDbLine
 10
720.140179
 20
127.96703
 30
0.0
 11
716.832998
 21
127.96703
 31
0.0
  0
LINE
  5
34A
330
1F
100
AcDbEntity
  8
1-1
  6
細い実線
 62
     7
100
AcDbLine
 10
723.576367
 20
119.916941
 30
0.0
 11
723.576367
 21
120.060912
 31
0.0
  0
LINE
  5
34B
330
1F
100
AcDbEntity
  8
1-1
  6
細い実線
 62
     7
100
AcDbLine
 10
723.576367
 20
120.060912
 30
0.0
 11
723.420398
 21
120.800765
 31
0.0
  0
LINE
  5
34C
330
1F
100
AcDbEntity
  8
1-1
  6
細い実線
 62
     7
100
AcDbLine
 10
723.420398
 20
120.800765
 30
0.0
 11
722.640553
 21
123.448237
 31
0.0
  0
LINE
  5
34D
330
1F
100
AcDbEntity
  8
1-1
  6
細い実線
 62
     7
100
AcDbLine
 10
722.640553
 20
123.448237
 30
0.0
 11
722.351304
 21
124.790876
 31
0.0
  0
LINE
  5
34E
330
1F
100
AcDbEntity
  8
1-1
  6
細い実線
 62
     7
100
AcDbLine
 10
722.351304
 20
124.790876
 30
0.0
 11
722.118513
 21
125.504173
 31
0.0
  0
LINE
  5
34F
330
1F
100
AcDbEntity
  8
1-1
  6
細い実線
 62
     7
100
AcDbLine
 10
722.118513
 20
125.504173
 30
0.0
 11
721.826031
 21
126.438324
 31
0.0
  0
LINE
  5
350
330
1F
100
AcDbEntity
  8
1-1
  6
細い実線
 62
     7
100
AcDbLine
 10
721.826031
 20
126.438324
 30
0.0
 11
721.476844
 21
127.482901
 31
0.0
  0
LINE
  5
351
330
1F
100
AcDbEntity
  8
1-1
  6
細い実線
 62
     7
100
AcDbLine
 10
721.476844
 20
127.482901
 30
0.0
 11
721.244052
 21
127.814181
 31
0.0
  0
LINE
  5
352
330
1F
100
AcDbEntity
  8
1-1
  6
細い実線
 62
     7
100
AcDbLine
 10
721.244052
 20
127.814181
 30
0.0
 11
720.718779
 21
127.593327
 31
0.0
  0
LINE
  5
353
330
1F
100
AcDbEntity
  8
1-1
  6
細い実線
 62
     7
100
AcDbLine
 10
723.576367
 20
119.916941
 30
0.0
 11
723.576367
 21
120.060912
 31
0.0
  0
LINE
  5
354
330
1F
100
AcDbEntity
  8
1-1
  6
細い実線
 62
     7
100
AcDbLine
 10
723.576367
 20
120.060912
 30
0.0
 11
723.420398
 21
120.800765
 31
0.0
  0
LINE
  5
355
330
1F
100
AcDbEntity
  8
1-1
  6
細い実線
 62
     7
100
AcDbLine
 10
723.420398
 20
120.800765
 30
0.0
 11
722.640553
 21
123.448237
 31
0.0
  0
LINE
  5
356
330
1F
100
AcDbEntity
  8
1-1
  6
細い実線
 62
     7
100
AcDbLine
 10
722.640553
 20
123.448237
 30
0.0
 11
722.351304
 21
124.790876
 31
0.0
  0
LINE
  5
357
330
1F
100
AcDbEntity
  8
1-1
  6
細い実線
 62
     7
100
AcDbLine
 10
722.351304
 20
124.790876
 30
0.0
 11
722.118513
 21
125.504173
 31
0.0
  0
LINE
  5
358
330
1F
100
AcDbEntity
  8
1-1
  6
細い実線
 62
     7
100
AcDbLine
 10
722.118513
 20
125.504173
 30
0.0
 11
721.826031
 21
126.438324
 31
0.0
  0
LINE
  5
359
330
1F
100
AcDbEntity
  8
1-1
  6
細い実線
 62
     7
100
AcDbLine
 10
721.826031
 20
126.438324
 30
0.0
 11
721.476844
 21
127.482901
 31
0.0
  0
LINE
  5
35A
330
1F
100
AcDbEntity
  8
1-1
  6
細い実線
 62
     7
100
AcDbLine
 10
721.476844
 20
127.482901
 30
0.0
 11
721.244052
 21
127.814181
 31
0.0
  0
LINE
  5
35B
330
1F
100
AcDbEntity
  8
1-1
  6
細い実線
 62
     7
100
AcDbLine
 10
721.244052
 20
127.814181
 30
0.0
 11
720.718779
 21
127.593327
 31
0.0
  0
LINE
  5
35C
330
1F
100
AcDbEntity
  8
1-1
  6
細い実線
 62
     7
100
AcDbLine
 10
720.718779
 20
127.593327
 30
0.0
 11
720.233229
 21
127.656864
 31
0.0
  0
LINE
  5
35D
330
1F
100
AcDbEntity
  8
1-1
  6
極太の実線
 62
     3
100
AcDbLine
 10
716.802748
 20
131.300363
 30
0.0
 11
712.436069
 21
131.300363
 31
0.0
  0
LINE
  5
35E
330
1F
100
AcDbEntity
  8
1-1
  6
極太の実線
 62
     3
100
AcDbLine
 10
711.324958
 20
127.96703
 30
0.0
 11
712.436069
 21
131.300363
 31
0.0
  0
LINE
  5
35F
330
1F
100
AcDbEntity
  8
1-1
  6
極太の実線
 62
     3
100
AcDbLine
 10
716.832998
 20
127.967022
 30
0.0
 11
716.832998
 21
127.96703
 31
0.0
  0
LINE
  5
360
330
1F
100
AcDbEntity
  8
1-1
  6
細い実線
 62
     7
100
AcDbLine
 10
723.576367
 20
119.916941
 30
0.0
 11
723.802164
 21
119.388091
 31
0.0
  0
LINE
  5
361
330
1F
100
AcDbEntity
  8
1-1
  6
細い実線
 62
     7
100
AcDbLine
 10
723.802164
 20
119.388091
 30
0.0
 11
724.137209
 21
118.410874
 31
0.0
  0
LINE
  5
362
330
1F
100
AcDbEntity
  8
1-1
  6
細い実線
 62
     7
100
AcDbLine
 10
724.137209
 20
118.410874
 30
0.0
 11
724.611857
 21
117.126533
 31
0.0
  0
LINE
  5
363
330
1F
100
AcDbEntity
  8
1-1
  6
細い実線
 62
     7
100
AcDbLine
 10
724.611857
 20
117.126533
 30
0.0
 11
724.639778
 21
116.400601
 31
0.0
  0
LINE
  5
364
330
1F
100
AcDbEntity
  8
1-1
  6
細い実線
 62
     7
100
AcDbLine
 10
724.639778
 20
116.400601
 30
0.0
 11
724.611857
 21
116.037635
 31
0.0
  0
LINE
  5
365
330
1F
100
AcDbEntity
  8
1-1
  6
細い実線
 62
     7
100
AcDbLine
 10
724.611857
 20
116.037635
 30
0.0
 11
724.19305
 21
115.814271
 31
0.0
  0
LINE
  5
366
330
1F
100
AcDbEntity
  8
1-1
  6
細い実線
 62
     7
100
AcDbLine
 10
724.220971
 20
115.842192
 30
0.0
 11
723.861112
 21
115.563919
 31
0.0
  0
LINE
  5
367
330
1F
100
AcDbEntity
  8
1-1
  6
極太の実線
 62
     3
100
AcDbLine
 10
711.06994
 20
117.019952
 30
0.0
 11
719.371101
 21
119.5103
 31
0.0
  0
LINE
  5
368
330
1F
100
AcDbEntity
  8
1-1
  6
極太の実線
 62
     3
100
AcDbLine
 10
719.371101
 20
119.5103
 30
0.0
 11
717.359666
 21
126.215084
 31
0.0
  0
LINE
  5
369
330
1F
100
AcDbEntity
  8
1-1
  6
極太の実線
 62
     3
100
AcDbLine
 10
717.359666
 20
126.215084
 30
0.0
 11
709.058505
 21
123.724736
 31
0.0
  0
LINE
  5
36A
330
1F
100
AcDbEntity
  8
1-1
  6
極太の実線
 62
     3
100
AcDbLine
 10
709.058505
 20
123.724736
 30
0.0
 11
711.06994
 21
117.019952
 31
0.0
  0
LINE
  5
36B
330
1F
100
AcDbEntity
  8
1-1
  6
極太の実線
 62
     3
100
AcDbLine
 10
717.359666
 20
126.215084
 30
0.0
 11
716.689187
 21
124.96991
 31
0.0
  0
LINE
  5
36C
330
1F
100
AcDbEntity
  8
1-1
  6
極太の実線
 62
     3
100
AcDbLine
 10
718.125927
 20
120.180778
 30
0.0
 11
719.371101
 21
119.5103
 31
0.0
  0
LINE
  5
36D
330
1F
100
AcDbEntity
  8
1-1
  6
極太の実線
 62
     3
100
AcDbLine
 10
711.740418
 20
118.265126
 30
0.0
 11
711.06994
 21
117.019952
 31
0.0
  0
LINE
  5
36E
330
1F
100
AcDbEntity
  8
1-1
  6
極太の実線
 62
     3
100
AcDbLine
 10
710.303679
 20
123.054257
 30
0.0
 11
709.058505
 21
123.724736
 31
0.0
  0
INSERT
  5
372
330
1F
100
AcDbEntity
  8
0
100
AcDbBlockReference
  2
BLKF061
 10
0.0
 20
0.0
 30
0.0
  0
INSERT
  5
380
330
1F
100
AcDbEntity
  8
0
100
AcDbBlockReference
  2
BLKF062
 10
0.0
 20
0.0
 30
0.0
  0
LINE
  5
38B
330
1F
100
AcDbEntity
  8
1-1
  6
極太の実線
 62
     3
100
AcDbLine
 10
835.668909
 20
168.512085
 30
0.0
 11
814.835576
 21
168.512085
 31
0.0
  0
LINE
  5
38C
330
1F
100
AcDbEntity
  8
1-1
  6
極太の実線
 62
     3
100
AcDbLine
 10
794.002242
 20
168.512085
 30
0.0
 11
814.835576
 21
168.512085
 31
0.0
  0
LINE
  5
38D
330
1F
100
AcDbEntity
  8
1-1
  6
極太の実線
 62
     3
100
AcDbLine
 10
803.918909
 20
174.954162
 30
0.0
 11
794.002242
 21
173.910131
 31
0.0
  0
LINE
  5
38E
330
1F
100
AcDbEntity
  8
1-1
  6
極太の実線
 62
     3
100
AcDbLine
 10
804.585576
 20
175.650182
 30
0.0
 11
803.918909
 21
174.954162
 31
0.0
  0
LINE
  5
38F
330
1F
100
AcDbEntity
  8
1-1
  6
極太の実線
 62
     3
100
AcDbLine
 10
835.668909
 20
173.910131
 30
0.0
 11
825.752242
 21
174.954162
 31
0.0
  0
LINE
  5
390
330
1F
100
AcDbEntity
  8
1-1
  6
極太の実線
 62
     3
100
AcDbLine
 10
825.752242
 20
174.954162
 30
0.0
 11
825.085576
 21
175.650182
 31
0.0
  0
LINE
  5
391
330
1F
100
AcDbEntity
  8
1-1
  6
極太の実線
 62
     3
100
AcDbLine
 10
835.668909
 20
168.512085
 30
0.0
 11
835.668909
 21
173.910131
 31
0.0
  0
LINE
  5
392
330
1F
100
AcDbEntity
  8
1-1
  6
極太の実線
 62
     3
100
AcDbLine
 10
794.002242
 20
168.512085
 30
0.0
 11
794.002242
 21
173.910131
 31
0.0
  0
LINE
  5
393
330
1F
100
AcDbEntity
  8
1-1
  6
極太の実線
 62
     3
100
AcDbLine
 10
794.002242
 20
172.344085
 30
0.0
 11
835.668909
 21
172.344085
 31
0.0
  0
LINE
  5
394
330
1F
100
AcDbEntity
  8
1-1
  6
極太の実線
 62
     3
100
AcDbLine
 10
794.002242
 20
187.972545
 30
0.0
 11
835.668909
 21
187.972545
 31
0.0
  0
LINE
  5
395
330
1F
100
AcDbEntity
  8
1-1
  6
極太の実線
 62
     3
100
AcDbLine
 10
794.002242
 20
182.606499
 30
0.0
 11
794.002242
 21
187.972545
 31
0.0
  0
LINE
  5
396
330
1F
100
AcDbEntity
  8
1-1
  6
極太の実線
 62
     3
100
AcDbLine
 10
835.668909
 20
182.606499
 30
0.0
 11
835.668909
 21
187.972545
 31
0.0
  0
LINE
  5
397
330
1F
100
AcDbEntity
  8
1-1
  6
極太の実線
 62
     3
100
AcDbLine
 10
804.585576
 20
184.666448
 30
0.0
 11
803.918909
 21
185.362468
 31
0.0
  0
LINE
  5
398
330
1F
100
AcDbEntity
  8
1-1
  6
極太の実線
 62
     3
100
AcDbLine
 10
804.585576
 20
175.650182
 30
0.0
 11
804.585576
 21
184.666448
 31
0.0
  0
LINE
  5
399
330
1F
100
AcDbEntity
  8
1-1
  6
極太の実線
 62
     3
100
AcDbLine
 10
803.918909
 20
185.362468
 30
0.0
 11
794.002242
 21
186.406499
 31
0.0
  0
LINE
  5
39A
330
1F
100
AcDbEntity
  8
1-1
  6
極太の実線
 62
     3
100
AcDbLine
 10
825.752242
 20
185.362468
 30
0.0
 11
825.085576
 21
184.666448
 31
0.0
  0
LINE
  5
39B
330
1F
100
AcDbEntity
  8
1-1
  6
極太の実線
 62
     3
100
AcDbLine
 10
825.085576
 20
175.650182
 30
0.0
 11
825.085576
 21
184.666448
 31
0.0
  0
LINE
  5
39C
330
1F
100
AcDbEntity
  8
1-1
  6
極太の実線
 62
     3
100
AcDbLine
 10
835.668909
 20
186.406499
 30
0.0
 11
825.752242
 21
185.362468
 31
0.0
  0
LINE
  5
39D
330
1F
100
AcDbEntity
  8
1-1
  6
極太の実線
 62
     3
100
AcDbLine
 10
824.641131
 20
180.048196
 30
0.0
 11
825.085576
 21
181.159307
 31
0.0
  0
LINE
  5
39E
330
1F
100
AcDbEntity
  8
1-1
  6
極太の実線
 62
     3
100
AcDbLine
 10
821.863354
 20
180.048196
 30
0.0
 11
821.418909
 21
181.159307
 31
0.0
  0
LINE
  5
39F
330
1F
100
AcDbEntity
  8
1-1
  6
極太の実線
 62
     3
100
AcDbLine
 10
825.085576
 20
181.159307
 30
0.0
 11
825.085576
 21
181.194863
 31
0.0
  0
LINE
  5
3A0
330
1F
100
AcDbEntity
  8
1-1
  6
極太の実線
 62
     3
100
AcDbLine
 10
825.085576
 20
181.194863
 30
0.0
 11
821.418909
 21
181.194863
 31
0.0
  0
LINE
  5
3A1
330
1F
100
AcDbEntity
  8
1-1
  6
極太の実線
 62
     3
100
AcDbLine
 10
821.418909
 20
181.194863
 30
0.0
 11
821.418909
 21
181.159307
 31
0.0
  0
LINE
  5
3A2
330
1F
100
AcDbEntity
  8
1-1
  6
極太の実線
 62
     3
100
AcDbLine
 10
825.085576
 20
180.146599
 30
0.0
 11
825.085576
 21
175.650182
 31
0.0
  0
LINE
  5
3A3
330
1F
100
AcDbEntity
  8
1-1
  6
極太の実線
 62
     3
100
AcDbLine
 10
821.418909
 20
175.651267
 30
0.0
 11
821.418909
 21
181.159307
 31
0.0
  0
LINE
  5
3A4
330
1F
100
AcDbEntity
  8
1-1
  6
極太の実線
 62
     3
100
AcDbLine
 10
825.085576
 20
181.159307
 30
0.0
 11
825.085576
 21
175.955876
 31
0.0
  0
LINE
  5
3A5
330
1F
100
AcDbEntity
  8
1-1
  6
極太の実線
 62
     3
100
AcDbLine
 10
821.418909
 20
175.651267
 30
0.0
 11
825.085576
 21
175.955876
 31
0.0
  0
LINE
  5
3A6
330
1F
100
AcDbEntity
  8
1-1
  6
極太の実線
 62
     3
100
AcDbLine
 10
808.252242
 20
175.651267
 30
0.0
 11
804.585576
 21
175.955876
 31
0.0
  0
LINE
  5
3A7
330
1F
100
AcDbEntity
  8
1-1
  6
極太の実線
 62
     3
100
AcDbLine
 10
805.03002
 20
180.048196
 30
0.0
 11
804.585576
 21
181.159307
 31
0.0
  0
LINE
  5
3A8
330
1F
100
AcDbEntity
  8
1-1
  6
極太の実線
 62
     3
100
AcDbLine
 10
807.807798
 20
180.048196
 30
0.0
 11
808.252242
 21
181.159307
 31
0.0
  0
LINE
  5
3A9
330
1F
100
AcDbEntity
  8
1-1
  6
極太の実線
 62
     3
100
AcDbLine
 10
804.585576
 20
181.507317
 30
0.0
 11
804.585576
 21
181.542873
 31
0.0
  0
LINE
  5
3AA
330
1F
100
AcDbEntity
  8
1-1
  6
極太の実線
 62
     3
100
AcDbLine
 10
804.585576
 20
181.194863
 30
0.0
 11
808.252242
 21
181.194863
 31
0.0
  0
LINE
  5
3AB
330
1F
100
AcDbEntity
  8
1-1
  6
極太の実線
 62
     3
100
AcDbLine
 10
808.252242
 20
181.194863
 30
0.0
 11
808.252242
 21
181.159307
 31
0.0
  0
LINE
  5
3AC
330
1F
100
AcDbEntity
  8
1-1
  6
極太の実線
 62
     3
100
AcDbLine
 10
808.252242
 20
175.651267
 30
0.0
 11
808.252242
 21
181.159307
 31
0.0
  0
LINE
  5
3AD
330
1F
100
AcDbEntity
  8
1-1
  6
極太の実線
 62
     3
100
AcDbLine
 10
804.585576
 20
181.159307
 30
0.0
 11
804.585576
 21
175.955876
 31
0.0
  0
LINE
  5
3AE
330
1F
100
AcDbEntity
  8
1-1
  6
極太の実線
 62
     3
100
AcDbLine
 10
794.002242
 20
182.606499
 30
0.0
 11
803.918909
 21
181.556303
 31
0.0
  0
LINE
  5
3AF
330
1F
100
AcDbEntity
  8
1-1
  6
極太の実線
 62
     3
100
AcDbLine
 10
803.918909
 20
181.556303
 30
0.0
 11
803.918909
 21
185.362468
 31
0.0
  0
LINE
  5
3B0
330
1F
100
AcDbEntity
  8
1-1
  6
極太の実線
 62
     3
100
AcDbLine
 10
803.918909
 20
181.556303
 30
0.0
 11
804.585576
 21
180.860283
 31
0.0
  0
LINE
  5
3B1
330
1F
100
AcDbEntity
  8
1-1
  6
極太の実線
 62
     3
100
AcDbLine
 10
825.752242
 20
181.556303
 30
0.0
 11
825.752242
 21
185.362468
 31
0.0
  0
INSERT
  5
3B5
330
1F
100
AcDbEntity
  8
0
100
AcDbBlockReference
  2
BLKF063
 10
0.0
 20
0.0
 30
0.0
  0
TEXT
  5
3BB
330
1F
100
AcDbEntity
  8
1-1
  6
CONTINUOUS
 62
     7
100
AcDbText
 10
811.230859
 20
162.992904
 30
0.0
 40
2.0
  1
Ａ
 41
0.666667
  7
FX_VECTOR
 72
     5
 11
812.564193
 21
162.992904
 31
0.0
100
AcDbText
  0
INSERT
  5
3BF
330
1F
100
AcDbEntity
  8
0
100
AcDbBlockReference
  2
BLKF064
 10
0.0
 20
0.0
 30
0.0
  0
TEXT
  5
3C5
330
1F
100
AcDbEntity
  8
1-1
  6
CONTINUOUS
 62
     7
100
AcDbText
 10
810.884635
 20
192.240658
 30
0.0
 40
2.0
  1
Ａ
 41
0.666667
  7
FX_VECTOR
 72
     5
 11
812.217969
 21
192.240658
 31
0.0
100
AcDbText
  0
INSERT
  5
3C9
330
1F
100
AcDbEntity
  8
0
100
AcDbBlockReference
  2
BLKF065
 10
0.0
 20
0.0
 30
0.0
  0
INSERT
  5
3D7
330
1F
100
AcDbEntity
  8
0
100
AcDbBlockReference
  2
BLKF066
 10
0.0
 20
0.0
 30
0.0
  0
INSERT
  5
3E5
330
1F
100
AcDbEntity
  8
0
100
AcDbBlockReference
  2
BLKF067
 10
0.0
 20
0.0
 30
0.0
  0
INSERT
  5
3F2
330
1F
100
AcDbEntity
  8
0
100
AcDbBlockReference
  2
BLKF068
 10
0.0
 20
0.0
 30
0.0
  0
INSERT
  5
3FF
330
1F
100
AcDbEntity
  8
0
100
AcDbBlockReference
  2
BLKF069
 10
0.0
 20
0.0
 30
0.0
  0
INSERT
  5
40C
330
1F
100
AcDbEntity
  8
0
100
AcDbBlockReference
  2
BLKF070
 10
0.0
 20
0.0
 30
0.0
  0
INSERT
  5
419
330
1F
100
AcDbEntity
  8
0
100
AcDbBlockReference
  2
BLKF071
 10
0.0
 20
0.0
 30
0.0
  0
INSERT
  5
427
330
1F
100
AcDbEntity
  8
0
100
AcDbBlockReference
  2
BLKF072
 10
0.0
 20
0.0
 30
0.0
  0
INSERT
  5
434
330
1F
100
AcDbEntity
  8
0
100
AcDbBlockReference
  2
BLKF073
 10
0.0
 20
0.0
 30
0.0
  0
INSERT
  5
442
330
1F
100
AcDbEntity
  8
0
100
AcDbBlockReference
  2
BLKF074
 10
0.0
 20
0.0
 30
0.0
  0
INSERT
  5
44F
330
1F
100
AcDbEntity
  8
0
100
AcDbBlockReference
  2
BLKF075
 10
0.0
 20
0.0
 30
0.0
  0
LINE
  5
459
330
1F
100
AcDbEntity
  8
1-1
  6
極太の実線
 62
     3
100
AcDbLine
 10
821.863354
 20
175.688189
 30
0.0
 11
821.863354
 21
180.048196
 31
0.0
  0
LINE
  5
45A
330
1F
100
AcDbEntity
  8
1-1
  6
極太の実線
 62
     3
100
AcDbLine
 10
821.863354
 20
180.048196
 30
0.0
 11
824.641131
 21
180.048196
 31
0.0
  0
LINE
  5
45B
330
1F
100
AcDbEntity
  8
1-1
  6
極太の実線
 62
     3
100
AcDbLine
 10
824.641131
 20
180.048196
 30
0.0
 11
824.641131
 21
175.918953
 31
0.0
  0
LINE
  5
45C
330
1F
100
AcDbEntity
  8
1-1
  6
極太の実線
 62
     3
100
AcDbLine
 10
805.03002
 20
175.918953
 30
0.0
 11
805.03002
 21
180.048196
 31
0.0
  0
LINE
  5
45D
330
1F
100
AcDbEntity
  8
1-1
  6
極太の実線
 62
     3
100
AcDbLine
 10
805.03002
 20
180.048196
 30
0.0
 11
807.807798
 21
180.048196
 31
0.0
  0
LINE
  5
45E
330
1F
100
AcDbEntity
  8
1-1
  6
極太の実線
 62
     3
100
AcDbLine
 10
807.807798
 20
180.048196
 30
0.0
 11
807.807798
 21
175.688189
 31
0.0
  0
LINE
  5
45F
330
1F
100
AcDbEntity
  8
1-1
  6
極太の実線
 62
     3
100
AcDbLine
 10
825.085576
 20
181.507317
 30
0.0
 11
825.085576
 21
181.542873
 31
0.0
  0
LINE
  5
460
330
1F
100
AcDbEntity
  8
1-1
  6
極太の実線
 62
     3
100
AcDbLine
 10
835.668909
 20
182.606499
 30
0.0
 11
825.752242
 21
181.556303
 31
0.0
  0
LINE
  5
461
330
1F
100
AcDbEntity
  8
1-1
  6
極太の実線
 62
     3
100
AcDbLine
 10
825.752242
 20
181.556303
 30
0.0
 11
825.085576
 21
180.860283
 31
0.0
  0
LINE
  5
462
330
1F
100
AcDbEntity
  8
1-1
  6
極太の実線
 62
     3
100
AcDbLine
 10
821.418909
 20
179.421478
 30
0.0
 11
821.418909
 21
179.385923
 31
0.0
  0
LINE
  5
463
330
1F
100
AcDbEntity
  8
1-1
  6
極太の実線
 62
     3
100
AcDbLine
 10
808.252242
 20
179.421478
 30
0.0
 11
808.252242
 21
179.385923
 31
0.0
  0
LINE
  5
464
330
1F
100
AcDbEntity
  8
1-1
  6
極太の実線
 62
     3
100
AcDbLine
 10
809.252242
 20
182.780504
 30
0.0
 11
809.252242
 21
181.816008
 31
0.0
  0
LINE
  5
465
330
1F
100
AcDbEntity
  8
1-1
  6
極太の実線
 62
     3
100
AcDbLine
 10
808.252242
 20
184.577035
 30
0.0
 11
809.252242
 21
182.780504
 31
0.0
  0
LINE
  5
466
330
1F
100
AcDbEntity
  8
1-1
  6
極太の実線
 62
     3
100
AcDbLine
 10
810.195051
 20
183.736474
 30
0.0
 11
819.4761
 21
183.736474
 31
0.0
  0
LINE
  5
467
330
1F
100
AcDbEntity
  8
1-1
  6
極太の実線
 62
     3
100
AcDbLine
 10
810.255712
 20
182.793665
 30
0.0
 11
819.41544
 21
182.793665
 31
0.0
  0
LINE
  5
468
330
1F
100
AcDbEntity
  8
1-1
  6
極太の実線
 62
     3
100
AcDbLine
 10
809.252242
 20
182.780504
 30
0.0
 11
810.195051
 21
183.736474
 31
0.0
  0
LINE
  5
469
330
1F
100
AcDbEntity
  8
1-1
  6
極太の実線
 62
     3
100
AcDbLine
 10
810.195051
 20
183.736474
 30
0.0
 11
810.255712
 21
182.793665
 31
0.0
  0
LINE
  5
46A
330
1F
100
AcDbEntity
  8
1-1
  6
極太の実線
 62
     3
100
AcDbLine
 10
808.72827
 20
182.036912
 30
0.0
 11
809.252242
 21
181.816008
 31
0.0
  0
LINE
  5
46B
330
1F
100
AcDbEntity
  8
1-1
  6
極太の実線
 62
     3
100
AcDbLine
 10
808.719763
 20
181.257716
 30
0.0
 11
810.255712
 21
182.793665
 31
0.0
  0
LINE
  5
46C
330
1F
100
AcDbEntity
  8
1-1
  6
極太の実線
 62
     3
100
AcDbLine
 10
808.72827
 20
181.595104
 30
0.0
 11
809.252242
 21
181.816008
 31
0.0
  0
LINE
  5
46D
330
1F
100
AcDbEntity
  8
1-1
  6
極太の実線
 62
     3
100
AcDbLine
 10
820.418909
 20
182.780504
 30
0.0
 11
820.41891
 21
181.816008
 31
0.0
  0
LINE
  5
46E
330
1F
100
AcDbEntity
  8
1-1
  6
極太の実線
 62
     3
100
AcDbLine
 10
821.418909
 20
184.577035
 30
0.0
 11
820.418909
 21
182.780504
 31
0.0
  0
LINE
  5
46F
330
1F
100
AcDbEntity
  8
1-1
  6
極太の実線
 62
     3
100
AcDbLine
 10
820.418909
 20
182.780504
 30
0.0
 11
819.4761
 21
183.736474
 31
0.0
  0
LINE
  5
470
330
1F
100
AcDbEntity
  8
1-1
  6
極太の実線
 62
     3
100
AcDbLine
 10
819.4761
 20
183.736474
 30
0.0
 11
819.41544
 21
182.793665
 31
0.0
  0
LINE
  5
471
330
1F
100
AcDbEntity
  8
1-1
  6
極太の実線
 62
     3
100
AcDbLine
 10
820.942881
 20
182.036912
 30
0.0
 11
820.41891
 21
181.816008
 31
0.0
  0
LINE
  5
472
330
1F
100
AcDbEntity
  8
1-1
  6
極太の実線
 62
     3
100
AcDbLine
 10
820.942881
 20
181.595104
 30
0.0
 11
820.41891
 21
181.816008
 31
0.0
  0
LINE
  5
473
330
1F
100
AcDbEntity
  8
1-1
  6
極太の実線
 62
     3
100
AcDbLine
 10
820.951389
 20
181.257716
 30
0.0
 11
819.41544
 21
182.793665
 31
0.0
  0
LINE
  5
474
330
1F
100
AcDbEntity
  8
1-1
  6
極太の実線
 62
     3
100
AcDbLine
 10
819.41544
 20
186.580504
 30
0.0
 11
810.255712
 21
186.580504
 31
0.0
  0
LINE
  5
475
330
1F
100
AcDbEntity
  8
1-1
  6
極太の実線
 62
     3
100
AcDbLine
 10
808.252242
 20
184.577035
 30
0.0
 11
810.255712
 21
186.580504
 31
0.0
  0
LINE
  5
476
330
1F
100
AcDbEntity
  8
1-1
  6
極太の実線
 62
     3
100
AcDbLine
 10
810.255712
 20
186.580504
 30
0.0
 11
810.195051
 21
183.736474
 31
0.0
  0
LINE
  5
477
330
1F
100
AcDbEntity
  8
1-1
  6
極太の実線
 62
     3
100
AcDbLine
 10
821.418909
 20
184.577035
 30
0.0
 11
819.41544
 21
186.580504
 31
0.0
  0
LINE
  5
478
330
1F
100
AcDbEntity
  8
1-1
  6
極太の実線
 62
     3
100
AcDbLine
 10
819.41544
 20
186.580504
 30
0.0
 11
819.4761
 21
183.736474
 31
0.0
  0
LINE
  5
479
330
1F
100
AcDbEntity
  8
1-1
  6
極太の実線
 62
     3
100
AcDbLine
 10
808.252242
 20
175.751764
 30
0.0
 11
808.252242
 21
184.577035
 31
0.0
  0
LINE
  5
47A
330
1F
100
AcDbEntity
  8
1-1
  6
極太の実線
 62
     3
100
AcDbLine
 10
821.418909
 20
175.751764
 30
0.0
 11
821.418909
 21
184.577035
 31
0.0
  0
LINE
  5
47B
330
1F
100
AcDbEntity
  8
1-1
  6
極太の実線
 62
     3
100
AcDbLine
 10
821.030032
 20
175.795077
 30
0.0
 11
820.942881
 21
182.036912
 31
0.0
  0
LINE
  5
47C
330
1F
100
AcDbEntity
  8
1-1
  6
極太の実線
 62
     3
100
AcDbLine
 10
808.64112
 20
175.795077
 30
0.0
 11
808.72827
 21
182.036912
 31
0.0
  0
LINE
  5
47D
330
1F
100
AcDbEntity
  8
1-1
  6
極太の実線
 62
     3
100
AcDbLine
 10
810.243578
 20
173.736126
 30
0.0
 11
819.427574
 21
173.736126
 31
0.0
  0
LINE
  5
47E
330
1F
100
AcDbEntity
  8
1-1
  6
極太の実線
 62
     3
100
AcDbLine
 10
808.252242
 20
175.751764
 30
0.0
 11
810.243578
 21
173.736126
 31
0.0
  0
LINE
  5
47F
330
1F
100
AcDbEntity
  8
1-1
  6
極太の実線
 62
     3
100
AcDbLine
 10
808.64112
 20
175.795077
 30
0.0
 11
809.252242
 21
175.537431
 31
0.0
  0
LINE
  5
480
330
1F
100
AcDbEntity
  8
1-1
  6
極太の実線
 62
     3
100
AcDbLine
 10
809.252242
 20
175.537431
 30
0.0
 11
809.252242
 21
174.739561
 31
0.0
  0
LINE
  5
481
330
1F
100
AcDbEntity
  8
1-1
  6
極太の実線
 62
     3
100
AcDbLine
 10
821.030032
 20
175.795077
 30
0.0
 11
820.418909
 21
175.537431
 31
0.0
  0
LINE
  5
482
330
1F
100
AcDbEntity
  8
1-1
  6
極太の実線
 62
     3
100
AcDbLine
 10
820.418909
 20
175.537431
 30
0.0
 11
820.41891
 21
174.739561
 31
0.0
  0
LINE
  5
483
330
1F
100
AcDbEntity
  8
1-1
  6
極太の実線
 62
     3
100
AcDbLine
 10
821.418909
 20
175.751764
 30
0.0
 11
819.427574
 21
173.736126
 31
0.0
  0
LINE
  5
484
330
1F
100
AcDbEntity
  8
1-1
  6
極太の実線
 62
     3
100
AcDbLine
 10
826.679957
 20
115.193696
 30
0.0
 11
842.340417
 21
115.193696
 31
0.0
  0
LINE
  5
485
330
1F
100
AcDbEntity
  8
1-1
  6
極太の実線
 62
     3
100
AcDbLine
 10
842.340417
 20
115.193696
 30
0.0
 11
846.140417
 21
127.860363
 31
0.0
  0
LINE
  5
486
330
1F
100
AcDbEntity
  8
1-1
  6
極太の実線
 62
     3
100
AcDbLine
 10
830.511957
 20
127.96703
 30
0.0
 11
826.679957
 21
115.193696
 31
0.0
  0
LINE
  5
487
330
1F
100
AcDbEntity
  8
1-1
  6
極太の実線
 62
     3
100
AcDbLine
 10
844.221959
 20
127.860363
 30
0.0
 11
841.904345
 21
121.860363
 31
0.0
  0
LINE
  5
488
330
1F
100
AcDbEntity
  8
1-1
  6
極太の実線
 62
     3
100
AcDbLine
 10
841.904345
 20
121.860363
 30
0.0
 11
840.426361
 21
115.193696
 31
0.0
  0
LINE
  5
489
330
1F
100
AcDbEntity
  8
1-1
  6
極太の実線
 62
     3
100
AcDbLine
 10
828.594013
 20
115.193696
 30
0.0
 11
831.116029
 21
121.860363
 31
0.0
  0
LINE
  5
48A
330
1F
100
AcDbEntity
  8
1-1
  6
極太の実線
 62
     3
100
AcDbLine
 10
831.116029
 20
121.860363
 30
0.0
 11
832.425815
 21
127.96703
 31
0.0
  0
LINE
  5
48B
330
1F
100
AcDbEntity
  8
1-1
  6
極太の実線
 62
     3
100
AcDbLine
 10
833.849388
 20
131.300363
 30
0.0
 11
833.819139
 21
127.96703
 31
0.0
  0
LINE
  5
48C
330
1F
100
AcDbEntity
  8
1-1
  6
極太の実線
 62
     3
100
AcDbLine
 10
839.327179
 20
127.96703
 30
0.0
 11
839.362734
 21
127.860363
 31
0.0
  0
LINE
  5
48D
330
1F
100
AcDbEntity
  8
1-1
  6
極太の実線
 62
     3
100
AcDbLine
 10
846.140417
 20
127.860363
 30
0.0
 11
839.362734
 21
127.860363
 31
0.0
  0
LINE
  5
48E
330
1F
100
AcDbEntity
  8
1-1
  6
極太の実線
 62
     3
100
AcDbLine
 10
840.348457
 20
123.054257
 30
0.0
 11
833.962949
 21
124.96991
 31
0.0
  0
LINE
  5
48F
330
1F
100
AcDbEntity
  8
1-1
  6
極太の実線
 62
     3
100
AcDbLine
 10
833.962949
 20
124.96991
 30
0.0
 11
832.526209
 21
120.180778
 31
0.0
  0
LINE
  5
490
330
1F
100
AcDbEntity
  8
1-1
  6
極太の実線
 62
     3
100
AcDbLine
 10
832.526209
 20
120.180778
 30
0.0
 11
838.911718
 21
118.265126
 31
0.0
  0
LINE
  5
491
330
1F
100
AcDbEntity
  8
1-1
  6
極太の実線
 62
     3
100
AcDbLine
 10
838.911718
 20
118.265126
 30
0.0
 11
840.348457
 21
123.054257
 31
0.0
  0
LINE
  5
492
330
1F
100
AcDbEntity
  8
1-1
  6
極太の実線
 62
     3
100
AcDbLine
 10
830.511957
 20
127.96703
 30
0.0
 11
839.327179
 21
127.96703
 31
0.0
  0
LINE
  5
493
330
1F
100
AcDbEntity
  8
1-1
  6
細い実線
 62
     7
100
AcDbLine
 10
827.075769
 20
119.916941
 30
0.0
 11
827.075769
 21
120.060912
 31
0.0
  0
LINE
  5
494
330
1F
100
AcDbEntity
  8
1-1
  6
細い実線
 62
     7
100
AcDbLine
 10
827.075769
 20
120.060912
 30
0.0
 11
827.231738
 21
120.800765
 31
0.0
  0
LINE
  5
495
330
1F
100
AcDbEntity
  8
1-1
  6
細い実線
 62
     7
100
AcDbLine
 10
827.231738
 20
120.800765
 30
0.0
 11
828.011583
 21
123.448237
 31
0.0
  0
LINE
  5
496
330
1F
100
AcDbEntity
  8
1-1
  6
細い実線
 62
     7
100
AcDbLine
 10
828.011583
 20
123.448237
 30
0.0
 11
828.300832
 21
124.790876
 31
0.0
  0
LINE
  5
497
330
1F
100
AcDbEntity
  8
1-1
  6
細い実線
 62
     7
100
AcDbLine
 10
828.300832
 20
124.790876
 30
0.0
 11
828.533624
 21
125.504173
 31
0.0
  0
LINE
  5
498
330
1F
100
AcDbEntity
  8
1-1
  6
細い実線
 62
     7
100
AcDbLine
 10
828.533624
 20
125.504173
 30
0.0
 11
828.826105
 21
126.438324
 31
0.0
  0
LINE
  5
499
330
1F
100
AcDbEntity
  8
1-1
  6
細い実線
 62
     7
100
AcDbLine
 10
828.826105
 20
126.438324
 30
0.0
 11
829.175293
 21
127.482901
 31
0.0
  0
LINE
  5
49A
330
1F
100
AcDbEntity
  8
1-1
  6
細い実線
 62
     7
100
AcDbLine
 10
829.175293
 20
127.482901
 30
0.0
 11
829.408084
 21
127.814181
 31
0.0
  0
LINE
  5
49B
330
1F
100
AcDbEntity
  8
1-1
  6
細い実線
 62
     7
100
AcDbLine
 10
829.408084
 20
127.814181
 30
0.0
 11
829.933357
 21
127.593327
 31
0.0
  0
LINE
  5
49C
330
1F
100
AcDbEntity
  8
1-1
  6
細い実線
 62
     7
100
AcDbLine
 10
827.075769
 20
119.916941
 30
0.0
 11
827.075769
 21
120.060912
 31
0.0
  0
LINE
  5
49D
330
1F
100
AcDbEntity
  8
1-1
  6
細い実線
 62
     7
100
AcDbLine
 10
827.075769
 20
120.060912
 30
0.0
 11
827.231738
 21
120.800765
 31
0.0
  0
LINE
  5
49E
330
1F
100
AcDbEntity
  8
1-1
  6
細い実線
 62
     7
100
AcDbLine
 10
827.231738
 20
120.800765
 30
0.0
 11
828.011583
 21
123.448237
 31
0.0
  0
LINE
  5
49F
330
1F
100
AcDbEntity
  8
1-1
  6
細い実線
 62
     7
100
AcDbLine
 10
828.011583
 20
123.448237
 30
0.0
 11
828.300832
 21
124.790876
 31
0.0
  0
LINE
  5
4A0
330
1F
100
AcDbEntity
  8
1-1
  6
細い実線
 62
     7
100
AcDbLine
 10
828.300832
 20
124.790876
 30
0.0
 11
828.533624
 21
125.504173
 31
0.0
  0
LINE
  5
4A1
330
1F
100
AcDbEntity
  8
1-1
  6
細い実線
 62
     7
100
AcDbLine
 10
828.533624
 20
125.504173
 30
0.0
 11
828.826105
 21
126.438324
 31
0.0
  0
LINE
  5
4A2
330
1F
100
AcDbEntity
  8
1-1
  6
細い実線
 62
     7
100
AcDbLine
 10
828.826105
 20
126.438324
 30
0.0
 11
829.175293
 21
127.482901
 31
0.0
  0
LINE
  5
4A3
330
1F
100
AcDbEntity
  8
1-1
  6
細い実線
 62
     7
100
AcDbLine
 10
829.175293
 20
127.482901
 30
0.0
 11
829.408084
 21
127.814181
 31
0.0
  0
LINE
  5
4A4
330
1F
100
AcDbEntity
  8
1-1
  6
細い実線
 62
     7
100
AcDbLine
 10
829.408084
 20
127.814181
 30
0.0
 11
829.933357
 21
127.593327
 31
0.0
  0
LINE
  5
4A5
330
1F
100
AcDbEntity
  8
1-1
  6
細い実線
 62
     7
100
AcDbLine
 10
829.933357
 20
127.593327
 30
0.0
 11
830.418907
 21
127.656864
 31
0.0
  0
INSERT
  5
4A9
330
1F
100
AcDbEntity
  8
0
100
AcDbBlockReference
  2
BLKF076
 10
0.0
 20
0.0
 30
0.0
  0
INSERT
  5
4B7
330
1F
100
AcDbEntity
  8
0
100
AcDbBlockReference
  2
BLKF077
 10
0.0
 20
0.0
 30
0.0
  0
INSERT
  5
4C5
330
1F
100
AcDbEntity
  8
0
100
AcDbBlockReference
  2
BLKF078
 10
0.0
 20
0.0
 30
0.0
  0
INSERT
  5
4D2
330
1F
100
AcDbEntity
  8
0
100
AcDbBlockReference
  2
BLKF079
 10
0.0
 20
0.0
 30
0.0
  0
INSERT
  5
4DF
330
1F
100
AcDbEntity
  8
0
100
AcDbBlockReference
  2
BLKF080
 10
0.0
 20
0.0
 30
0.0
  0
INSERT
  5
4ED
330
1F
100
AcDbEntity
  8
0
100
AcDbBlockReference
  2
BLKF081
 10
0.0
 20
0.0
 30
0.0
  0
INSERT
  5
4FB
330
1F
100
AcDbEntity
  8
0
100
AcDbBlockReference
  2
BLKF082
 10
0.0
 20
0.0
 30
0.0
  0
INSERT
  5
508
330
1F
100
AcDbEntity
  8
0
100
AcDbBlockReference
  2
BLKF083
 10
0.0
 20
0.0
 30
0.0
  0
INSERT
  5
516
330
1F
100
AcDbEntity
  8
0
100
AcDbBlockReference
  2
BLKF084
 10
0.0
 20
0.0
 30
0.0
  0
INSERT
  5
524
330
1F
100
AcDbEntity
  8
0
100
AcDbBlockReference
  2
BLKF085
 10
0.0
 20
0.0
 30
0.0
  0
LINE
  5
52F
330
1F
100
AcDbEntity
  8
1-1
  6
細い実線
 62
     7
100
AcDbLine
 10
833.819139
 20
131.860363
 30
0.0
 11
833.819139
 21
136.860363
 31
0.0
  0
LINE
  5
530
330
1F
100
AcDbEntity
  8
1-1
  6
極太の実線
 62
     3
100
AcDbLine
 10
833.849388
 20
131.300363
 30
0.0
 11
838.216068
 21
131.300363
 31
0.0
  0
LINE
  5
531
330
1F
100
AcDbEntity
  8
1-1
  6
極太の実線
 62
     3
100
AcDbLine
 10
839.362734
 20
127.860363
 30
0.0
 11
838.216068
 21
131.300363
 31
0.0
  0
INSERT
  5
535
330
1F
100
AcDbEntity
  8
0
100
AcDbBlockReference
  2
BLKF086
 10
0.0
 20
0.0
 30
0.0
  0
LINE
  5
540
330
1F
100
AcDbEntity
  8
1-1
  6
極太の実線
 62
     3
100
AcDbLine
 10
838.422891
 20
115.193696
 30
0.0
 11
840.961536
 21
121.860363
 31
0.0
  0
LINE
  5
541
330
1F
100
AcDbEntity
  8
1-1
  6
極太の実線
 62
     3
100
AcDbLine
 10
840.961536
 20
121.860363
 30
0.0
 11
841.904345
 21
121.860363
 31
0.0
  0
LINE
  5
542
330
1F
100
AcDbEntity
  8
1-1
  6
極太の実線
 62
     3
100
AcDbLine
 10
842.21849
 20
127.860363
 30
0.0
 11
840.961536
 21
121.860363
 31
0.0
  0
LINE
  5
543
330
1F
100
AcDbEntity
  8
1-1
  6
極太の実線
 62
     3
100
AcDbLine
 10
834.429284
 20
127.96703
 30
0.0
 11
832.058838
 21
121.860363
 31
0.0
  0
LINE
  5
544
330
1F
100
AcDbEntity
  8
1-1
  6
極太の実線
 62
     3
100
AcDbLine
 10
832.058838
 20
121.860363
 30
0.0
 11
831.116029
 21
121.860363
 31
0.0
  0
LINE
  5
545
330
1F
100
AcDbEntity
  8
1-1
  6
極太の実線
 62
     3
100
AcDbLine
 10
832.058838
 20
121.860363
 30
0.0
 11
830.597482
 21
115.193696
 31
0.0
  0
LINE
  5
546
330
1F
100
AcDbEntity
  8
1-1
  6
極太の実線
 62
     3
100
AcDbLine
 10
834.429284
 20
127.96703
 30
0.0
 11
833.819139
 21
127.96703
 31
0.0
  0
INSERT
  5
54A
330
1F
100
AcDbEntity
  8
0
100
AcDbBlockReference
  2
BLKF087
 10
0.0
 20
0.0
 30
0.0
  0
INSERT
  5
558
330
1F
100
AcDbEntity
  8
0
100
AcDbBlockReference
  2
BLKF088
 10
0.0
 20
0.0
 30
0.0
  0
INSERT
  5
566
330
1F
100
AcDbEntity
  8
0
100
AcDbBlockReference
  2
BLKF089
 10
0.0
 20
0.0
 30
0.0
  0
INSERT
  5
574
330
1F
100
AcDbEntity
  8
0
100
AcDbBlockReference
  2
BLKF090
 10
0.0
 20
0.0
 30
0.0
  0
INSERT
  5
582
330
1F
100
AcDbEntity
  8
0
100
AcDbBlockReference
  2
BLKF091
 10
0.0
 20
0.0
 30
0.0
  0
INSERT
  5
590
330
1F
100
AcDbEntity
  8
0
100
AcDbBlockReference
  2
BLKF092
 10
0.0
 20
0.0
 30
0.0
  0
INSERT
  5
59E
330
1F
100
AcDbEntity
  8
0
100
AcDbBlockReference
  2
BLKF093
 10
0.0
 20
0.0
 30
0.0
  0
INSERT
  5
5AC
330
1F
100
AcDbEntity
  8
0
100
AcDbBlockReference
  2
BLKF094
 10
0.0
 20
0.0
 30
0.0
  0
LINE
  5
5B7
330
1F
100
AcDbEntity
  8
1-1
  6
細い実線
 62
     7
100
AcDbLine
 10
827.075769
 20
119.916941
 30
0.0
 11
826.849973
 21
119.388091
 31
0.0
  0
LINE
  5
5B8
330
1F
100
AcDbEntity
  8
1-1
  6
細い実線
 62
     7
100
AcDbLine
 10
826.849973
 20
119.388091
 30
0.0
 11
826.514927
 21
118.410874
 31
0.0
  0
LINE
  5
5B9
330
1F
100
AcDbEntity
  8
1-1
  6
細い実線
 62
     7
100
AcDbLine
 10
826.514927
 20
118.410874
 30
0.0
 11
826.040279
 21
117.126533
 31
0.0
  0
LINE
  5
5BA
330
1F
100
AcDbEntity
  8
1-1
  6
細い実線
 62
     7
100
AcDbLine
 10
826.040279
 20
117.126533
 30
0.0
 11
826.012359
 21
116.400601
 31
0.0
  0
LINE
  5
5BB
330
1F
100
AcDbEntity
  8
1-1
  6
細い実線
 62
     7
100
AcDbLine
 10
826.012359
 20
116.400601
 30
0.0
 11
826.040279
 21
116.037635
 31
0.0
  0
LINE
  5
5BC
330
1F
100
AcDbEntity
  8
1-1
  6
細い実線
 62
     7
100
AcDbLine
 10
826.040279
 20
116.037635
 30
0.0
 11
826.459086
 21
115.814271
 31
0.0
  0
LINE
  5
5BD
330
1F
100
AcDbEntity
  8
1-1
  6
細い実線
 62
     7
100
AcDbLine
 10
826.431166
 20
115.842192
 30
0.0
 11
826.791024
 21
115.563919
 31
0.0
  0
ENDSEC
  0
SECTION
  2
OBJECTS
  0
DICTIONARY
  5
C
330
0
100
AcDbDictionary
  3
ACAD_GROUP
350
D
  3
ACAD_LAYOUT
350
1A
  3
ACAD_MLINESTYLE
350
17
  3
ACAD_PLOTSETTINGS
350
19
1001
ACAD
1000
TREAT_AS_HARD
1070
     0
  0
DICTIONARY
  5
5C4
330
29
100
AcDbDictionary
  3
ACAD_XREC_ROUNDTRIP
360
5C5
  0
DICTIONARY
  5
D
102
{ACAD_REACTORS
330
C
102
}
330
C
100
AcDbDictionary
1001
ACAD
1000
TREAT_AS_HARD
1070
     0
  0
DICTIONARY
  5
1A
102
{ACAD_REACTORS
330
C
102
}
330
C
100
AcDbDictionary
1001
ACAD
1000
TREAT_AS_HARD
1070
     0
  0
DICTIONARY
  5
17
102
{ACAD_REACTORS
330
C
102
}
330
C
100
AcDbDictionary
  3
STANDARD
350
18
1001
ACAD
1000
TREAT_AS_HARD
1070
     0
  0
DICTIONARY
  5
19
102
{ACAD_REACTORS
330
C
102
}
330
C
100
AcDbDictionary
1001
ACAD
1000
TREAT_AS_HARD
1070
     0
  0
XRECORD
  5
5C5
102
{ACAD_REACTORS
330
5C4
102
}
330
5C4
100
AcDbXrecord
102
UCS
 74
     0
 71
     1
 10
0.0
 20
0.0
 30
0.0
 10
1.0
 20
0.0
 30
0.0
 10
0.0
 20
1.0
 30
0.0
146
0.0
 79
     0
102
VIEW
281
     0
  0
MLINESTYLE
  5
18
102
{ACAD_REACTORS
330
17
102
}
330
17
100
AcDbMlineStyle
  2
Standard
 70
     0
  3

 62
   256
 51
90.0
 52
90.0
 71
     2
 49
0.5
 62
   256
  6
BYLAYER
 49
-0.5
 62
   256
  6
BYLAYER
  0
ENDSEC
  0
EOF
