  0
SECTION
  2
HEADER
  9
$ACADVER
  1
AC1012
  9
$DWGCODEPAGE
  3
ansi_932
  9
$INSBASE
 10
591.720957
 20
8.11036
 30
0.0
  9
$EXTMIN
 10
591.720957
 20
8.11036
 30
0.0
  9
$EXTMAX
 10
962.970964
 20
270.610366
 30
0.0
  9
$LIMMIN
 10
591.720957
 20
8.11036
  9
$LIMMAX
 10
962.970964
 20
270.610366
  9
$ORTHOMODE
 70
     0
  9
$REGENMODE
 70
     1
  9
$FILLMODE
 70
     1
  9
$QTEXTMODE
 70
     0
  9
$MIRRTEXT
 70
     1
  9
$DRAGMODE
 70
     2
  9
$LTSCALE
 40
1.0
  9
$OSMODE
 70
    37
  9
$ATTMODE
 70
     1
  9
$TEXTSIZE
 40
0.2
  9
$TRACEWID
 40
0.05
  9
$TEXTSTYLE
  7
STYLE1
  9
$CLAYER
  8
0
  9
$CELTYPE
  6
BYLAYER
  9
$CECOLOR
 62
   256
  9
$CELTSCALE
 40
1.0
  9
$DELOBJ
 70
     1
  9
$DISPSILH
 70
     0
  9
$DIMSCALE
 40
1.0
  9
$DIMASZ
 40
2.0
  9
$DIMEXO
 40
2.0
  9
$DIMDLI
 40
7.0
  9
$DIMRND
 40
0.0
  9
$DIMDLE
 40
6.0
  9
$DIMEXE
 40
1.0
  9
$DIMTP
 40
0.0
  9
$DIMTM
 40
0.0
  9
$DIMTXT
 40
2.0
  9
$DIMCEN
 40
2.5
  9
$DIMTSZ
 40
0.0
  9
$DIMTOL
 70
     0
  9
$DIMLIM
 70
     0
  9
$DIMTIH
 70
     0
  9
$DIMTOH
 70
     0
  9
$DIMSE1
 70
     0
  9
$DIMSE2
 70
     0
  9
$DIMTAD
 70
     1
  9
$DIMZIN
 70
     8
  9
$DIMBLK
  1

  9
$DIMASO
 70
     1
  9
$DIMSHO
 70
     1
  9
$DIMPOST
  1

  9
$DIMAPOST
  1

  9
$DIMALT
 70
     0
  9
$DIMALTD
 70
     3
  9
$DIMALTF
 40
0.03937
  9
$DIMLFAC
 40
1.0
  9
$DIMTOFL
 70
     1
  9
$DIMTVP
 40
0.0
  9
$DIMTIX
 70
     0
  9
$DIMSOXD
 70
     0
  9
$DIMSAH
 70
     1
  9
$DIMBLK1
  1
FXTIP_ARROW_S
  9
$DIMBLK2
  1
FXTIP_ARROW_E
  9
$DIMSTYLE
  2
FXDIMINFO
  9
$DIMCLRD
 70
     7
  9
$DIMCLRE
 70
     7
  9
$DIMCLRT
 70
     7
  9
$DIMTFAC
 40
1.0
  9
$DIMGAP
 40
1.0
  9
$DIMJUST
 70
     0
  9
$DIMSD1
 70
     0
  9
$DIMSD2
 70
     0
  9
$DIMTOLJ
 70
     0
  9
$DIMTZIN
 70
     8
  9
$DIMALTZ
 70
     0
  9
$DIMALTTZ
 70
     0
  9
$DIMFIT
 70
     3
  9
$DIMUPT
 70
     0
  9
$DIMUNIT
 70
     2
  9
$DIMDEC
 70
     2
  9
$DIMTDEC
 70
     2
  9
$DIMALTU
 70
     2
  9
$DIMALTTD
 70
     3
  9
$DIMTXSTY
  7
STYLE1
  9
$DIMAUNIT
 70
     0
  9
$LUNITS
 70
     2
  9
$LUPREC
 70
     4
  9
$SKETCHINC
 40
0.1
  9
$FILLETRAD
 40
0.5
  9
$AUNITS
 70
     0
  9
$AUPREC
 70
     0
  9
$MENU
  1
.
  9
$ELEVATION
 40
0.0
  9
$PELEVATION
 40
0.0
  9
$THICKNESS
 40
0.0
  9
$LIMCHECK
 70
     0
  9
$CHAMFERA
 40
0.5
  9
$CHAMFERB
 40
0.5
  9
$CHAMFERC
 40
1.0
  9
$CHAMFERD
 40
0.0
  9
$SKPOLY
 70
     0
  9
$TDCREATE
 40
2455573.733617072
  9
$TDUPDATE
 40
2455573.733617083
  9
$TDINDWG
 40
0.0000000116
  9
$TDUSRTIMER
 40
0.0000000116
  9
$USRTIMER
 70
     1
  9
$ANGBASE
 50
0.0
  9
$ANGDIR
 70
     0
  9
$PDMODE
 70
     0
  9
$PDSIZE
 40
0.0
  9
$PLINEWID
 40
0.0
  9
$COORDS
 70
     1
  9
$SPLFRAME
 70
     0
  9
$SPLINETYPE
 70
     6
  9
$SPLINESEGS
 70
     8
  9
$ATTDIA
 70
     0
  9
$ATTREQ
 70
     1
  9
$HANDLING
 70
     1
  9
$HANDSEED
  5
30A
  9
$SURFTAB1
 70
     6
  9
$SURFTAB2
 70
     6
  9
$SURFTYPE
 70
     6
  9
$SURFU
 70
     6
  9
$SURFV
 70
     6
  9
$UCSNAME
  2

  9
$UCSORG
 10
0.0
 20
0.0
 30
0.0
  9
$UCSXDIR
 10
1.0
 20
0.0
 30
0.0
  9
$UCSYDIR
 10
0.0
 20
1.0
 30
0.0
  9
$PUCSNAME
  2

  9
$PUCSORG
 10
0.0
 20
0.0
 30
0.0
  9
$PUCSXDIR
 10
1.0
 20
0.0
 30
0.0
  9
$PUCSYDIR
 10
0.0
 20
1.0
 30
0.0
  9
$USERI1
 70
     0
  9
$USERI2
 70
     0
  9
$USERI3
 70
     0
  9
$USERI4
 70
     0
  9
$USERI5
 70
     0
  9
$USERR1
 40
0.0
  9
$USERR2
 40
0.0
  9
$USERR3
 40
0.0
  9
$USERR4
 40
0.0
  9
$USERR5
 40
0.0
  9
$WORLDVIEW
 70
     1
  9
$SHADEDGE
 70
     3
  9
$SHADEDIF
 70
    70
  9
$TILEMODE
 70
     1
  9
$MAXACTVP
 70
    64
  9
$PINSBASE
 10
0.0
 20
0.0
 30
0.0
  9
$PLIMCHECK
 70
     0
  9
$PEXTMIN
 10
1.000000E+20
 20
1.000000E+20
 30
1.000000E+20
  9
$PEXTMAX
 10
-1.000000E+20
 20
-1.000000E+20
 30
-1.000000E+20
  9
$PLIMMIN
 10
0.0
 20
0.0
  9
$PLIMMAX
 10
12.0
 20
9.0
  9
$UNITMODE
 70
     0
  9
$VISRETAIN
 70
     1
  9
$PLINEGEN
 70
     0
  9
$PSLTSCALE
 70
     1
  9
$TREEDEPTH
 70
  3020
  9
$PICKSTYLE
 70
     1
  9
$CMLSTYLE
  2
STANDARD
  9
$CMLJUST
 70
     0
  9
$CMLSCALE
 40
1.0
  9
$SAVEIMAGES
 70
     1
  0
ENDSEC
  0
SECTION
  2
CLASSES
  0
CLASS
  1
ACDBDICTIONARYWDFLT
  2
AcDbDictionaryWithDefault
  3
ObjectDBX Classes
 90
        0
280
     0
281
     0
  0
CLASS
  1
XRECORD
  2
AcDbXrecord
  3
AutoCAD 2000
 90
    32768
280
     0
281
     0
  0
CLASS
  1
LWPOLYLINE
  2
AcDbPolyline
  3
AutoCAD 2000
 90
    32768
280
     0
281
     1
  0
CLASS
  1
HATCH
  2
AcDbHatch
  3
AutoCAD 2000
 90
    32768
280
     0
281
     1
  0
CLASS
  1
ACDBPLACEHOLDER
  2
AcDbPlaceHolder
  3
ObjectDBX Classes
 90
        0
280
     0
281
     0
  0
CLASS
  1
LAYOUT
  2
AcDbLayout
  3
ObjectDBX Classes
 90
        0
280
     0
281
     0
  0
ENDSEC
  0
SECTION
  2
TABLES
  0
TABLE
  2
VPORT
  5
8
330
0
100
AcDbSymbolTable
 70
     1
  0
VPORT
  5
29
102
{ACAD_XDICTIONARY
360
308
102
}
330
8
100
AcDbSymbolTableRecord
100
AcDbViewportTableRecord
  2
*ACTIVE
 70
     0
 10
0.0
 20
0.0
 11
1.0
 21
1.0
 12
777.34596
 22
139.360363
 13
0.0
 23
0.0
 14
0.5
 24
0.5
 15
0.5
 25
0.5
 16
0.0
 26
0.0
 36
1.0
 17
0.0
 27
0.0
 37
0.0
 40
262.500005
 41
1.414286
 42
50.0
 43
0.0
 44
0.0
 50
0.0
 51
0.0
 71
     0
 72
   100
 73
     1
 74
     3
 75
     0
 76
     0
 77
     0
 78
     0
  0
ENDTAB
  0
TABLE
  2
LTYPE
  5
5
330
0
100
AcDbSymbolTable
 70
     4
  0
LTYPE
  5
14
330
5
100
AcDbSymbolTableRecord
100
AcDbLinetypeTableRecord
  2
BYBLOCK
 70
     0
  3

 72
    65
 73
     0
 40
0.0
  0
LTYPE
  5
15
330
5
100
AcDbSymbolTableRecord
100
AcDbLinetypeTableRecord
  2
BYLAYER
 70
     0
  3

 72
    65
 73
     0
 40
0.0
  0
LTYPE
  5
16
330
5
100
AcDbSymbolTableRecord
100
AcDbLinetypeTableRecord
  2
CONTINUOUS
 70
     0
  3
--------------------
 72
    65
 73
     0
 40
0.0
  0
LTYPE
  5
A6
330
5
100
AcDbSymbolTableRecord
100
AcDbLinetypeTableRecord
  2
極太の実線
 70
     0
  3

 72
    65
 73
     0
 40
0.0
  0
LTYPE
  5
AF
330
5
100
AcDbSymbolTableRecord
100
AcDbLinetypeTableRecord
  2
太い実線
 70
     0
  3

 72
    65
 73
     0
 40
0.0
  0
LTYPE
  5
B6
330
5
100
AcDbSymbolTableRecord
100
AcDbLinetypeTableRecord
  2
細い実線
 70
     0
  3

 72
    65
 73
     0
 40
0.0
  0
ENDTAB
  0
TABLE
  2
LAYER
  5
2
330
0
100
AcDbSymbolTable
 70
    19
  0
LAYER
  5
10
330
2
100
AcDbSymbolTableRecord
100
AcDbLayerTableRecord
  2
0
 70
     0
 62
     7
  6
CONTINUOUS
  0
LAYER
  5
A5
330
2
100
AcDbSymbolTableRecord
100
AcDbLayerTableRecord
  2
GR1-1
 70
     0
 62
     7
  6
CONTINUOUS
  0
ENDTAB
  0
TABLE
  2
STYLE
  5
3
330
0
100
AcDbSymbolTable
 70
     4
  0
STYLE
  5
11
330
3
100
AcDbSymbolTableRecord
100
AcDbTextStyleTableRecord
  2
STANDARD
 70
     0
 40
0.0
 41
1.0
 50
0.0
 71
     0
 42
0.2
  3
txt
  4

  0
STYLE
  5
3C
330
3
100
AcDbSymbolTableRecord
100
AcDbTextStyleTableRecord
  2
STYLE1
 70
     0
 40
0.0
 41
1.0
 50
0.0
 71
     0
 42
0.2
  3
MONOTXT.SHX
  4
extfont.shx
  0
STYLE
  5
3D
330
3
100
AcDbSymbolTableRecord
100
AcDbTextStyleTableRecord
  2
FX_VECTOR
 70
     0
 40
0.0
 41
1.0
 50
0.0
 71
     0
 42
0.2
  3
MONOTXT.SHX
  4
BIGFONT.SHX
  0
ENDTAB
  0
TABLE
  2
VIEW
  5
6
330
0
100
AcDbSymbolTable
 70
     0
  0
ENDTAB
  0
TABLE
  2
UCS
  5
7
330
0
100
AcDbSymbolTable
 70
     0
  0
ENDTAB
  0
TABLE
  2
APPID
  5
9
330
0
100
AcDbSymbolTable
 70
     1
  0
APPID
  5
12
330
9
100
AcDbSymbolTableRecord
100
AcDbRegAppTableRecord
  2
ACAD
 70
     0
  0
ENDTAB
  0
TABLE
  2
DIMSTYLE
  5
A
330
0
100
AcDbSymbolTable
 70
     2
  0
DIMSTYLE
105
27
330
A
100
AcDbSymbolTableRecord
100
AcDbDimStyleTableRecord
  2
STANDARD
 70
     0
  3

  4

  5

  6

  7

 40
1.0
 41
0.18
 42
0.0625
 43
0.38
 44
0.18
 45
0.0
 46
0.0
 47
0.0
 48
0.0
140
0.18
141
0.09
142
0.0
143
25.4
144
1.0
145
0.0
146
1.0
147
0.09
 71
     0
 72
     0
 73
     1
 74
     1
 75
     0
 76
     0
 77
     0
 78
     0
170
     0
171
     2
172
     0
173
     0
174
     0
175
     0
176
     0
177
     0
178
     0
270
     2
271
     4
272
     4
273
     2
274
     2
340
11
275
     0
280
     0
281
     0
282
     0
283
     1
284
     0
285
     0
286
     0
287
     3
288
     0
  0
DIMSTYLE
105
A4
330
A
100
AcDbSymbolTableRecord
100
AcDbDimStyleTableRecord
  2
FXDIMINFO
 70
     0
  3

  4

  5

  6
FXTIP_ARROW_S
  7
FXTIP_ARROW_E
 40
1.0
 41
2.0
 42
2.0
 43
7.0
 44
1.0
 45
0.0
 46
6.0
 47
0.0
 48
0.0
140
2.0
141
2.5
142
0.0
143
0.03937
144
1.0
145
0.0
146
1.0
147
1.0
 71
     0
 72
     0
 73
     0
 74
     0
 75
     0
 76
     0
 77
     1
 78
     8
170
     0
171
     3
172
     1
173
     1
174
     0
175
     0
176
     7
177
     7
178
     7
179
     2
270
     2
271
     2
272
     2
273
     2
274
     3
340
3C
275
     0
280
     0
281
     0
282
     0
283
     0
284
     8
285
     0
286
     0
287
     3
288
     0
  0
ENDTAB
  0
TABLE
  2
BLOCK_RECORD
  5
1
330
0
100
AcDbSymbolTable
 70
    54
  0
BLOCK_RECORD
  5
1F
330
1
100
AcDbSymbolTableRecord
100
AcDbBlockTableRecord
  2
*MODEL_SPACE
  0
BLOCK_RECORD
  5
1B
330
1
100
AcDbSymbolTableRecord
100
AcDbBlockTableRecord
  2
*PAPER_SPACE
  0
BLOCK_RECORD
  5
3E
330
1
100
AcDbSymbolTableRecord
100
AcDbBlockTableRecord
  2
FXTIP_ARROW_S
  0
BLOCK_RECORD
  5
44
330
1
100
AcDbSymbolTableRecord
100
AcDbBlockTableRecord
  2
FXTIP_ARROW_E
  0
BLOCK_RECORD
  5
4A
330
1
100
AcDbSymbolTableRecord
100
AcDbBlockTableRecord
  2
FXTIP_BLACKDOT_S
  0
BLOCK_RECORD
  5
50
330
1
100
AcDbSymbolTableRecord
100
AcDbBlockTableRecord
  2
FXTIP_BLACKDOT_E
  0
BLOCK_RECORD
  5
56
330
1
100
AcDbSymbolTableRecord
100
AcDbBlockTableRecord
  2
FXTIP_TRIANGLE_S
  0
BLOCK_RECORD
  5
5D
330
1
100
AcDbSymbolTableRecord
100
AcDbBlockTableRecord
  2
FXTIP_TRIANGLE_E
  0
BLOCK_RECORD
  5
64
330
1
100
AcDbSymbolTableRecord
100
AcDbBlockTableRecord
  2
FXTIP_ARCHITECT_S
  0
BLOCK_RECORD
  5
6A
330
1
100
AcDbSymbolTableRecord
100
AcDbBlockTableRecord
  2
FXTIP_ARCHITECT_E
  0
BLOCK_RECORD
  5
70
330
1
100
AcDbSymbolTableRecord
100
AcDbBlockTableRecord
  2
FXTIP_CIVIL_S
  0
BLOCK_RECORD
  5
76
330
1
100
AcDbSymbolTableRecord
100
AcDbBlockTableRecord
  2
FXTIP_CIVIL_E
  0
BLOCK_RECORD
  5
7C
330
1
100
AcDbSymbolTableRecord
100
AcDbBlockTableRecord
  2
FXTIP_WHITEDOT_S
  0
BLOCK_RECORD
  5
81
330
1
100
AcDbSymbolTableRecord
100
AcDbBlockTableRecord
  2
FXTIP_WHITEDOT_E
  0
BLOCK_RECORD
  5
86
330
1
100
AcDbSymbolTableRecord
100
AcDbBlockTableRecord
  2
FXTIP_UPARROW_S
  0
BLOCK_RECORD
  5
8B
330
1
100
AcDbSymbolTableRecord
100
AcDbBlockTableRecord
  2
FXTIP_UPARROW_E
  0
BLOCK_RECORD
  5
90
330
1
100
AcDbSymbolTableRecord
100
AcDbBlockTableRecord
  2
FXTIP_DOWNARROW_S
  0
BLOCK_RECORD
  5
95
330
1
100
AcDbSymbolTableRecord
100
AcDbBlockTableRecord
  2
FXTIP_DOWNARROW_E
  0
BLOCK_RECORD
  5
9A
330
1
100
AcDbSymbolTableRecord
100
AcDbBlockTableRecord
  2
FXTIP_BLACKTRIANGLE_S
  0
BLOCK_RECORD
  5
9F
330
1
100
AcDbSymbolTableRecord
100
AcDbBlockTableRecord
  2
FXTIP_BLACKTRIANGLE_E
  0
BLOCK_RECORD
  5
C7
330
1
100
AcDbSymbolTableRecord
100
AcDbBlockTableRecord
  2
BLKF021
  0
BLOCK_RECORD
  5
D5
330
1
100
AcDbSymbolTableRecord
100
AcDbBlockTableRecord
  2
BLKF022
  0
BLOCK_RECORD
  5
E3
330
1
100
AcDbSymbolTableRecord
100
AcDbBlockTableRecord
  2
BLKF023
  0
BLOCK_RECORD
  5
F7
330
1
100
AcDbSymbolTableRecord
100
AcDbBlockTableRecord
  2
BLKF024
  0
BLOCK_RECORD
  5
104
330
1
100
AcDbSymbolTableRecord
100
AcDbBlockTableRecord
  2
BLKF025
  0
BLOCK_RECORD
  5
111
330
1
100
AcDbSymbolTableRecord
100
AcDbBlockTableRecord
  2
BLKF026
  0
BLOCK_RECORD
  5
11E
330
1
100
AcDbSymbolTableRecord
100
AcDbBlockTableRecord
  2
BLKF027
  0
BLOCK_RECORD
  5
12B
330
1
100
AcDbSymbolTableRecord
100
AcDbBlockTableRecord
  2
BLKF028
  0
BLOCK_RECORD
  5
139
330
1
100
AcDbSymbolTableRecord
100
AcDbBlockTableRecord
  2
BLKF029
  0
BLOCK_RECORD
  5
14A
330
1
100
AcDbSymbolTableRecord
100
AcDbBlockTableRecord
  2
BLKF030
  0
BLOCK_RECORD
  5
154
330
1
100
AcDbSymbolTableRecord
100
AcDbBlockTableRecord
  2
BLKF031
  0
BLOCK_RECORD
  5
164
330
1
100
AcDbSymbolTableRecord
100
AcDbBlockTableRecord
  2
BLKF032
  0
BLOCK_RECORD
  5
172
330
1
100
AcDbSymbolTableRecord
100
AcDbBlockTableRecord
  2
BLKF033
  0
BLOCK_RECORD
  5
17F
330
1
100
AcDbSymbolTableRecord
100
AcDbBlockTableRecord
  2
BLKF034
  0
BLOCK_RECORD
  5
18D
330
1
100
AcDbSymbolTableRecord
100
AcDbBlockTableRecord
  2
BLKF035
  0
BLOCK_RECORD
  5
19A
330
1
100
AcDbSymbolTableRecord
100
AcDbBlockTableRecord
  2
BLKF036
  0
BLOCK_RECORD
  5
1F7
330
1
100
AcDbSymbolTableRecord
100
AcDbBlockTableRecord
  2
BLKF037
  0
BLOCK_RECORD
  5
202
330
1
100
AcDbSymbolTableRecord
100
AcDbBlockTableRecord
  2
BLKF038
  0
BLOCK_RECORD
  5
210
330
1
100
AcDbSymbolTableRecord
100
AcDbBlockTableRecord
  2
BLKF039
  0
BLOCK_RECORD
  5
21E
330
1
100
AcDbSymbolTableRecord
100
AcDbBlockTableRecord
  2
BLKF040
  0
BLOCK_RECORD
  5
22B
330
1
100
AcDbSymbolTableRecord
100
AcDbBlockTableRecord
  2
BLKF041
  0
BLOCK_RECORD
  5
238
330
1
100
AcDbSymbolTableRecord
100
AcDbBlockTableRecord
  2
BLKF042
  0
BLOCK_RECORD
  5
245
330
1
100
AcDbSymbolTableRecord
100
AcDbBlockTableRecord
  2
BLKF043
  0
BLOCK_RECORD
  5
252
330
1
100
AcDbSymbolTableRecord
100
AcDbBlockTableRecord
  2
BLKF044
  0
BLOCK_RECORD
  5
25F
330
1
100
AcDbSymbolTableRecord
100
AcDbBlockTableRecord
  2
BLKF045
  0
BLOCK_RECORD
  5
26C
330
1
100
AcDbSymbolTableRecord
100
AcDbBlockTableRecord
  2
BLKF046
  0
BLOCK_RECORD
  5
279
330
1
100
AcDbSymbolTableRecord
100
AcDbBlockTableRecord
  2
BLKF047
  0
BLOCK_RECORD
  5
296
330
1
100
AcDbSymbolTableRecord
100
AcDbBlockTableRecord
  2
BLKF048
  0
BLOCK_RECORD
  5
2A4
330
1
100
AcDbSymbolTableRecord
100
AcDbBlockTableRecord
  2
BLKF049
  0
BLOCK_RECORD
  5
2B1
330
1
100
AcDbSymbolTableRecord
100
AcDbBlockTableRecord
  2
BLKF050
  0
BLOCK_RECORD
  5
2BE
330
1
100
AcDbSymbolTableRecord
100
AcDbBlockTableRecord
  2
BLKF051
  0
BLOCK_RECORD
  5
2CB
330
1
100
AcDbSymbolTableRecord
100
AcDbBlockTableRecord
  2
BLKF052
  0
BLOCK_RECORD
  5
2D8
330
1
100
AcDbSymbolTableRecord
100
AcDbBlockTableRecord
  2
BLKF053
  0
BLOCK_RECORD
  5
2E6
330
1
100
AcDbSymbolTableRecord
100
AcDbBlockTableRecord
  2
BLKF054
  0
BLOCK_RECORD
  5
2F4
330
1
100
AcDbSymbolTableRecord
100
AcDbBlockTableRecord
  2
BLKF055
  0
ENDTAB
  0
ENDSEC
  0
SECTION
  2
BLOCKS
  0
BLOCK
  5
20
330
1F
100
AcDbEntity
  8
0
100
AcDbBlockBegin
  2
*MODEL_SPACE
 70
     0
 71
     0
 10
0.0
 20
0.0
 30
0.0
  3
*MODEL_SPACE
  1

  0
ENDBLK
  5
21
330
1F
100
AcDbEntity
  8
0
100
AcDbBlockEnd
  0
BLOCK
  5
1C
330
1B
100
AcDbEntity
 67
     1
  8
0
100
AcDbBlockBegin
  2
*PAPER_SPACE
 70
     0
 71
     0
 10
0.0
 20
0.0
 30
0.0
  3
*PAPER_SPACE
  1

  0
ENDBLK
  5
1D
330
1B
100
AcDbEntity
 67
     1
  8
0
100
AcDbBlockEnd
  0
BLOCK
  5
3F
330
3E
100
AcDbEntity
  8
0
100
AcDbBlockBegin
  2
FXTIP_ARROW_S
 70
     0
 71
     0
 10
0.0
 20
0.0
 30
0.0
  3
FXTIP_ARROW_S
  1

  0
LINE
  5
41
330
3E
100
AcDbEntity
  8
0
  6
CONTINUOUS
 62
     0
100
AcDbLine
 10
0.0
 20
0.0
 30
0.0
 11
-1.0
 21
0.0
 31
0.0
  0
LINE
  5
42
330
3E
100
AcDbEntity
  8
0
  6
CONTINUOUS
 62
     0
100
AcDbLine
 10
0.0
 20
0.0
 30
0.0
 11
-0.965926
 21
-0.258819
 31
0.0
  0
LINE
  5
43
330
3E
100
AcDbEntity
  8
0
  6
CONTINUOUS
 62
     0
100
AcDbLine
 10
0.0
 20
0.0
 30
0.0
 11
-0.965926
 21
0.258819
 31
0.0
  0
ENDBLK
  5
40
330
3E
100
AcDbEntity
  8
0
100
AcDbBlockEnd
  0
BLOCK
  5
45
330
44
100
AcDbEntity
  8
0
100
AcDbBlockBegin
  2
FXTIP_ARROW_E
 70
     0
 71
     0
 10
0.0
 20
0.0
 30
0.0
  3
FXTIP_ARROW_E
  1

  0
LINE
  5
47
330
44
100
AcDbEntity
  8
0
  6
CONTINUOUS
 62
     0
100
AcDbLine
 10
0.0
 20
0.0
 30
0.0
 11
-1.0
 21
0.0
 31
0.0
  0
LINE
  5
48
330
44
100
AcDbEntity
  8
0
  6
CONTINUOUS
 62
     0
100
AcDbLine
 10
0.0
 20
0.0
 30
0.0
 11
-0.965926
 21
0.258819
 31
0.0
  0
LINE
  5
49
330
44
100
AcDbEntity
  8
0
  6
CONTINUOUS
 62
     0
100
AcDbLine
 10
0.0
 20
0.0
 30
0.0
 11
-0.965926
 21
-0.258819
 31
0.0
  0
ENDBLK
  5
46
330
44
100
AcDbEntity
  8
0
100
AcDbBlockEnd
  0
BLOCK
  5
4B
330
4A
100
AcDbEntity
  8
0
100
AcDbBlockBegin
  2
FXTIP_BLACKDOT_S
 70
     0
 71
     0
 10
0.0
 20
0.0
 30
0.0
  3
FXTIP_BLACKDOT_S
  1

  0
LINE
  5
4D
330
4A
100
AcDbEntity
  8
0
  6
CONTINUOUS
 62
     0
100
AcDbLine
 10
0.0
 20
0.0
 30
0.0
 11
-1.0
 21
0.0
 31
0.0
  0
POLYLINE
  5
4E
330
4A
100
AcDbEntity
  8
0
  6
CONTINUOUS
 62
     0
100
AcDb2dPolyline
 66
     1
 10
0.0
 20
0.0
 30
0.0
 70
     1
  0
VERTEX
  5
303
330
4E
100
AcDbEntity
  8
0
  6
CONTINUOUS
 62
     0
100
AcDbVertex
100
AcDb2dVertex
 10
-0.25
 20
0.0
 30
0.0
 40
0.5
 41
0.5
 42
1.0
  0
VERTEX
  5
304
330
4E
100
AcDbEntity
  8
0
  6
CONTINUOUS
 62
     0
100
AcDbVertex
100
AcDb2dVertex
 10
0.25
 20
0.0
 30
0.0
 40
0.5
 41
0.5
 42
1.0
  0
SEQEND
  5
302
330
4E
100
AcDbEntity
  8
0
  6
CONTINUOUS
 62
     0
  0
CIRCLE
  5
4F
330
4A
100
AcDbEntity
  8
0
  6
CONTINUOUS
 62
     0
100
AcDbCircle
 10
0.0
 20
0.0
 30
0.0
 40
0.5
  0
ENDBLK
  5
4C
330
4A
100
AcDbEntity
  8
0
100
AcDbBlockEnd
  0
BLOCK
  5
51
330
50
100
AcDbEntity
  8
0
100
AcDbBlockBegin
  2
FXTIP_BLACKDOT_E
 70
     0
 71
     0
 10
0.0
 20
0.0
 30
0.0
  3
FXTIP_BLACKDOT_E
  1

  0
LINE
  5
53
330
50
100
AcDbEntity
  8
0
  6
CONTINUOUS
 62
     0
100
AcDbLine
 10
0.0
 20
0.0
 30
0.0
 11
-1.0
 21
0.0
 31
0.0
  0
POLYLINE
  5
54
330
50
100
AcDbEntity
  8
0
  6
CONTINUOUS
 62
     0
100
AcDb2dPolyline
 66
     1
 10
0.0
 20
0.0
 30
0.0
 70
     1
  0
VERTEX
  5
306
330
54
100
AcDbEntity
  8
0
  6
CONTINUOUS
 62
     0
100
AcDbVertex
100
AcDb2dVertex
 10
-0.25
 20
0.0
 30
0.0
 40
0.5
 41
0.5
 42
1.0
  0
VERTEX
  5
307
330
54
100
AcDbEntity
  8
0
  6
CONTINUOUS
 62
     0
100
AcDbVertex
100
AcDb2dVertex
 10
0.25
 20
0.0
 30
0.0
 40
0.5
 41
0.5
 42
1.0
  0
SEQEND
  5
305
330
54
100
AcDbEntity
  8
0
  6
CONTINUOUS
 62
     0
  0
CIRCLE
  5
55
330
50
100
AcDbEntity
  8
0
  6
CONTINUOUS
 62
     0
100
AcDbCircle
 10
0.0
 20
0.0
 30
0.0
 40
0.5
  0
ENDBLK
  5
52
330
50
100
AcDbEntity
  8
0
100
AcDbBlockEnd
  0
BLOCK
  5
57
330
56
100
AcDbEntity
  8
0
100
AcDbBlockBegin
  2
FXTIP_TRIANGLE_S
 70
     0
 71
     0
 10
0.0
 20
0.0
 30
0.0
  3
FXTIP_TRIANGLE_S
  1

  0
LINE
  5
59
330
56
100
AcDbEntity
  8
0
  6
CONTINUOUS
 62
     0
100
AcDbLine
 10
0.0
 20
0.0
 30
0.0
 11
-1.0
 21
0.0
 31
0.0
  0
LINE
  5
5A
330
56
100
AcDbEntity
  8
0
  6
CONTINUOUS
 62
     0
100
AcDbLine
 10
0.0
 20
0.0
 30
0.0
 11
-0.965926
 21
-0.258819
 31
0.0
  0
LINE
  5
5B
330
56
100
AcDbEntity
  8
0
  6
CONTINUOUS
 62
     0
100
AcDbLine
 10
0.0
 20
0.0
 30
0.0
 11
-0.965926
 21
0.258819
 31
0.0
  0
LINE
  5
5C
330
56
100
AcDbEntity
  8
0
  6
CONTINUOUS
 62
     0
100
AcDbLine
 10
-0.965926
 20
-0.258819
 30
0.0
 11
-0.965926
 21
0.258819
 31
0.0
  0
ENDBLK
  5
58
330
56
100
AcDbEntity
  8
0
100
AcDbBlockEnd
  0
BLOCK
  5
5E
330
5D
100
AcDbEntity
  8
0
100
AcDbBlockBegin
  2
FXTIP_TRIANGLE_E
 70
     0
 71
     0
 10
0.0
 20
0.0
 30
0.0
  3
FXTIP_TRIANGLE_E
  1

  0
LINE
  5
60
330
5D
100
AcDbEntity
  8
0
  6
CONTINUOUS
 62
     0
100
AcDbLine
 10
0.0
 20
0.0
 30
0.0
 11
-1.0
 21
0.0
 31
0.0
  0
LINE
  5
61
330
5D
100
AcDbEntity
  8
0
  6
CONTINUOUS
 62
     0
100
AcDbLine
 10
0.0
 20
0.0
 30
0.0
 11
-0.965926
 21
0.258819
 31
0.0
  0
LINE
  5
62
330
5D
100
AcDbEntity
  8
0
  6
CONTINUOUS
 62
     0
100
AcDbLine
 10
0.0
 20
0.0
 30
0.0
 11
-0.965926
 21
-0.258819
 31
0.0
  0
LINE
  5
63
330
5D
100
AcDbEntity
  8
0
  6
CONTINUOUS
 62
     0
100
AcDbLine
 10
-0.965926
 20
0.258819
 30
0.0
 11
-0.965926
 21
-0.258819
 31
0.0
  0
ENDBLK
  5
5F
330
5D
100
AcDbEntity
  8
0
100
AcDbBlockEnd
  0
BLOCK
  5
65
330
64
100
AcDbEntity
  8
0
100
AcDbBlockBegin
  2
FXTIP_ARCHITECT_S
 70
     0
 71
     0
 10
0.0
 20
0.0
 30
0.0
  3
FXTIP_ARCHITECT_S
  1

  0
LINE
  5
67
330
64
100
AcDbEntity
  8
0
  6
CONTINUOUS
 62
     0
100
AcDbLine
 10
0.0
 20
0.0
 30
0.0
 11
-1.0
 21
0.0
 31
0.0
  0
LINE
  5
68
330
64
100
AcDbEntity
  8
0
  6
CONTINUOUS
 62
     0
100
AcDbLine
 10
0.0
 20
0.0
 30
0.0
 11
-0.707107
 21
-0.707107
 31
0.0
  0
LINE
  5
69
330
64
100
AcDbEntity
  8
0
  6
CONTINUOUS
 62
     0
100
AcDbLine
 10
0.0
 20
0.0
 30
0.0
 11
0.707107
 21
0.707107
 31
0.0
  0
ENDBLK
  5
66
330
64
100
AcDbEntity
  8
0
100
AcDbBlockEnd
  0
BLOCK
  5
6B
330
6A
100
AcDbEntity
  8
0
100
AcDbBlockBegin
  2
FXTIP_ARCHITECT_E
 70
     0
 71
     0
 10
0.0
 20
0.0
 30
0.0
  3
FXTIP_ARCHITECT_E
  1

  0
LINE
  5
6D
330
6A
100
AcDbEntity
  8
0
  6
CONTINUOUS
 62
     0
100
AcDbLine
 10
0.0
 20
0.0
 30
0.0
 11
-1.0
 21
0.0
 31
0.0
  0
LINE
  5
6E
330
6A
100
AcDbEntity
  8
0
  6
CONTINUOUS
 62
     0
100
AcDbLine
 10
0.0
 20
0.0
 30
0.0
 11
0.707107
 21
0.707107
 31
0.0
  0
LINE
  5
6F
330
6A
100
AcDbEntity
  8
0
  6
CONTINUOUS
 62
     0
100
AcDbLine
 10
0.0
 20
0.0
 30
0.0
 11
-0.707107
 21
-0.707107
 31
0.0
  0
ENDBLK
  5
6C
330
6A
100
AcDbEntity
  8
0
100
AcDbBlockEnd
  0
BLOCK
  5
71
330
70
100
AcDbEntity
  8
0
100
AcDbBlockBegin
  2
FXTIP_CIVIL_S
 70
     0
 71
     0
 10
0.0
 20
0.0
 30
0.0
  3
FXTIP_CIVIL_S
  1

  0
LINE
  5
73
330
70
100
AcDbEntity
  8
0
  6
CONTINUOUS
 62
     0
100
AcDbLine
 10
0.0
 20
0.0
 30
0.0
 11
-1.0
 21
0.0
 31
0.0
  0
LINE
  5
74
330
70
100
AcDbEntity
  8
0
  6
CONTINUOUS
 62
     0
100
AcDbLine
 10
0.0
 20
-0.125
 30
0.0
 11
-1.0
 21
-0.125
 31
0.0
  0
LINE
  5
75
330
70
100
AcDbEntity
  8
0
  6
CONTINUOUS
 62
     0
100
AcDbLine
 10
0.0
 20
-0.25
 30
0.0
 11
-1.0
 21
-0.25
 31
0.0
  0
ENDBLK
  5
72
330
70
100
AcDbEntity
  8
0
100
AcDbBlockEnd
  0
BLOCK
  5
77
330
76
100
AcDbEntity
  8
0
100
AcDbBlockBegin
  2
FXTIP_CIVIL_E
 70
     0
 71
     0
 10
0.0
 20
0.0
 30
0.0
  3
FXTIP_CIVIL_E
  1

  0
LINE
  5
79
330
76
100
AcDbEntity
  8
0
  6
CONTINUOUS
 62
     0
100
AcDbLine
 10
0.0
 20
0.0
 30
0.0
 11
-1.0
 21
0.0
 31
0.0
  0
LINE
  5
7A
330
76
100
AcDbEntity
  8
0
  6
CONTINUOUS
 62
     0
100
AcDbLine
 10
0.0
 20
0.125
 30
0.0
 11
-1.0
 21
0.125
 31
0.0
  0
LINE
  5
7B
330
76
100
AcDbEntity
  8
0
  6
CONTINUOUS
 62
     0
100
AcDbLine
 10
0.0
 20
0.25
 30
0.0
 11
-1.0
 21
0.25
 31
0.0
  0
ENDBLK
  5
78
330
76
100
AcDbEntity
  8
0
100
AcDbBlockEnd
  0
BLOCK
  5
7D
330
7C
100
AcDbEntity
  8
0
100
AcDbBlockBegin
  2
FXTIP_WHITEDOT_S
 70
     0
 71
     0
 10
0.0
 20
0.0
 30
0.0
  3
FXTIP_WHITEDOT_S
  1

  0
LINE
  5
7F
330
7C
100
AcDbEntity
  8
0
  6
CONTINUOUS
 62
     0
100
AcDbLine
 10
0.0
 20
0.0
 30
0.0
 11
-1.0
 21
0.0
 31
0.0
  0
CIRCLE
  5
80
330
7C
100
AcDbEntity
  8
0
  6
CONTINUOUS
 62
     0
100
AcDbCircle
 10
0.0
 20
0.0
 30
0.0
 40
0.5
  0
ENDBLK
  5
7E
330
7C
100
AcDbEntity
  8
0
100
AcDbBlockEnd
  0
BLOCK
  5
82
330
81
100
AcDbEntity
  8
0
100
AcDbBlockBegin
  2
FXTIP_WHITEDOT_E
 70
     0
 71
     0
 10
0.0
 20
0.0
 30
0.0
  3
FXTIP_WHITEDOT_E
  1

  0
LINE
  5
84
330
81
100
AcDbEntity
  8
0
  6
CONTINUOUS
 62
     0
100
AcDbLine
 10
0.0
 20
0.0
 30
0.0
 11
-1.0
 21
0.0
 31
0.0
  0
CIRCLE
  5
85
330
81
100
AcDbEntity
  8
0
  6
CONTINUOUS
 62
     0
100
AcDbCircle
 10
0.0
 20
0.0
 30
0.0
 40
0.5
  0
ENDBLK
  5
83
330
81
100
AcDbEntity
  8
0
100
AcDbBlockEnd
  0
BLOCK
  5
87
330
86
100
AcDbEntity
  8
0
100
AcDbBlockBegin
  2
FXTIP_UPARROW_S
 70
     0
 71
     0
 10
0.0
 20
0.0
 30
0.0
  3
FXTIP_UPARROW_S
  1

  0
LINE
  5
89
330
86
100
AcDbEntity
  8
0
  6
CONTINUOUS
 62
     0
100
AcDbLine
 10
0.0
 20
0.0
 30
0.0
 11
-1.0
 21
0.0
 31
0.0
  0
LINE
  5
8A
330
86
100
AcDbEntity
  8
0
  6
CONTINUOUS
 62
     0
100
AcDbLine
 10
0.0
 20
0.0
 30
0.0
 11
-0.965926
 21
-0.258819
 31
0.0
  0
ENDBLK
  5
88
330
86
100
AcDbEntity
  8
0
100
AcDbBlockEnd
  0
BLOCK
  5
8C
330
8B
100
AcDbEntity
  8
0
100
AcDbBlockBegin
  2
FXTIP_UPARROW_E
 70
     0
 71
     0
 10
0.0
 20
0.0
 30
0.0
  3
FXTIP_UPARROW_E
  1

  0
LINE
  5
8E
330
8B
100
AcDbEntity
  8
0
  6
CONTINUOUS
 62
     0
100
AcDbLine
 10
0.0
 20
0.0
 30
0.0
 11
-1.0
 21
0.0
 31
0.0
  0
LINE
  5
8F
330
8B
100
AcDbEntity
  8
0
  6
CONTINUOUS
 62
     0
100
AcDbLine
 10
0.0
 20
0.0
 30
0.0
 11
-0.965926
 21
0.258819
 31
0.0
  0
ENDBLK
  5
8D
330
8B
100
AcDbEntity
  8
0
100
AcDbBlockEnd
  0
BLOCK
  5
91
330
90
100
AcDbEntity
  8
0
100
AcDbBlockBegin
  2
FXTIP_DOWNARROW_S
 70
     0
 71
     0
 10
0.0
 20
0.0
 30
0.0
  3
FXTIP_DOWNARROW_S
  1

  0
LINE
  5
93
330
90
100
AcDbEntity
  8
0
  6
CONTINUOUS
 62
     0
100
AcDbLine
 10
0.0
 20
0.0
 30
0.0
 11
-1.0
 21
0.0
 31
0.0
  0
LINE
  5
94
330
90
100
AcDbEntity
  8
0
  6
CONTINUOUS
 62
     0
100
AcDbLine
 10
0.0
 20
0.0
 30
0.0
 11
-0.965926
 21
0.258819
 31
0.0
  0
ENDBLK
  5
92
330
90
100
AcDbEntity
  8
0
100
AcDbBlockEnd
  0
BLOCK
  5
96
330
95
100
AcDbEntity
  8
0
100
AcDbBlockBegin
  2
FXTIP_DOWNARROW_E
 70
     0
 71
     0
 10
0.0
 20
0.0
 30
0.0
  3
FXTIP_DOWNARROW_E
  1

  0
LINE
  5
98
330
95
100
AcDbEntity
  8
0
  6
CONTINUOUS
 62
     0
100
AcDbLine
 10
0.0
 20
0.0
 30
0.0
 11
-1.0
 21
0.0
 31
0.0
  0
LINE
  5
99
330
95
100
AcDbEntity
  8
0
  6
CONTINUOUS
 62
     0
100
AcDbLine
 10
0.0
 20
0.0
 30
0.0
 11
-0.965926
 21
-0.258819
 31
0.0
  0
ENDBLK
  5
97
330
95
100
AcDbEntity
  8
0
100
AcDbBlockEnd
  0
BLOCK
  5
9B
330
9A
100
AcDbEntity
  8
0
100
AcDbBlockBegin
  2
FXTIP_BLACKTRIANGLE_S
 70
     0
 71
     0
 10
0.0
 20
0.0
 30
0.0
  3
FXTIP_BLACKTRIANGLE_S
  1

  0
LINE
  5
9D
330
9A
100
AcDbEntity
  8
0
  6
CONTINUOUS
 62
     0
100
AcDbLine
 10
0.0
 20
0.0
 30
0.0
 11
-1.0
 21
0.0
 31
0.0
  0
SOLID
  5
9E
330
9A
100
AcDbEntity
  8
0
  6
CONTINUOUS
 62
     0
100
AcDbTrace
 10
0.0
 20
0.0
 30
0.0
 11
-0.965926
 21
-0.258819
 31
0.0
 12
-0.965926
 22
0.258819
 32
0.0
 13
-0.965926
 23
0.258819
 33
0.0
  0
ENDBLK
  5
9C
330
9A
100
AcDbEntity
  8
0
100
AcDbBlockEnd
  0
BLOCK
  5
A0
330
9F
100
AcDbEntity
  8
0
100
AcDbBlockBegin
  2
FXTIP_BLACKTRIANGLE_E
 70
     0
 71
     0
 10
0.0
 20
0.0
 30
0.0
  3
FXTIP_BLACKTRIANGLE_E
  1

  0
LINE
  5
A2
330
9F
100
AcDbEntity
  8
0
  6
CONTINUOUS
 62
     0
100
AcDbLine
 10
0.0
 20
0.0
 30
0.0
 11
-1.0
 21
0.0
 31
0.0
  0
SOLID
  5
A3
330
9F
100
AcDbEntity
  8
0
  6
CONTINUOUS
 62
     0
100
AcDbTrace
 10
0.0
 20
0.0
 30
0.0
 11
-0.965926
 21
0.258819
 31
0.0
 12
-0.965926
 22
-0.258819
 32
0.0
 13
-0.965926
 23
-0.258819
 33
0.0
  0
ENDBLK
  5
A1
330
9F
100
AcDbEntity
  8
0
100
AcDbBlockEnd
  0
BLOCK
  5
C8
330
C7
100
AcDbEntity
  8
0
100
AcDbBlockBegin
  2
BLKF021
 70
     0
 71
     0
 10
0.0
 20
0.0
 30
0.0
  3
BLKF021
  1

  0
LINE
  5
CB
330
C7
100
AcDbEntity
  8
GR1-1
  6
CONTINUOUS
 62
     7
100
AcDbLine
 10
734.328319
 20
124.457243
 30
0.0
 11
740.994985
 21
124.457243
 31
0.0
  0
LINE
  5
CC
330
C7
100
AcDbEntity
  8
GR1-1
  6
CONTINUOUS
 62
     7
100
AcDbLine
 10
734.328319
 20
132.790576
 30
0.0
 11
740.994985
 21
132.790576
 31
0.0
  0
LINE
  5
CD
330
C7
100
AcDbEntity
  8
GR1-1
  6
CONTINUOUS
 62
     7
100
AcDbLine
 10
740.328319
 20
132.790576
 30
0.0
 11
740.328319
 21
124.457243
 31
0.0
  0
LINE
  5
CE
330
C7
100
AcDbEntity
  8
GR1-1
  6
CONTINUOUS
 62
     7
100
AcDbLine
 10
739.983227
 20
125.745144
 30
0.0
 11
740.673411
 21
125.745144
 31
0.0
  0
LINE
  5
CF
330
C7
100
AcDbEntity
  8
GR1-1
  6
CONTINUOUS
 62
     7
100
AcDbLine
 10
740.673411
 20
125.745144
 30
0.0
 11
740.328319
 21
124.457243
 31
0.0
  0
LINE
  5
D0
330
C7
100
AcDbEntity
  8
GR1-1
  6
CONTINUOUS
 62
     7
100
AcDbLine
 10
740.328319
 20
124.457243
 30
0.0
 11
739.983227
 21
125.745144
 31
0.0
  0
LINE
  5
D1
330
C7
100
AcDbEntity
  8
GR1-1
  6
CONTINUOUS
 62
     7
100
AcDbLine
 10
740.673411
 20
131.502675
 30
0.0
 11
739.983227
 21
131.502675
 31
0.0
  0
LINE
  5
D2
330
C7
100
AcDbEntity
  8
GR1-1
  6
CONTINUOUS
 62
     7
100
AcDbLine
 10
739.983227
 20
131.502675
 30
0.0
 11
740.328319
 21
132.790576
 31
0.0
  0
LINE
  5
D3
330
C7
100
AcDbEntity
  8
GR1-1
  6
CONTINUOUS
 62
     7
100
AcDbLine
 10
740.328319
 20
132.790576
 30
0.0
 11
740.673411
 21
131.502675
 31
0.0
  0
TEXT
  5
D4
330
C7
100
AcDbEntity
  8
GR1-1
  6
CONTINUOUS
 62
     4
100
AcDbText
 10
740.32832
 20
126.623901
 30
0.0
 40
2.0
  1
２５０
 50
90.0
 41
0.666667
  7
FX_VECTOR
 72
     5
 11
740.32832
 21
130.623901
 31
0.0
100
AcDbText
  0
ENDBLK
  5
C9
330
C7
100
AcDbEntity
  8
0
100
AcDbBlockEnd
  0
BLOCK
  5
D6
330
D5
100
AcDbEntity
  8
0
100
AcDbBlockBegin
  2
BLKF022
 70
     0
 71
     0
 10
0.0
 20
0.0
 30
0.0
  3
BLKF022
  1

  0
LINE
  5
D9
330
D5
100
AcDbEntity
  8
GR1-1
  6
CONTINUOUS
 62
     7
100
AcDbLine
 10
733.661652
 20
123.790576
 30
0.0
 11
733.661652
 21
113.790576
 31
0.0
  0
LINE
  5
DA
330
D5
100
AcDbEntity
  8
GR1-1
  6
CONTINUOUS
 62
     7
100
AcDbLine
 10
730.328319
 20
123.790576
 30
0.0
 11
730.328319
 21
113.790576
 31
0.0
  0
LINE
  5
DB
330
D5
100
AcDbEntity
  8
GR1-1
  6
CONTINUOUS
 62
     7
100
AcDbLine
 10
728.328319
 20
114.457243
 30
0.0
 11
735.661652
 21
114.457243
 31
0.0
  0
LINE
  5
DC
330
D5
100
AcDbEntity
  8
GR1-1
  6
CONTINUOUS
 62
     7
100
AcDbLine
 10
734.949553
 20
114.802335
 30
0.0
 11
734.949553
 21
114.112151
 31
0.0
  0
LINE
  5
DD
330
D5
100
AcDbEntity
  8
GR1-1
  6
CONTINUOUS
 62
     7
100
AcDbLine
 10
734.949553
 20
114.112151
 30
0.0
 11
733.661652
 21
114.457243
 31
0.0
  0
LINE
  5
DE
330
D5
100
AcDbEntity
  8
GR1-1
  6
CONTINUOUS
 62
     7
100
AcDbLine
 10
733.661652
 20
114.457243
 30
0.0
 11
734.949553
 21
114.802335
 31
0.0
  0
LINE
  5
DF
330
D5
100
AcDbEntity
  8
GR1-1
  6
CONTINUOUS
 62
     7
100
AcDbLine
 10
729.040417
 20
114.112151
 30
0.0
 11
729.040417
 21
114.802335
 31
0.0
  0
LINE
  5
E0
330
D5
100
AcDbEntity
  8
GR1-1
  6
CONTINUOUS
 62
     7
100
AcDbLine
 10
729.040417
 20
114.802335
 30
0.0
 11
730.328319
 21
114.457243
 31
0.0
  0
LINE
  5
E1
330
D5
100
AcDbEntity
  8
GR1-1
  6
CONTINUOUS
 62
     7
100
AcDbLine
 10
730.328319
 20
114.457243
 30
0.0
 11
729.040417
 21
114.112151
 31
0.0
  0
TEXT
  5
E2
330
D5
100
AcDbEntity
  8
GR1-1
  6
CONTINUOUS
 62
     4
100
AcDbText
 10
734.019141
 20
115.169653
 30
0.0
 40
2.0
  1
１００
 41
0.666667
  7
FX_VECTOR
 72
     5
 11
738.019141
 21
115.169653
 31
0.0
100
AcDbText
  0
ENDBLK
  5
D7
330
D5
100
AcDbEntity
  8
0
100
AcDbBlockEnd
  0
BLOCK
  5
E4
330
E3
100
AcDbEntity
  8
0
100
AcDbBlockBegin
  2
BLKF023
 70
     0
 71
     0
 10
0.0
 20
0.0
 30
0.0
  3
BLKF023
  1

  0
LINE
  5
E7
330
E3
100
AcDbEntity
  8
GR1-1
  6
CONTINUOUS
 62
     7
100
AcDbLine
 10
730.328319
 20
123.790576
 30
0.0
 11
730.328319
 21
117.957243
 31
0.0
  0
LINE
  5
E8
330
E3
100
AcDbEntity
  8
GR1-1
  6
CONTINUOUS
 62
     7
100
AcDbLine
 10
729.646265
 20
126.290576
 30
0.0
 11
729.646265
 21
117.957243
 31
0.0
  0
LINE
  5
E9
330
E3
100
AcDbEntity
  8
GR1-1
  6
CONTINUOUS
 62
     7
100
AcDbLine
 10
727.646265
 20
118.623909
 30
0.0
 11
732.328319
 21
118.623909
 31
0.0
  0
LINE
  5
EA
330
E3
100
AcDbEntity
  8
GR1-1
  6
CONTINUOUS
 62
     7
100
AcDbLine
 10
731.61622
 20
118.969001
 30
0.0
 11
731.61622
 21
118.278817
 31
0.0
  0
LINE
  5
EB
330
E3
100
AcDbEntity
  8
GR1-1
  6
CONTINUOUS
 62
     7
100
AcDbLine
 10
731.61622
 20
118.278817
 30
0.0
 11
730.328319
 21
118.623909
 31
0.0
  0
LINE
  5
EC
330
E3
100
AcDbEntity
  8
GR1-1
  6
CONTINUOUS
 62
     7
100
AcDbLine
 10
730.328319
 20
118.623909
 30
0.0
 11
731.61622
 21
118.969001
 31
0.0
  0
LINE
  5
ED
330
E3
100
AcDbEntity
  8
GR1-1
  6
CONTINUOUS
 62
     7
100
AcDbLine
 10
728.358364
 20
118.278817
 30
0.0
 11
728.358364
 21
118.969001
 31
0.0
  0
LINE
  5
EE
330
E3
100
AcDbEntity
  8
GR1-1
  6
CONTINUOUS
 62
     7
100
AcDbLine
 10
728.358364
 20
118.969001
 30
0.0
 11
729.646265
 21
118.623909
 31
0.0
  0
LINE
  5
EF
330
E3
100
AcDbEntity
  8
GR1-1
  6
CONTINUOUS
 62
     7
100
AcDbLine
 10
729.646265
 20
118.623909
 30
0.0
 11
728.358364
 21
118.278817
 31
0.0
  0
TEXT
  5
F0
330
E3
100
AcDbEntity
  8
GR1-1
  6
CONTINUOUS
 62
     4
100
AcDbText
 10
730.473893
 20
119.054842
 30
0.0
 40
2.0
  1
２０
 41
0.666667
  7
FX_VECTOR
 72
     5
 11
733.14056
 21
119.054842
 31
0.0
100
AcDbText
  0
ENDBLK
  5
E5
330
E3
100
AcDbEntity
  8
0
100
AcDbBlockEnd
  0
BLOCK
  5
F8
330
F7
100
AcDbEntity
  8
0
100
AcDbBlockBegin
  2
BLKF024
 70
     0
 71
     0
 10
0.0
 20
0.0
 30
0.0
  3
BLKF024
  1

  0
LINE
  5
FB
330
F7
100
AcDbEntity
  8
GR1-1
  6
CONTINUOUS
 62
     7
100
AcDbLine
 10
715.328319
 20
123.790576
 30
0.0
 11
715.328319
 21
113.790576
 31
0.0
  0
LINE
  5
FC
330
F7
100
AcDbEntity
  8
GR1-1
  6
CONTINUOUS
 62
     7
100
AcDbLine
 10
715.328319
 20
114.457243
 30
0.0
 11
730.328319
 21
114.457243
 31
0.0
  0
LINE
  5
FD
330
F7
100
AcDbEntity
  8
GR1-1
  6
CONTINUOUS
 62
     7
100
AcDbLine
 10
729.040417
 20
114.112151
 30
0.0
 11
729.040417
 21
114.802335
 31
0.0
  0
LINE
  5
FE
330
F7
100
AcDbEntity
  8
GR1-1
  6
CONTINUOUS
 62
     7
100
AcDbLine
 10
729.040417
 20
114.802335
 30
0.0
 11
730.328319
 21
114.457243
 31
0.0
  0
LINE
  5
FF
330
F7
100
AcDbEntity
  8
GR1-1
  6
CONTINUOUS
 62
     7
100
AcDbLine
 10
730.328319
 20
114.457243
 30
0.0
 11
729.040417
 21
114.112151
 31
0.0
  0
LINE
  5
100
330
F7
100
AcDbEntity
  8
GR1-1
  6
CONTINUOUS
 62
     7
100
AcDbLine
 10
716.61622
 20
114.802335
 30
0.0
 11
716.61622
 21
114.112151
 31
0.0
  0
LINE
  5
101
330
F7
100
AcDbEntity
  8
GR1-1
  6
CONTINUOUS
 62
     7
100
AcDbLine
 10
716.61622
 20
114.112151
 30
0.0
 11
715.328319
 21
114.457243
 31
0.0
  0
LINE
  5
102
330
F7
100
AcDbEntity
  8
GR1-1
  6
CONTINUOUS
 62
     7
100
AcDbLine
 10
715.328319
 20
114.457243
 30
0.0
 11
716.61622
 21
114.802335
 31
0.0
  0
TEXT
  5
103
330
F7
100
AcDbEntity
  8
GR1-1
  6
CONTINUOUS
 62
     4
100
AcDbText
 10
720.82832
 20
114.457235
 30
0.0
 40
2.0
  1
４５０
 41
0.666667
  7
FX_VECTOR
 72
     5
 11
724.82832
 21
114.457235
 31
0.0
100
AcDbText
  0
ENDBLK
  5
F9
330
F7
100
AcDbEntity
  8
0
100
AcDbBlockEnd
  0
BLOCK
  5
105
330
104
100
AcDbEntity
  8
0
100
AcDbBlockBegin
  2
BLKF025
 70
     0
 71
     0
 10
0.0
 20
0.0
 30
0.0
  3
BLKF025
  1

  0
LINE
  5
108
330
104
100
AcDbEntity
  8
GR1-1
  6
CONTINUOUS
 62
     7
100
AcDbLine
 10
715.478633
 20
126.290576
 30
0.0
 11
715.478633
 21
117.957243
 31
0.0
  0
LINE
  5
109
330
104
100
AcDbEntity
  8
GR1-1
  6
CONTINUOUS
 62
     7
100
AcDbLine
 10
715.478633
 20
118.623909
 30
0.0
 11
729.646265
 21
118.623909
 31
0.0
  0
LINE
  5
10A
330
104
100
AcDbEntity
  8
GR1-1
  6
CONTINUOUS
 62
     7
100
AcDbLine
 10
728.358364
 20
118.278817
 30
0.0
 11
728.358364
 21
118.969001
 31
0.0
  0
LINE
  5
10B
330
104
100
AcDbEntity
  8
GR1-1
  6
CONTINUOUS
 62
     7
100
AcDbLine
 10
728.358364
 20
118.969001
 30
0.0
 11
729.646265
 21
118.623909
 31
0.0
  0
LINE
  5
10C
330
104
100
AcDbEntity
  8
GR1-1
  6
CONTINUOUS
 62
     7
100
AcDbLine
 10
729.646265
 20
118.623909
 30
0.0
 11
728.358364
 21
118.278817
 31
0.0
  0
LINE
  5
10D
330
104
100
AcDbEntity
  8
GR1-1
  6
CONTINUOUS
 62
     7
100
AcDbLine
 10
716.766534
 20
118.969001
 30
0.0
 11
716.766534
 21
118.278817
 31
0.0
  0
LINE
  5
10E
330
104
100
AcDbEntity
  8
GR1-1
  6
CONTINUOUS
 62
     7
100
AcDbLine
 10
716.766534
 20
118.278817
 30
0.0
 11
715.478633
 21
118.623909
 31
0.0
  0
LINE
  5
10F
330
104
100
AcDbEntity
  8
GR1-1
  6
CONTINUOUS
 62
     7
100
AcDbLine
 10
715.478633
 20
118.623909
 30
0.0
 11
716.766534
 21
118.969001
 31
0.0
  0
TEXT
  5
110
330
104
100
AcDbEntity
  8
GR1-1
  6
CONTINUOUS
 62
     4
100
AcDbText
 10
720.562435
 20
118.623901
 30
0.0
 40
2.0
  1
４２５
 41
0.666667
  7
FX_VECTOR
 72
     5
 11
724.562435
 21
118.623901
 31
0.0
100
AcDbText
  0
ENDBLK
  5
106
330
104
100
AcDbEntity
  8
0
100
AcDbBlockEnd
  0
BLOCK
  5
112
330
111
100
AcDbEntity
  8
0
100
AcDbBlockBegin
  2
BLKF026
 70
     0
 71
     0
 10
0.0
 20
0.0
 30
0.0
  3
BLKF026
  1

  0
LINE
  5
115
330
111
100
AcDbEntity
  8
GR1-1
  6
CONTINUOUS
 62
     7
100
AcDbLine
 10
715.328319
 20
123.790576
 30
0.0
 11
715.328319
 21
117.957243
 31
0.0
  0
LINE
  5
116
330
111
100
AcDbEntity
  8
GR1-1
  6
CONTINUOUS
 62
     7
100
AcDbLine
 10
713.328319
 20
118.623909
 30
0.0
 11
717.478633
 21
118.623909
 31
0.0
  0
LINE
  5
117
330
111
100
AcDbEntity
  8
GR1-1
  6
CONTINUOUS
 62
     7
100
AcDbLine
 10
716.766534
 20
118.969001
 30
0.0
 11
716.766534
 21
118.278817
 31
0.0
  0
LINE
  5
118
330
111
100
AcDbEntity
  8
GR1-1
  6
CONTINUOUS
 62
     7
100
AcDbLine
 10
716.766534
 20
118.278817
 30
0.0
 11
715.478633
 21
118.623909
 31
0.0
  0
LINE
  5
119
330
111
100
AcDbEntity
  8
GR1-1
  6
CONTINUOUS
 62
     7
100
AcDbLine
 10
715.478633
 20
118.623909
 30
0.0
 11
716.766534
 21
118.969001
 31
0.0
  0
LINE
  5
11A
330
111
100
AcDbEntity
  8
GR1-1
  6
CONTINUOUS
 62
     7
100
AcDbLine
 10
714.040417
 20
118.278817
 30
0.0
 11
714.040417
 21
118.969001
 31
0.0
  0
LINE
  5
11B
330
111
100
AcDbEntity
  8
GR1-1
  6
CONTINUOUS
 62
     7
100
AcDbLine
 10
714.040417
 20
118.969001
 30
0.0
 11
715.328319
 21
118.623909
 31
0.0
  0
LINE
  5
11C
330
111
100
AcDbEntity
  8
GR1-1
  6
CONTINUOUS
 62
     7
100
AcDbLine
 10
715.328319
 20
118.623909
 30
0.0
 11
714.040417
 21
118.278817
 31
0.0
  0
TEXT
  5
11D
330
111
100
AcDbEntity
  8
GR1-1
  6
CONTINUOUS
 62
     4
100
AcDbText
 10
713.546029
 20
119.103101
 30
0.0
 40
2.0
  1
５
 41
0.666667
  7
FX_VECTOR
 72
     5
 11
714.879362
 21
119.103101
 31
0.0
100
AcDbText
  0
ENDBLK
  5
113
330
111
100
AcDbEntity
  8
0
100
AcDbBlockEnd
  0
BLOCK
  5
11F
330
11E
100
AcDbEntity
  8
0
100
AcDbBlockBegin
  2
BLKF027
 70
     0
 71
     0
 10
0.0
 20
0.0
 30
0.0
  3
BLKF027
  1

  0
LINE
  5
122
330
11E
100
AcDbEntity
  8
GR1-1
  6
CONTINUOUS
 62
     7
100
AcDbLine
 10
711.994985
 20
123.790576
 30
0.0
 11
711.994985
 21
113.790576
 31
0.0
  0
LINE
  5
123
330
11E
100
AcDbEntity
  8
GR1-1
  6
CONTINUOUS
 62
     7
100
AcDbLine
 10
709.994985
 20
114.457243
 30
0.0
 11
717.328319
 21
114.457243
 31
0.0
  0
LINE
  5
124
330
11E
100
AcDbEntity
  8
GR1-1
  6
CONTINUOUS
 62
     7
100
AcDbLine
 10
716.61622
 20
114.802335
 30
0.0
 11
716.61622
 21
114.112151
 31
0.0
  0
LINE
  5
125
330
11E
100
AcDbEntity
  8
GR1-1
  6
CONTINUOUS
 62
     7
100
AcDbLine
 10
716.61622
 20
114.112151
 30
0.0
 11
715.328319
 21
114.457243
 31
0.0
  0
LINE
  5
126
330
11E
100
AcDbEntity
  8
GR1-1
  6
CONTINUOUS
 62
     7
100
AcDbLine
 10
715.328319
 20
114.457243
 30
0.0
 11
716.61622
 21
114.802335
 31
0.0
  0
LINE
  5
127
330
11E
100
AcDbEntity
  8
GR1-1
  6
CONTINUOUS
 62
     7
100
AcDbLine
 10
710.707084
 20
114.112151
 30
0.0
 11
710.707084
 21
114.802335
 31
0.0
  0
LINE
  5
128
330
11E
100
AcDbEntity
  8
GR1-1
  6
CONTINUOUS
 62
     7
100
AcDbLine
 10
710.707084
 20
114.802335
 30
0.0
 11
711.994985
 21
114.457243
 31
0.0
  0
LINE
  5
129
330
11E
100
AcDbEntity
  8
GR1-1
  6
CONTINUOUS
 62
     7
100
AcDbLine
 10
711.994985
 20
114.457243
 30
0.0
 11
710.707084
 21
114.112151
 31
0.0
  0
TEXT
  5
12A
330
11E
100
AcDbEntity
  8
GR1-1
  6
CONTINUOUS
 62
     4
100
AcDbText
 10
707.872526
 20
114.847111
 30
0.0
 40
2.0
  1
１００
 41
0.666667
  7
FX_VECTOR
 72
     5
 11
711.872526
 21
114.847111
 31
0.0
100
AcDbText
  0
ENDBLK
  5
120
330
11E
100
AcDbEntity
  8
0
100
AcDbBlockEnd
  0
BLOCK
  5
12C
330
12B
100
AcDbEntity
  8
0
100
AcDbBlockBegin
  2
BLKF028
 70
     0
 71
     0
 10
0.0
 20
0.0
 30
0.0
  3
BLKF028
  1

  0
LINE
  5
12F
330
12B
100
AcDbEntity
  8
GR1-1
  6
CONTINUOUS
 62
     7
100
AcDbLine
 10
711.328319
 20
124.457243
 30
0.0
 11
704.661652
 21
124.457243
 31
0.0
  0
LINE
  5
130
330
12B
100
AcDbEntity
  8
GR1-1
  6
CONTINUOUS
 62
     7
100
AcDbLine
 10
711.328319
 20
126.957243
 30
0.0
 11
704.661652
 21
126.957243
 31
0.0
  0
LINE
  5
131
330
12B
100
AcDbEntity
  8
GR1-1
  6
CONTINUOUS
 62
     7
100
AcDbLine
 10
705.328319
 20
128.957243
 30
0.0
 11
705.328319
 21
122.457243
 31
0.0
  0
LINE
  5
132
330
12B
100
AcDbEntity
  8
GR1-1
  6
CONTINUOUS
 62
     7
100
AcDbLine
 10
705.673411
 20
123.169342
 30
0.0
 11
704.983227
 21
123.169342
 31
0.0
  0
LINE
  5
133
330
12B
100
AcDbEntity
  8
GR1-1
  6
CONTINUOUS
 62
     7
100
AcDbLine
 10
704.983227
 20
123.169342
 30
0.0
 11
705.328319
 21
124.457243
 31
0.0
  0
LINE
  5
134
330
12B
100
AcDbEntity
  8
GR1-1
  6
CONTINUOUS
 62
     7
100
AcDbLine
 10
705.328319
 20
124.457243
 30
0.0
 11
705.673411
 21
123.169342
 31
0.0
  0
LINE
  5
135
330
12B
100
AcDbEntity
  8
GR1-1
  6
CONTINUOUS
 62
     7
100
AcDbLine
 10
704.983227
 20
128.245144
 30
0.0
 11
705.673411
 21
128.245144
 31
0.0
  0
LINE
  5
136
330
12B
100
AcDbEntity
  8
GR1-1
  6
CONTINUOUS
 62
     7
100
AcDbLine
 10
705.673411
 20
128.245144
 30
0.0
 11
705.328319
 21
126.957243
 31
0.0
  0
LINE
  5
137
330
12B
100
AcDbEntity
  8
GR1-1
  6
CONTINUOUS
 62
     7
100
AcDbLine
 10
705.328319
 20
126.957243
 30
0.0
 11
704.983227
 21
128.245144
 31
0.0
  0
TEXT
  5
138
330
12B
100
AcDbEntity
  8
GR1-1
  6
CONTINUOUS
 62
     4
100
AcDbText
 10
704.661654
 20
124.373901
 30
0.0
 40
2.0
  1
７５
 50
90.0
 41
0.666667
  7
FX_VECTOR
 72
     5
 11
704.661654
 21
127.040568
 31
0.0
100
AcDbText
  0
ENDBLK
  5
12D
330
12B
100
AcDbEntity
  8
0
100
AcDbBlockEnd
  0
BLOCK
  5
13A
330
139
100
AcDbEntity
  8
0
100
AcDbBlockBegin
  2
BLKF029
 70
     0
 71
     0
 10
0.0
 20
0.0
 30
0.0
  3
BLKF029
  1

  0
LINE
  5
13D
330
139
100
AcDbEntity
  8
GR1-1
  6
CONTINUOUS
 62
     7
100
AcDbLine
 10
733.661652
 20
123.790576
 30
0.0
 11
733.661652
 21
110.457243
 31
0.0
  0
LINE
  5
13E
330
139
100
AcDbEntity
  8
GR1-1
  6
CONTINUOUS
 62
     7
100
AcDbLine
 10
711.994985
 20
123.790576
 30
0.0
 11
711.994985
 21
110.457243
 31
0.0
  0
LINE
  5
13F
330
139
100
AcDbEntity
  8
GR1-1
  6
CONTINUOUS
 62
     7
100
AcDbLine
 10
711.994985
 20
111.123909
 30
0.0
 11
733.661652
 21
111.123909
 31
0.0
  0
LINE
  5
140
330
139
100
AcDbEntity
  8
GR1-1
  6
CONTINUOUS
 62
     7
100
AcDbLine
 10
732.373751
 20
110.778817
 30
0.0
 11
732.373751
 21
111.469001
 31
0.0
  0
LINE
  5
141
330
139
100
AcDbEntity
  8
GR1-1
  6
CONTINUOUS
 62
     7
100
AcDbLine
 10
732.373751
 20
111.469001
 30
0.0
 11
733.661652
 21
111.123909
 31
0.0
  0
LINE
  5
142
330
139
100
AcDbEntity
  8
GR1-1
  6
CONTINUOUS
 62
     7
100
AcDbLine
 10
733.661652
 20
111.123909
 30
0.0
 11
732.373751
 21
110.778817
 31
0.0
  0
LINE
  5
143
330
139
100
AcDbEntity
  8
GR1-1
  6
CONTINUOUS
 62
     7
100
AcDbLine
 10
713.282886
 20
111.469001
 30
0.0
 11
713.282886
 21
110.778817
 31
0.0
  0
LINE
  5
144
330
139
100
AcDbEntity
  8
GR1-1
  6
CONTINUOUS
 62
     7
100
AcDbLine
 10
713.282886
 20
110.778817
 30
0.0
 11
711.994985
 21
111.123909
 31
0.0
  0
LINE
  5
145
330
139
100
AcDbEntity
  8
GR1-1
  6
CONTINUOUS
 62
     7
100
AcDbLine
 10
711.994985
 20
111.123909
 30
0.0
 11
713.282886
 21
111.469001
 31
0.0
  0
TEXT
  5
146
330
139
100
AcDbEntity
  8
GR1-1
  6
CONTINUOUS
 62
     4
100
AcDbText
 10
720.82832
 20
111.123901
 30
0.0
 40
2.0
  1
６５０
 41
0.666667
  7
FX_VECTOR
 72
     5
 11
724.82832
 21
111.123901
 31
0.0
100
AcDbText
  0
ENDBLK
  5
13B
330
139
100
AcDbEntity
  8
0
100
AcDbBlockEnd
  0
BLOCK
  5
14B
330
14A
100
AcDbEntity
  8
0
100
AcDbBlockBegin
  2
BLKF030
 70
     0
 71
     0
 10
0.0
 20
0.0
 30
0.0
  3
BLKF030
  1

  0
LINE
  5
14E
330
14A
100
AcDbEntity
  8
GR1-1
  6
CONTINUOUS
 62
     7
100
AcDbLine
 10
713.495141
 20
125.634347
 30
0.0
 11
712.856002
 21
125.894837
 31
0.0
  0
LINE
  5
14F
330
14A
100
AcDbEntity
  8
GR1-1
  6
CONTINUOUS
 62
     7
100
AcDbLine
 10
712.856002
 20
125.894837
 30
0.0
 11
713.661652
 21
126.957243
 31
0.0
  0
LINE
  5
150
330
14A
100
AcDbEntity
  8
GR1-1
  6
CONTINUOUS
 62
     7
100
AcDbLine
 10
713.661652
 20
126.957243
 30
0.0
 11
713.495141
 21
125.634347
 31
0.0
  0
TEXT
  5
151
330
14A
100
AcDbEntity
  8
GR1-1
  6
CONTINUOUS
 62
     4
100
AcDbText
 10
697.210417
 20
119.30717
 30
0.0
 40
2.0
  1
　ガイドピン挿入孔　
 41
0.666667
  7
FX_VECTOR
 72
     5
 11
710.54375
 21
119.30717
 31
0.0
100
AcDbText
  0
LINE
  5
152
330
14A
100
AcDbEntity
  8
GR1-1
  6
CONTINUOUS
 62
     7
100
AcDbLine
 10
713.661652
 20
126.957243
 30
0.0
 11
710.543761
 21
119.307163
 31
0.0
  0
LINE
  5
153
330
14A
100
AcDbEntity
  8
GR1-1
  6
CONTINUOUS
 62
     7
100
AcDbLine
 10
710.543761
 20
119.307163
 30
0.0
 11
697.210427
 21
119.307163
 31
0.0
  0
ENDBLK
  5
14C
330
14A
100
AcDbEntity
  8
0
100
AcDbBlockEnd
  0
BLOCK
  5
155
330
154
100
AcDbEntity
  8
0
100
AcDbBlockBegin
  2
BLKF031
 70
     0
 71
     0
 10
0.0
 20
0.0
 30
0.0
  3
BLKF031
  1

  0
LINE
  5
158
330
154
100
AcDbEntity
  8
GR1-1
  6
CONTINUOUS
 62
     7
100
AcDbLine
 10
711.328319
 20
124.457243
 30
0.0
 11
701.328319
 21
124.457243
 31
0.0
  0
LINE
  5
159
330
154
100
AcDbEntity
  8
GR1-1
  6
CONTINUOUS
 62
     7
100
AcDbLine
 10
711.328319
 20
131.153671
 30
0.0
 11
701.328319
 21
131.153671
 31
0.0
  0
LINE
  5
15A
330
154
100
AcDbEntity
  8
GR1-1
  6
CONTINUOUS
 62
     7
100
AcDbLine
 10
701.994985
 20
131.153671
 30
0.0
 11
701.994985
 21
124.457243
 31
0.0
  0
LINE
  5
15B
330
154
100
AcDbEntity
  8
GR1-1
  6
CONTINUOUS
 62
     7
100
AcDbLine
 10
701.649893
 20
125.745144
 30
0.0
 11
702.340077
 21
125.745144
 31
0.0
  0
LINE
  5
15C
330
154
100
AcDbEntity
  8
GR1-1
  6
CONTINUOUS
 62
     7
100
AcDbLine
 10
702.340077
 20
125.745144
 30
0.0
 11
701.994985
 21
124.457243
 31
0.0
  0
LINE
  5
15D
330
154
100
AcDbEntity
  8
GR1-1
  6
CONTINUOUS
 62
     7
100
AcDbLine
 10
701.994985
 20
124.457243
 30
0.0
 11
701.649893
 21
125.745144
 31
0.0
  0
LINE
  5
15E
330
154
100
AcDbEntity
  8
GR1-1
  6
CONTINUOUS
 62
     7
100
AcDbLine
 10
702.340077
 20
129.86577
 30
0.0
 11
701.649893
 21
129.86577
 31
0.0
  0
LINE
  5
15F
330
154
100
AcDbEntity
  8
GR1-1
  6
CONTINUOUS
 62
     7
100
AcDbLine
 10
701.649893
 20
129.86577
 30
0.0
 11
701.994985
 21
131.153671
 31
0.0
  0
LINE
  5
160
330
154
100
AcDbEntity
  8
GR1-1
  6
CONTINUOUS
 62
     7
100
AcDbLine
 10
701.994985
 20
131.153671
 30
0.0
 11
702.340077
 21
129.86577
 31
0.0
  0
TEXT
  5
161
330
154
100
AcDbEntity
  8
GR1-1
  6
CONTINUOUS
 62
     4
100
AcDbText
 10
701.994987
 20
125.805461
 30
0.0
 40
2.0
  1
２０１
 50
90.0
 41
0.666667
  7
FX_VECTOR
 72
     5
 11
701.994987
 21
129.805461
 31
0.0
100
AcDbText
  0
ENDBLK
  5
156
330
154
100
AcDbEntity
  8
0
100
AcDbBlockEnd
  0
BLOCK
  5
165
330
164
100
AcDbEntity
  8
0
100
AcDbBlockBegin
  2
BLKF032
 70
     0
 71
     0
 10
0.0
 20
0.0
 30
0.0
  3
BLKF032
  1

  0
LINE
  5
168
330
164
100
AcDbEntity
  8
GR1-1
  6
CONTINUOUS
 62
     7
100
AcDbLine
 10
733.661652
 20
133.457243
 30
0.0
 11
733.661652
 21
140.123909
 31
0.0
  0
LINE
  5
169
330
164
100
AcDbEntity
  8
GR1-1
  6
CONTINUOUS
 62
     7
100
AcDbLine
 10
730.328319
 20
133.457243
 30
0.0
 11
730.328319
 21
140.123909
 31
0.0
  0
LINE
  5
16A
330
164
100
AcDbEntity
  8
GR1-1
  6
CONTINUOUS
 62
     7
100
AcDbLine
 10
730.328319
 20
139.457243
 30
0.0
 11
733.661652
 21
139.457243
 31
0.0
  0
LINE
  5
16B
330
164
100
AcDbEntity
  8
GR1-1
  6
CONTINUOUS
 62
     7
100
AcDbLine
 10
732.373751
 20
139.112151
 30
0.0
 11
732.373751
 21
139.802335
 31
0.0
  0
LINE
  5
16C
330
164
100
AcDbEntity
  8
GR1-1
  6
CONTINUOUS
 62
     7
100
AcDbLine
 10
732.373751
 20
139.802335
 30
0.0
 11
733.661652
 21
139.457243
 31
0.0
  0
LINE
  5
16D
330
164
100
AcDbEntity
  8
GR1-1
  6
CONTINUOUS
 62
     7
100
AcDbLine
 10
733.661652
 20
139.457243
 30
0.0
 11
732.373751
 21
139.112151
 31
0.0
  0
LINE
  5
16E
330
164
100
AcDbEntity
  8
GR1-1
  6
CONTINUOUS
 62
     7
100
AcDbLine
 10
731.61622
 20
139.802335
 30
0.0
 11
731.61622
 21
139.112151
 31
0.0
  0
LINE
  5
16F
330
164
100
AcDbEntity
  8
GR1-1
  6
CONTINUOUS
 62
     7
100
AcDbLine
 10
731.61622
 20
139.112151
 30
0.0
 11
730.328319
 21
139.457243
 31
0.0
  0
LINE
  5
170
330
164
100
AcDbEntity
  8
GR1-1
  6
CONTINUOUS
 62
     7
100
AcDbLine
 10
730.328319
 20
139.457243
 30
0.0
 11
731.61622
 21
139.802335
 31
0.0
  0
TEXT
  5
171
330
164
100
AcDbEntity
  8
GR1-1
  6
CONTINUOUS
 62
     4
100
AcDbText
 10
729.994987
 20
140.123926
 30
0.0
 40
2.0
  1
１００
 41
0.666667
  7
FX_VECTOR
 72
     5
 11
733.994987
 21
140.123926
 31
0.0
100
AcDbText
  0
ENDBLK
  5
166
330
164
100
AcDbEntity
  8
0
100
AcDbBlockEnd
  0
BLOCK
  5
173
330
172
100
AcDbEntity
  8
0
100
AcDbBlockBegin
  2
BLKF033
 70
     0
 71
     0
 10
0.0
 20
0.0
 30
0.0
  3
BLKF033
  1

  0
LINE
  5
176
330
172
100
AcDbEntity
  8
GR1-1
  6
CONTINUOUS
 62
     7
100
AcDbLine
 10
728.157792
 20
133.457243
 30
0.0
 11
728.157792
 21
140.123909
 31
0.0
  0
LINE
  5
177
330
172
100
AcDbEntity
  8
GR1-1
  6
CONTINUOUS
 62
     7
100
AcDbLine
 10
726.157792
 20
139.457243
 30
0.0
 11
732.328319
 21
139.457243
 31
0.0
  0
LINE
  5
178
330
172
100
AcDbEntity
  8
GR1-1
  6
CONTINUOUS
 62
     7
100
AcDbLine
 10
731.61622
 20
139.802335
 30
0.0
 11
731.61622
 21
139.112151
 31
0.0
  0
LINE
  5
179
330
172
100
AcDbEntity
  8
GR1-1
  6
CONTINUOUS
 62
     7
100
AcDbLine
 10
731.61622
 20
139.112151
 30
0.0
 11
730.328319
 21
139.457243
 31
0.0
  0
LINE
  5
17A
330
172
100
AcDbEntity
  8
GR1-1
  6
CONTINUOUS
 62
     7
100
AcDbLine
 10
730.328319
 20
139.457243
 30
0.0
 11
731.61622
 21
139.802335
 31
0.0
  0
LINE
  5
17B
330
172
100
AcDbEntity
  8
GR1-1
  6
CONTINUOUS
 62
     7
100
AcDbLine
 10
726.869891
 20
139.112151
 30
0.0
 11
726.869891
 21
139.802335
 31
0.0
  0
LINE
  5
17C
330
172
100
AcDbEntity
  8
GR1-1
  6
CONTINUOUS
 62
     7
100
AcDbLine
 10
726.869891
 20
139.802335
 30
0.0
 11
728.157792
 21
139.457243
 31
0.0
  0
LINE
  5
17D
330
172
100
AcDbEntity
  8
GR1-1
  6
CONTINUOUS
 62
     7
100
AcDbLine
 10
728.157792
 20
139.457243
 30
0.0
 11
726.869891
 21
139.112151
 31
0.0
  0
TEXT
  5
17E
330
172
100
AcDbEntity
  8
GR1-1
  6
CONTINUOUS
 62
     4
100
AcDbText
 10
728.125456
 20
135.949829
 30
0.0
 40
2.0
  1
６５
 41
0.666667
  7
FX_VECTOR
 72
     5
 11
730.792122
 21
135.949829
 31
0.0
100
AcDbText
  0
ENDBLK
  5
174
330
172
100
AcDbEntity
  8
0
100
AcDbBlockEnd
  0
BLOCK
  5
180
330
17F
100
AcDbEntity
  8
0
100
AcDbBlockBegin
  2
BLKF034
 70
     0
 71
     0
 10
0.0
 20
0.0
 30
0.0
  3
BLKF034
  1

  0
LINE
  5
183
330
17F
100
AcDbEntity
  8
GR1-1
  6
CONTINUOUS
 62
     7
100
AcDbLine
 10
726.974953
 20
133.160487
 30
0.0
 11
725.90777
 21
145.11294
 31
0.0
  0
LINE
  5
184
330
17F
100
AcDbEntity
  8
GR1-1
  6
CONTINUOUS
 62
     7
100
AcDbLine
 10
730.269031
 20
133.454601
 30
0.0
 11
729.201847
 21
145.407054
 31
0.0
  0
LINE
  5
185
330
17F
100
AcDbEntity
  8
GR1-1
  6
CONTINUOUS
 62
     7
100
AcDbLine
 10
731.253211
 20
144.920892
 30
0.0
 11
723.974982
 21
144.271051
 31
0.0
  0
LINE
  5
186
330
17F
100
AcDbEntity
  8
GR1-1
  6
CONTINUOUS
 62
     7
100
AcDbLine
 10
724.71495
 20
143.990654
 30
0.0
 11
724.65357
 21
144.678104
 31
0.0
  0
LINE
  5
187
330
17F
100
AcDbEntity
  8
GR1-1
  6
CONTINUOUS
 62
     7
100
AcDbLine
 10
724.65357
 20
144.678104
 30
0.0
 11
725.967058
 21
144.448914
 31
0.0
  0
LINE
  5
188
330
17F
100
AcDbEntity
  8
GR1-1
  6
CONTINUOUS
 62
     7
100
AcDbLine
 10
725.967058
 20
144.448914
 30
0.0
 11
724.71495
 21
143.990654
 31
0.0
  0
LINE
  5
189
330
17F
100
AcDbEntity
  8
GR1-1
  6
CONTINUOUS
 62
     7
100
AcDbLine
 10
730.513244
 20
145.201289
 30
0.0
 11
730.574623
 21
144.513839
 31
0.0
  0
LINE
  5
18A
330
17F
100
AcDbEntity
  8
GR1-1
  6
CONTINUOUS
 62
     7
100
AcDbLine
 10
730.574623
 20
144.513839
 30
0.0
 11
729.261135
 21
144.743028
 31
0.0
  0
LINE
  5
18B
330
17F
100
AcDbEntity
  8
GR1-1
  6
CONTINUOUS
 62
     7
100
AcDbLine
 10
729.261135
 20
144.743028
 30
0.0
 11
730.513244
 21
145.201289
 31
0.0
  0
TEXT
  5
18C
330
17F
100
AcDbEntity
  8
GR1-1
  6
CONTINUOUS
 62
     4
100
AcDbText
 10
724.898698
 20
145.022835
 30
0.0
 40
2.0
  1
９９．２
 50
5.102165
 41
0.666667
  7
FX_VECTOR
 72
     5
 11
730.210899
 21
145.497139
 31
0.0
100
AcDbText
  0
ENDBLK
  5
181
330
17F
100
AcDbEntity
  8
0
100
AcDbBlockEnd
  0
BLOCK
  5
18E
330
18D
100
AcDbEntity
  8
0
100
AcDbBlockBegin
  2
BLKF035
 70
     0
 71
     0
 10
0.0
 20
0.0
 30
0.0
  3
BLKF035
  1

  0
LINE
  5
191
330
18D
100
AcDbEntity
  8
GR1-1
  6
CONTINUOUS
 62
     7
100
AcDbLine
 10
715.778097
 20
133.457243
 30
0.0
 11
715.778097
 21
140.123909
 31
0.0
  0
LINE
  5
192
330
18D
100
AcDbEntity
  8
GR1-1
  6
CONTINUOUS
 62
     7
100
AcDbLine
 10
715.778097
 20
139.457243
 30
0.0
 11
728.157792
 21
139.457243
 31
0.0
  0
LINE
  5
193
330
18D
100
AcDbEntity
  8
GR1-1
  6
CONTINUOUS
 62
     7
100
AcDbLine
 10
726.869891
 20
139.112151
 30
0.0
 11
726.869891
 21
139.802335
 31
0.0
  0
LINE
  5
194
330
18D
100
AcDbEntity
  8
GR1-1
  6
CONTINUOUS
 62
     7
100
AcDbLine
 10
726.869891
 20
139.802335
 30
0.0
 11
728.157792
 21
139.457243
 31
0.0
  0
LINE
  5
195
330
18D
100
AcDbEntity
  8
GR1-1
  6
CONTINUOUS
 62
     7
100
AcDbLine
 10
728.157792
 20
139.457243
 30
0.0
 11
726.869891
 21
139.112151
 31
0.0
  0
LINE
  5
196
330
18D
100
AcDbEntity
  8
GR1-1
  6
CONTINUOUS
 62
     7
100
AcDbLine
 10
717.065998
 20
139.802335
 30
0.0
 11
717.065998
 21
139.112151
 31
0.0
  0
LINE
  5
197
330
18D
100
AcDbEntity
  8
GR1-1
  6
CONTINUOUS
 62
     7
100
AcDbLine
 10
717.065998
 20
139.112151
 30
0.0
 11
715.778097
 21
139.457243
 31
0.0
  0
LINE
  5
198
330
18D
100
AcDbEntity
  8
GR1-1
  6
CONTINUOUS
 62
     7
100
AcDbLine
 10
715.778097
 20
139.457243
 30
0.0
 11
717.065998
 21
139.802335
 31
0.0
  0
TEXT
  5
199
330
18D
100
AcDbEntity
  8
GR1-1
  6
CONTINUOUS
 62
     4
100
AcDbText
 10
719.967904
 20
139.457259
 30
0.0
 40
2.0
  1
３７１
 41
0.666667
  7
FX_VECTOR
 72
     5
 11
723.967904
 21
139.457259
 31
0.0
100
AcDbText
  0
ENDBLK
  5
18F
330
18D
100
AcDbEntity
  8
0
100
AcDbBlockEnd
  0
BLOCK
  5
19B
330
19A
100
AcDbEntity
  8
0
100
AcDbBlockBegin
  2
BLKF036
 70
     0
 71
     0
 10
0.0
 20
0.0
 30
0.0
  3
BLKF036
  1

  0
LINE
  5
19E
330
19A
100
AcDbEntity
  8
GR1-1
  6
CONTINUOUS
 62
     7
100
AcDbLine
 10
711.994985
 20
133.457243
 30
0.0
 11
711.994985
 21
140.123909
 31
0.0
  0
LINE
  5
19F
330
19A
100
AcDbEntity
  8
GR1-1
  6
CONTINUOUS
 62
     7
100
AcDbLine
 10
711.994985
 20
139.457243
 30
0.0
 11
715.778097
 21
139.457243
 31
0.0
  0
LINE
  5
1A0
330
19A
100
AcDbEntity
  8
GR1-1
  6
CONTINUOUS
 62
     7
100
AcDbLine
 10
714.490196
 20
139.112151
 30
0.0
 11
714.490196
 21
139.802335
 31
0.0
  0
LINE
  5
1A1
330
19A
100
AcDbEntity
  8
GR1-1
  6
CONTINUOUS
 62
     7
100
AcDbLine
 10
714.490196
 20
139.802335
 30
0.0
 11
715.778097
 21
139.457243
 31
0.0
  0
LINE
  5
1A2
330
19A
100
AcDbEntity
  8
GR1-1
  6
CONTINUOUS
 62
     7
100
AcDbLine
 10
715.778097
 20
139.457243
 30
0.0
 11
714.490196
 21
139.112151
 31
0.0
  0
LINE
  5
1A3
330
19A
100
AcDbEntity
  8
GR1-1
  6
CONTINUOUS
 62
     7
100
AcDbLine
 10
713.282886
 20
139.802335
 30
0.0
 11
713.282886
 21
139.112151
 31
0.0
  0
LINE
  5
1A4
330
19A
100
AcDbEntity
  8
GR1-1
  6
CONTINUOUS
 62
     7
100
AcDbLine
 10
713.282886
 20
139.112151
 30
0.0
 11
711.994985
 21
139.457243
 31
0.0
  0
LINE
  5
1A5
330
19A
100
AcDbEntity
  8
GR1-1
  6
CONTINUOUS
 62
     7
100
AcDbLine
 10
711.994985
 20
139.457243
 30
0.0
 11
713.282886
 21
139.802335
 31
0.0
  0
TEXT
  5
1A6
330
19A
100
AcDbEntity
  8
GR1-1
  6
CONTINUOUS
 62
     4
100
AcDbText
 10
711.886523
 20
140.123926
 30
0.0
 40
2.0
  1
１１３
 41
0.666667
  7
FX_VECTOR
 72
     5
 11
715.886523
 21
140.123926
 31
0.0
100
AcDbText
  0
ENDBLK
  5
19C
330
19A
100
AcDbEntity
  8
0
100
AcDbBlockEnd
  0
BLOCK
  5
1F8
330
1F7
100
AcDbEntity
  8
0
100
AcDbBlockBegin
  2
BLKF037
 70
     0
 71
     0
 10
0.0
 20
0.0
 30
0.0
  3
BLKF037
  1

  0
LINE
  5
1FB
330
1F7
100
AcDbEntity
  8
GR1-1
  6
CONTINUOUS
 62
     7
100
AcDbLine
 10
836.739246
 20
166.895901
 30
0.0
 11
836.130644
 21
166.570389
 31
0.0
  0
LINE
  5
1FC
330
1F7
100
AcDbEntity
  8
GR1-1
  6
CONTINUOUS
 62
     7
100
AcDbLine
 10
836.130644
 20
166.570389
 30
0.0
 11
835.827532
 21
167.868811
 31
0.0
  0
LINE
  5
1FD
330
1F7
100
AcDbEntity
  8
GR1-1
  6
CONTINUOUS
 62
     7
100
AcDbLine
 10
835.827532
 20
167.868811
 30
0.0
 11
836.739246
 21
166.895901
 31
0.0
  0
TEXT
  5
1FE
330
1F7
100
AcDbEntity
  8
GR1-1
  6
CONTINUOUS
 62
     4
100
AcDbText
 10
839.251367
 20
161.467285
 30
0.0
 40
2.0
  1
　施工用インサート　
 41
0.666667
  7
FX_VECTOR
 72
     5
 11
852.584701
 21
161.467285
 31
0.0
100
AcDbText
  0
LINE
  5
1FF
330
1F7
100
AcDbEntity
  8
GR1-1
  6
CONTINUOUS
 62
     7
100
AcDbLine
 10
835.827532
 20
167.868811
 30
0.0
 11
839.251399
 21
161.467291
 31
0.0
  0
LINE
  5
200
330
1F7
100
AcDbEntity
  8
GR1-1
  6
CONTINUOUS
 62
     7
100
AcDbLine
 10
839.251399
 20
161.467291
 30
0.0
 11
852.584732
 21
161.467291
 31
0.0
  0
ENDBLK
  5
1F9
330
1F7
100
AcDbEntity
  8
0
100
AcDbBlockEnd
  0
BLOCK
  5
203
330
202
100
AcDbEntity
  8
0
100
AcDbBlockBegin
  2
BLKF038
 70
     0
 71
     0
 10
0.0
 20
0.0
 30
0.0
  3
BLKF038
  1

  0
LINE
  5
206
330
202
100
AcDbEntity
  8
GR1-1
  6
CONTINUOUS
 62
     7
100
AcDbLine
 10
764.244198
 20
166.035478
 30
0.0
 11
757.577532
 21
166.035478
 31
0.0
  0
LINE
  5
207
330
202
100
AcDbEntity
  8
GR1-1
  6
CONTINUOUS
 62
     7
100
AcDbLine
 10
764.244198
 20
187.702145
 30
0.0
 11
757.577532
 21
187.702145
 31
0.0
  0
LINE
  5
208
330
202
100
AcDbEntity
  8
GR1-1
  6
CONTINUOUS
 62
     7
100
AcDbLine
 10
758.244198
 20
187.702145
 30
0.0
 11
758.244198
 21
166.035478
 31
0.0
  0
LINE
  5
209
330
202
100
AcDbEntity
  8
GR1-1
  6
CONTINUOUS
 62
     7
100
AcDbLine
 10
757.899106
 20
167.323379
 30
0.0
 11
758.58929
 21
167.323379
 31
0.0
  0
LINE
  5
20A
330
202
100
AcDbEntity
  8
GR1-1
  6
CONTINUOUS
 62
     7
100
AcDbLine
 10
758.58929
 20
167.323379
 30
0.0
 11
758.244198
 21
166.035478
 31
0.0
  0
LINE
  5
20B
330
202
100
AcDbEntity
  8
GR1-1
  6
CONTINUOUS
 62
     7
100
AcDbLine
 10
758.244198
 20
166.035478
 30
0.0
 11
757.899106
 21
167.323379
 31
0.0
  0
LINE
  5
20C
330
202
100
AcDbEntity
  8
GR1-1
  6
CONTINUOUS
 62
     7
100
AcDbLine
 10
758.58929
 20
186.414244
 30
0.0
 11
757.899106
 21
186.414244
 31
0.0
  0
LINE
  5
20D
330
202
100
AcDbEntity
  8
GR1-1
  6
CONTINUOUS
 62
     7
100
AcDbLine
 10
757.899106
 20
186.414244
 30
0.0
 11
758.244198
 21
187.702145
 31
0.0
  0
LINE
  5
20E
330
202
100
AcDbEntity
  8
GR1-1
  6
CONTINUOUS
 62
     7
100
AcDbLine
 10
758.244198
 20
187.702145
 30
0.0
 11
758.58929
 21
186.414244
 31
0.0
  0
TEXT
  5
20F
330
202
100
AcDbEntity
  8
GR1-1
  6
CONTINUOUS
 62
     4
100
AcDbText
 10
758.244141
 20
174.868815
 30
0.0
 40
2.0
  1
６５０
 50
90.0
 41
0.666667
  7
FX_VECTOR
 72
     5
 11
758.244141
 21
178.868815
 31
0.0
100
AcDbText
  0
ENDBLK
  5
204
330
202
100
AcDbEntity
  8
0
100
AcDbBlockEnd
  0
BLOCK
  5
211
330
210
100
AcDbEntity
  8
0
100
AcDbBlockBegin
  2
BLKF039
 70
     0
 71
     0
 10
0.0
 20
0.0
 30
0.0
  3
BLKF039
  1

  0
LINE
  5
214
330
210
100
AcDbEntity
  8
GR1-1
  6
CONTINUOUS
 62
     7
100
AcDbLine
 10
764.910865
 20
188.368811
 30
0.0
 11
764.910865
 21
195.035478
 31
0.0
  0
LINE
  5
215
330
210
100
AcDbEntity
  8
GR1-1
  6
CONTINUOUS
 62
     7
100
AcDbLine
 10
773.994198
 20
188.368811
 30
0.0
 11
773.994198
 21
195.035478
 31
0.0
  0
LINE
  5
216
330
210
100
AcDbEntity
  8
GR1-1
  6
CONTINUOUS
 62
     7
100
AcDbLine
 10
773.994198
 20
194.368811
 30
0.0
 11
764.910865
 21
194.368811
 31
0.0
  0
LINE
  5
217
330
210
100
AcDbEntity
  8
GR1-1
  6
CONTINUOUS
 62
     7
100
AcDbLine
 10
766.198766
 20
194.713903
 30
0.0
 11
766.198766
 21
194.023719
 31
0.0
  0
LINE
  5
218
330
210
100
AcDbEntity
  8
GR1-1
  6
CONTINUOUS
 62
     7
100
AcDbLine
 10
766.198766
 20
194.023719
 30
0.0
 11
764.910865
 21
194.368811
 31
0.0
  0
LINE
  5
219
330
210
100
AcDbEntity
  8
GR1-1
  6
CONTINUOUS
 62
     7
100
AcDbLine
 10
764.910865
 20
194.368811
 30
0.0
 11
766.198766
 21
194.713903
 31
0.0
  0
LINE
  5
21A
330
210
100
AcDbEntity
  8
GR1-1
  6
CONTINUOUS
 62
     7
100
AcDbLine
 10
772.706297
 20
194.023719
 30
0.0
 11
772.706297
 21
194.713903
 31
0.0
  0
LINE
  5
21B
330
210
100
AcDbEntity
  8
GR1-1
  6
CONTINUOUS
 62
     7
100
AcDbLine
 10
772.706297
 20
194.713903
 30
0.0
 11
773.994198
 21
194.368811
 31
0.0
  0
LINE
  5
21C
330
210
100
AcDbEntity
  8
GR1-1
  6
CONTINUOUS
 62
     7
100
AcDbLine
 10
773.994198
 20
194.368811
 30
0.0
 11
772.706297
 21
194.023719
 31
0.0
  0
TEXT
  5
21D
330
210
100
AcDbEntity
  8
GR1-1
  6
CONTINUOUS
 62
     4
100
AcDbText
 10
766.119141
 20
194.368815
 30
0.0
 40
2.0
  1
２７２．５
 41
0.666667
  7
FX_VECTOR
 72
     5
 11
772.785807
 21
194.368815
 31
0.0
100
AcDbText
  0
ENDBLK
  5
212
330
210
100
AcDbEntity
  8
0
100
AcDbBlockEnd
  0
BLOCK
  5
21F
330
21E
100
AcDbEntity
  8
0
100
AcDbBlockBegin
  2
BLKF040
 70
     0
 71
     0
 10
0.0
 20
0.0
 30
0.0
  3
BLKF040
  1

  0
LINE
  5
222
330
21E
100
AcDbEntity
  8
GR1-1
  6
CONTINUOUS
 62
     7
100
AcDbLine
 10
780.660865
 20
188.368811
 30
0.0
 11
780.660865
 21
195.035478
 31
0.0
  0
LINE
  5
223
330
21E
100
AcDbEntity
  8
GR1-1
  6
CONTINUOUS
 62
     7
100
AcDbLine
 10
780.660865
 20
194.368811
 30
0.0
 11
773.994198
 21
194.368811
 31
0.0
  0
LINE
  5
224
330
21E
100
AcDbEntity
  8
GR1-1
  6
CONTINUOUS
 62
     7
100
AcDbLine
 10
775.282099
 20
194.713903
 30
0.0
 11
775.282099
 21
194.023719
 31
0.0
  0
LINE
  5
225
330
21E
100
AcDbEntity
  8
GR1-1
  6
CONTINUOUS
 62
     7
100
AcDbLine
 10
775.282099
 20
194.023719
 30
0.0
 11
773.994198
 21
194.368811
 31
0.0
  0
LINE
  5
226
330
21E
100
AcDbEntity
  8
GR1-1
  6
CONTINUOUS
 62
     7
100
AcDbLine
 10
773.994198
 20
194.368811
 30
0.0
 11
775.282099
 21
194.713903
 31
0.0
  0
LINE
  5
227
330
21E
100
AcDbEntity
  8
GR1-1
  6
CONTINUOUS
 62
     7
100
AcDbLine
 10
779.372964
 20
194.023719
 30
0.0
 11
779.372964
 21
194.713903
 31
0.0
  0
LINE
  5
228
330
21E
100
AcDbEntity
  8
GR1-1
  6
CONTINUOUS
 62
     7
100
AcDbLine
 10
779.372964
 20
194.713903
 30
0.0
 11
780.660865
 21
194.368811
 31
0.0
  0
LINE
  5
229
330
21E
100
AcDbEntity
  8
GR1-1
  6
CONTINUOUS
 62
     7
100
AcDbLine
 10
780.660865
 20
194.368811
 30
0.0
 11
779.372964
 21
194.023719
 31
0.0
  0
TEXT
  5
22A
330
21E
100
AcDbEntity
  8
GR1-1
  6
CONTINUOUS
 62
     4
100
AcDbText
 10
775.327474
 20
194.368815
 30
0.0
 40
2.0
  1
２００
 41
0.666667
  7
FX_VECTOR
 72
     5
 11
779.327474
 21
194.368815
 31
0.0
100
AcDbText
  0
ENDBLK
  5
220
330
21E
100
AcDbEntity
  8
0
100
AcDbBlockEnd
  0
BLOCK
  5
22C
330
22B
100
AcDbEntity
  8
0
100
AcDbBlockBegin
  2
BLKF041
 70
     0
 71
     0
 10
0.0
 20
0.0
 30
0.0
  3
BLKF041
  1

  0
LINE
  5
22F
330
22B
100
AcDbEntity
  8
GR1-1
  6
CONTINUOUS
 62
     7
100
AcDbLine
 10
790.827532
 20
188.368811
 30
0.0
 11
790.827532
 21
195.035478
 31
0.0
  0
LINE
  5
230
330
22B
100
AcDbEntity
  8
GR1-1
  6
CONTINUOUS
 62
     7
100
AcDbLine
 10
790.827532
 20
194.368811
 30
0.0
 11
780.660865
 21
194.368811
 31
0.0
  0
LINE
  5
231
330
22B
100
AcDbEntity
  8
GR1-1
  6
CONTINUOUS
 62
     7
100
AcDbLine
 10
781.948766
 20
194.713903
 30
0.0
 11
781.948766
 21
194.023719
 31
0.0
  0
LINE
  5
232
330
22B
100
AcDbEntity
  8
GR1-1
  6
CONTINUOUS
 62
     7
100
AcDbLine
 10
781.948766
 20
194.023719
 30
0.0
 11
780.660865
 21
194.368811
 31
0.0
  0
LINE
  5
233
330
22B
100
AcDbEntity
  8
GR1-1
  6
CONTINUOUS
 62
     7
100
AcDbLine
 10
780.660865
 20
194.368811
 30
0.0
 11
781.948766
 21
194.713903
 31
0.0
  0
LINE
  5
234
330
22B
100
AcDbEntity
  8
GR1-1
  6
CONTINUOUS
 62
     7
100
AcDbLine
 10
789.539631
 20
194.023719
 30
0.0
 11
789.539631
 21
194.713903
 31
0.0
  0
LINE
  5
235
330
22B
100
AcDbEntity
  8
GR1-1
  6
CONTINUOUS
 62
     7
100
AcDbLine
 10
789.539631
 20
194.713903
 30
0.0
 11
790.827532
 21
194.368811
 31
0.0
  0
LINE
  5
236
330
22B
100
AcDbEntity
  8
GR1-1
  6
CONTINUOUS
 62
     7
100
AcDbLine
 10
790.827532
 20
194.368811
 30
0.0
 11
789.539631
 21
194.023719
 31
0.0
  0
TEXT
  5
237
330
22B
100
AcDbEntity
  8
GR1-1
  6
CONTINUOUS
 62
     4
100
AcDbText
 10
783.744141
 20
194.368815
 30
0.0
 40
2.0
  1
３０５
 41
0.666667
  7
FX_VECTOR
 72
     5
 11
787.744141
 21
194.368815
 31
0.0
100
AcDbText
  0
ENDBLK
  5
22D
330
22B
100
AcDbEntity
  8
0
100
AcDbBlockEnd
  0
BLOCK
  5
239
330
238
100
AcDbEntity
  8
0
100
AcDbBlockBegin
  2
BLKF042
 70
     0
 71
     0
 10
0.0
 20
0.0
 30
0.0
  3
BLKF042
  1

  0
LINE
  5
23C
330
238
100
AcDbEntity
  8
GR1-1
  6
CONTINUOUS
 62
     7
100
AcDbLine
 10
797.494198
 20
188.368811
 30
0.0
 11
797.494198
 21
195.035478
 31
0.0
  0
LINE
  5
23D
330
238
100
AcDbEntity
  8
GR1-1
  6
CONTINUOUS
 62
     7
100
AcDbLine
 10
797.494198
 20
194.368811
 30
0.0
 11
790.827532
 21
194.368811
 31
0.0
  0
LINE
  5
23E
330
238
100
AcDbEntity
  8
GR1-1
  6
CONTINUOUS
 62
     7
100
AcDbLine
 10
792.115433
 20
194.713903
 30
0.0
 11
792.115433
 21
194.023719
 31
0.0
  0
LINE
  5
23F
330
238
100
AcDbEntity
  8
GR1-1
  6
CONTINUOUS
 62
     7
100
AcDbLine
 10
792.115433
 20
194.023719
 30
0.0
 11
790.827532
 21
194.368811
 31
0.0
  0
LINE
  5
240
330
238
100
AcDbEntity
  8
GR1-1
  6
CONTINUOUS
 62
     7
100
AcDbLine
 10
790.827532
 20
194.368811
 30
0.0
 11
792.115433
 21
194.713903
 31
0.0
  0
LINE
  5
241
330
238
100
AcDbEntity
  8
GR1-1
  6
CONTINUOUS
 62
     7
100
AcDbLine
 10
796.206297
 20
194.023719
 30
0.0
 11
796.206297
 21
194.713903
 31
0.0
  0
LINE
  5
242
330
238
100
AcDbEntity
  8
GR1-1
  6
CONTINUOUS
 62
     7
100
AcDbLine
 10
796.206297
 20
194.713903
 30
0.0
 11
797.494198
 21
194.368811
 31
0.0
  0
LINE
  5
243
330
238
100
AcDbEntity
  8
GR1-1
  6
CONTINUOUS
 62
     7
100
AcDbLine
 10
797.494198
 20
194.368811
 30
0.0
 11
796.206297
 21
194.023719
 31
0.0
  0
TEXT
  5
244
330
238
100
AcDbEntity
  8
GR1-1
  6
CONTINUOUS
 62
     4
100
AcDbText
 10
792.160807
 20
194.368815
 30
0.0
 40
2.0
  1
２００
 41
0.666667
  7
FX_VECTOR
 72
     5
 11
796.160807
 21
194.368815
 31
0.0
100
AcDbText
  0
ENDBLK
  5
23A
330
238
100
AcDbEntity
  8
0
100
AcDbBlockEnd
  0
BLOCK
  5
246
330
245
100
AcDbEntity
  8
0
100
AcDbBlockBegin
  2
BLKF043
 70
     0
 71
     0
 10
0.0
 20
0.0
 30
0.0
  3
BLKF043
  1

  0
LINE
  5
249
330
245
100
AcDbEntity
  8
GR1-1
  6
CONTINUOUS
 62
     7
100
AcDbLine
 10
815.660865
 20
188.368811
 30
0.0
 11
815.660865
 21
195.035478
 31
0.0
  0
LINE
  5
24A
330
245
100
AcDbEntity
  8
GR1-1
  6
CONTINUOUS
 62
     7
100
AcDbLine
 10
815.660865
 20
194.368811
 30
0.0
 11
797.494198
 21
194.368811
 31
0.0
  0
LINE
  5
24B
330
245
100
AcDbEntity
  8
GR1-1
  6
CONTINUOUS
 62
     7
100
AcDbLine
 10
798.782099
 20
194.713903
 30
0.0
 11
798.782099
 21
194.023719
 31
0.0
  0
LINE
  5
24C
330
245
100
AcDbEntity
  8
GR1-1
  6
CONTINUOUS
 62
     7
100
AcDbLine
 10
798.782099
 20
194.023719
 30
0.0
 11
797.494198
 21
194.368811
 31
0.0
  0
LINE
  5
24D
330
245
100
AcDbEntity
  8
GR1-1
  6
CONTINUOUS
 62
     7
100
AcDbLine
 10
797.494198
 20
194.368811
 30
0.0
 11
798.782099
 21
194.713903
 31
0.0
  0
LINE
  5
24E
330
245
100
AcDbEntity
  8
GR1-1
  6
CONTINUOUS
 62
     7
100
AcDbLine
 10
814.372964
 20
194.023719
 30
0.0
 11
814.372964
 21
194.713903
 31
0.0
  0
LINE
  5
24F
330
245
100
AcDbEntity
  8
GR1-1
  6
CONTINUOUS
 62
     7
100
AcDbLine
 10
814.372964
 20
194.713903
 30
0.0
 11
815.660865
 21
194.368811
 31
0.0
  0
LINE
  5
250
330
245
100
AcDbEntity
  8
GR1-1
  6
CONTINUOUS
 62
     7
100
AcDbLine
 10
815.660865
 20
194.368811
 30
0.0
 11
814.372964
 21
194.023719
 31
0.0
  0
TEXT
  5
251
330
245
100
AcDbEntity
  8
GR1-1
  6
CONTINUOUS
 62
     4
100
AcDbText
 10
804.577474
 20
194.368815
 30
0.0
 40
2.0
  1
５４５
 41
0.666667
  7
FX_VECTOR
 72
     5
 11
808.577474
 21
194.368815
 31
0.0
100
AcDbText
  0
ENDBLK
  5
247
330
245
100
AcDbEntity
  8
0
100
AcDbBlockEnd
  0
BLOCK
  5
253
330
252
100
AcDbEntity
  8
0
100
AcDbBlockBegin
  2
BLKF044
 70
     0
 71
     0
 10
0.0
 20
0.0
 30
0.0
  3
BLKF044
  1

  0
LINE
  5
256
330
252
100
AcDbEntity
  8
GR1-1
  6
CONTINUOUS
 62
     7
100
AcDbLine
 10
822.327532
 20
188.368811
 30
0.0
 11
822.327532
 21
195.035478
 31
0.0
  0
LINE
  5
257
330
252
100
AcDbEntity
  8
GR1-1
  6
CONTINUOUS
 62
     7
100
AcDbLine
 10
822.327532
 20
194.368811
 30
0.0
 11
815.660865
 21
194.368811
 31
0.0
  0
LINE
  5
258
330
252
100
AcDbEntity
  8
GR1-1
  6
CONTINUOUS
 62
     7
100
AcDbLine
 10
816.948766
 20
194.713903
 30
0.0
 11
816.948766
 21
194.023719
 31
0.0
  0
LINE
  5
259
330
252
100
AcDbEntity
  8
GR1-1
  6
CONTINUOUS
 62
     7
100
AcDbLine
 10
816.948766
 20
194.023719
 30
0.0
 11
815.660865
 21
194.368811
 31
0.0
  0
LINE
  5
25A
330
252
100
AcDbEntity
  8
GR1-1
  6
CONTINUOUS
 62
     7
100
AcDbLine
 10
815.660865
 20
194.368811
 30
0.0
 11
816.948766
 21
194.713903
 31
0.0
  0
LINE
  5
25B
330
252
100
AcDbEntity
  8
GR1-1
  6
CONTINUOUS
 62
     7
100
AcDbLine
 10
821.039631
 20
194.023719
 30
0.0
 11
821.039631
 21
194.713903
 31
0.0
  0
LINE
  5
25C
330
252
100
AcDbEntity
  8
GR1-1
  6
CONTINUOUS
 62
     7
100
AcDbLine
 10
821.039631
 20
194.713903
 30
0.0
 11
822.327532
 21
194.368811
 31
0.0
  0
LINE
  5
25D
330
252
100
AcDbEntity
  8
GR1-1
  6
CONTINUOUS
 62
     7
100
AcDbLine
 10
822.327532
 20
194.368811
 30
0.0
 11
821.039631
 21
194.023719
 31
0.0
  0
TEXT
  5
25E
330
252
100
AcDbEntity
  8
GR1-1
  6
CONTINUOUS
 62
     4
100
AcDbText
 10
816.994141
 20
194.368815
 30
0.0
 40
2.0
  1
２００
 41
0.666667
  7
FX_VECTOR
 72
     5
 11
820.994141
 21
194.368815
 31
0.0
100
AcDbText
  0
ENDBLK
  5
254
330
252
100
AcDbEntity
  8
0
100
AcDbBlockEnd
  0
BLOCK
  5
260
330
25F
100
AcDbEntity
  8
0
100
AcDbBlockBegin
  2
BLKF045
 70
     0
 71
     0
 10
0.0
 20
0.0
 30
0.0
  3
BLKF045
  1

  0
LINE
  5
263
330
25F
100
AcDbEntity
  8
GR1-1
  6
CONTINUOUS
 62
     7
100
AcDbLine
 10
832.494198
 20
188.368811
 30
0.0
 11
832.494198
 21
195.035478
 31
0.0
  0
LINE
  5
264
330
25F
100
AcDbEntity
  8
GR1-1
  6
CONTINUOUS
 62
     7
100
AcDbLine
 10
832.494198
 20
194.368811
 30
0.0
 11
822.327532
 21
194.368811
 31
0.0
  0
LINE
  5
265
330
25F
100
AcDbEntity
  8
GR1-1
  6
CONTINUOUS
 62
     7
100
AcDbLine
 10
823.615433
 20
194.713903
 30
0.0
 11
823.615433
 21
194.023719
 31
0.0
  0
LINE
  5
266
330
25F
100
AcDbEntity
  8
GR1-1
  6
CONTINUOUS
 62
     7
100
AcDbLine
 10
823.615433
 20
194.023719
 30
0.0
 11
822.327532
 21
194.368811
 31
0.0
  0
LINE
  5
267
330
25F
100
AcDbEntity
  8
GR1-1
  6
CONTINUOUS
 62
     7
100
AcDbLine
 10
822.327532
 20
194.368811
 30
0.0
 11
823.615433
 21
194.713903
 31
0.0
  0
LINE
  5
268
330
25F
100
AcDbEntity
  8
GR1-1
  6
CONTINUOUS
 62
     7
100
AcDbLine
 10
831.206297
 20
194.023719
 30
0.0
 11
831.206297
 21
194.713903
 31
0.0
  0
LINE
  5
269
330
25F
100
AcDbEntity
  8
GR1-1
  6
CONTINUOUS
 62
     7
100
AcDbLine
 10
831.206297
 20
194.713903
 30
0.0
 11
832.494198
 21
194.368811
 31
0.0
  0
LINE
  5
26A
330
25F
100
AcDbEntity
  8
GR1-1
  6
CONTINUOUS
 62
     7
100
AcDbLine
 10
832.494198
 20
194.368811
 30
0.0
 11
831.206297
 21
194.023719
 31
0.0
  0
TEXT
  5
26B
330
25F
100
AcDbEntity
  8
GR1-1
  6
CONTINUOUS
 62
     4
100
AcDbText
 10
825.410807
 20
194.368815
 30
0.0
 40
2.0
  1
３０５
 41
0.666667
  7
FX_VECTOR
 72
     5
 11
829.410807
 21
194.368815
 31
0.0
100
AcDbText
  0
ENDBLK
  5
261
330
25F
100
AcDbEntity
  8
0
100
AcDbBlockEnd
  0
BLOCK
  5
26D
330
26C
100
AcDbEntity
  8
0
100
AcDbBlockBegin
  2
BLKF046
 70
     0
 71
     0
 10
0.0
 20
0.0
 30
0.0
  3
BLKF046
  1

  0
LINE
  5
270
330
26C
100
AcDbEntity
  8
GR1-1
  6
CONTINUOUS
 62
     7
100
AcDbLine
 10
839.160865
 20
188.368811
 30
0.0
 11
839.160865
 21
195.035478
 31
0.0
  0
LINE
  5
271
330
26C
100
AcDbEntity
  8
GR1-1
  6
CONTINUOUS
 62
     7
100
AcDbLine
 10
839.160865
 20
194.368811
 30
0.0
 11
832.494198
 21
194.368811
 31
0.0
  0
LINE
  5
272
330
26C
100
AcDbEntity
  8
GR1-1
  6
CONTINUOUS
 62
     7
100
AcDbLine
 10
833.782099
 20
194.713903
 30
0.0
 11
833.782099
 21
194.023719
 31
0.0
  0
LINE
  5
273
330
26C
100
AcDbEntity
  8
GR1-1
  6
CONTINUOUS
 62
     7
100
AcDbLine
 10
833.782099
 20
194.023719
 30
0.0
 11
832.494198
 21
194.368811
 31
0.0
  0
LINE
  5
274
330
26C
100
AcDbEntity
  8
GR1-1
  6
CONTINUOUS
 62
     7
100
AcDbLine
 10
832.494198
 20
194.368811
 30
0.0
 11
833.782099
 21
194.713903
 31
0.0
  0
LINE
  5
275
330
26C
100
AcDbEntity
  8
GR1-1
  6
CONTINUOUS
 62
     7
100
AcDbLine
 10
837.872964
 20
194.023719
 30
0.0
 11
837.872964
 21
194.713903
 31
0.0
  0
LINE
  5
276
330
26C
100
AcDbEntity
  8
GR1-1
  6
CONTINUOUS
 62
     7
100
AcDbLine
 10
837.872964
 20
194.713903
 30
0.0
 11
839.160865
 21
194.368811
 31
0.0
  0
LINE
  5
277
330
26C
100
AcDbEntity
  8
GR1-1
  6
CONTINUOUS
 62
     7
100
AcDbLine
 10
839.160865
 20
194.368811
 30
0.0
 11
837.872964
 21
194.023719
 31
0.0
  0
TEXT
  5
278
330
26C
100
AcDbEntity
  8
GR1-1
  6
CONTINUOUS
 62
     4
100
AcDbText
 10
833.827474
 20
194.368815
 30
0.0
 40
2.0
  1
２００
 41
0.666667
  7
FX_VECTOR
 72
     5
 11
837.827474
 21
194.368815
 31
0.0
100
AcDbText
  0
ENDBLK
  5
26E
330
26C
100
AcDbEntity
  8
0
100
AcDbBlockEnd
  0
BLOCK
  5
27A
330
279
100
AcDbEntity
  8
0
100
AcDbBlockBegin
  2
BLKF047
 70
     0
 71
     0
 10
0.0
 20
0.0
 30
0.0
  3
BLKF047
  1

  0
LINE
  5
27D
330
279
100
AcDbEntity
  8
GR1-1
  6
CONTINUOUS
 62
     7
100
AcDbLine
 10
848.244198
 20
188.368811
 30
0.0
 11
848.244198
 21
195.035478
 31
0.0
  0
LINE
  5
27E
330
279
100
AcDbEntity
  8
GR1-1
  6
CONTINUOUS
 62
     7
100
AcDbLine
 10
848.244198
 20
194.368811
 30
0.0
 11
839.160865
 21
194.368811
 31
0.0
  0
LINE
  5
27F
330
279
100
AcDbEntity
  8
GR1-1
  6
CONTINUOUS
 62
     7
100
AcDbLine
 10
840.448766
 20
194.713903
 30
0.0
 11
840.448766
 21
194.023719
 31
0.0
  0
LINE
  5
280
330
279
100
AcDbEntity
  8
GR1-1
  6
CONTINUOUS
 62
     7
100
AcDbLine
 10
840.448766
 20
194.023719
 30
0.0
 11
839.160865
 21
194.368811
 31
0.0
  0
LINE
  5
281
330
279
100
AcDbEntity
  8
GR1-1
  6
CONTINUOUS
 62
     7
100
AcDbLine
 10
839.160865
 20
194.368811
 30
0.0
 11
840.448766
 21
194.713903
 31
0.0
  0
LINE
  5
282
330
279
100
AcDbEntity
  8
GR1-1
  6
CONTINUOUS
 62
     7
100
AcDbLine
 10
846.956297
 20
194.023719
 30
0.0
 11
846.956297
 21
194.713903
 31
0.0
  0
LINE
  5
283
330
279
100
AcDbEntity
  8
GR1-1
  6
CONTINUOUS
 62
     7
100
AcDbLine
 10
846.956297
 20
194.713903
 30
0.0
 11
848.244198
 21
194.368811
 31
0.0
  0
LINE
  5
284
330
279
100
AcDbEntity
  8
GR1-1
  6
CONTINUOUS
 62
     7
100
AcDbLine
 10
848.244198
 20
194.368811
 30
0.0
 11
846.956297
 21
194.023719
 31
0.0
  0
TEXT
  5
285
330
279
100
AcDbEntity
  8
GR1-1
  6
CONTINUOUS
 62
     4
100
AcDbText
 10
840.369141
 20
194.368815
 30
0.0
 40
2.0
  1
２７２．５
 41
0.666667
  7
FX_VECTOR
 72
     5
 11
847.035807
 21
194.368815
 31
0.0
100
AcDbText
  0
ENDBLK
  5
27B
330
279
100
AcDbEntity
  8
0
100
AcDbBlockEnd
  0
BLOCK
  5
297
330
296
100
AcDbEntity
  8
0
100
AcDbBlockBegin
  2
BLKF048
 70
     0
 71
     0
 10
0.0
 20
0.0
 30
0.0
  3
BLKF048
  1

  0
LINE
  5
29A
330
296
100
AcDbEntity
  8
GR1-1
  6
CONTINUOUS
 62
     7
100
AcDbLine
 10
764.78052
 20
133.457243
 30
0.0
 11
764.78052
 21
140.851548
 31
0.0
  0
LINE
  5
29B
330
296
100
AcDbEntity
  8
GR1-1
  6
CONTINUOUS
 62
     7
100
AcDbLine
 10
777.197187
 20
137.518215
 30
0.0
 11
777.197187
 21
140.851548
 31
0.0
  0
LINE
  5
29C
330
296
100
AcDbEntity
  8
GR1-1
  6
CONTINUOUS
 62
     7
100
AcDbLine
 10
777.197187
 20
140.184881
 30
0.0
 11
764.78052
 21
140.184881
 31
0.0
  0
LINE
  5
29D
330
296
100
AcDbEntity
  8
GR1-1
  6
CONTINUOUS
 62
     7
100
AcDbLine
 10
766.068421
 20
140.529973
 30
0.0
 11
766.068421
 21
139.839789
 31
0.0
  0
LINE
  5
29E
330
296
100
AcDbEntity
  8
GR1-1
  6
CONTINUOUS
 62
     7
100
AcDbLine
 10
766.068421
 20
139.839789
 30
0.0
 11
764.78052
 21
140.184881
 31
0.0
  0
LINE
  5
29F
330
296
100
AcDbEntity
  8
GR1-1
  6
CONTINUOUS
 62
     7
100
AcDbLine
 10
764.78052
 20
140.184881
 30
0.0
 11
766.068421
 21
140.529973
 31
0.0
  0
LINE
  5
2A0
330
296
100
AcDbEntity
  8
GR1-1
  6
CONTINUOUS
 62
     7
100
AcDbLine
 10
775.909286
 20
139.839789
 30
0.0
 11
775.909286
 21
140.529973
 31
0.0
  0
LINE
  5
2A1
330
296
100
AcDbEntity
  8
GR1-1
  6
CONTINUOUS
 62
     7
100
AcDbLine
 10
775.909286
 20
140.529973
 30
0.0
 11
777.197187
 21
140.184881
 31
0.0
  0
LINE
  5
2A2
330
296
100
AcDbEntity
  8
GR1-1
  6
CONTINUOUS
 62
     7
100
AcDbLine
 10
777.197187
 20
140.184881
 30
0.0
 11
775.909286
 21
139.839789
 31
0.0
  0
TEXT
  5
2A3
330
296
100
AcDbEntity
  8
GR1-1
  6
CONTINUOUS
 62
     4
100
AcDbText
 10
767.655469
 20
140.184896
 30
0.0
 40
2.0
  1
３７２．５
 41
0.666667
  7
FX_VECTOR
 72
     5
 11
774.322135
 21
140.184896
 31
0.0
100
AcDbText
  0
ENDBLK
  5
298
330
296
100
AcDbEntity
  8
0
100
AcDbBlockEnd
  0
BLOCK
  5
2A5
330
2A4
100
AcDbEntity
  8
0
100
AcDbBlockBegin
  2
BLKF049
 70
     0
 71
     0
 10
0.0
 20
0.0
 30
0.0
  3
BLKF049
  1

  0
LINE
  5
2A8
330
2A4
100
AcDbEntity
  8
GR1-1
  6
CONTINUOUS
 62
     7
100
AcDbLine
 10
794.03052
 20
137.518215
 30
0.0
 11
794.03052
 21
140.851548
 31
0.0
  0
LINE
  5
2A9
330
2A4
100
AcDbEntity
  8
GR1-1
  6
CONTINUOUS
 62
     7
100
AcDbLine
 10
794.03052
 20
140.184881
 30
0.0
 11
777.197187
 21
140.184881
 31
0.0
  0
LINE
  5
2AA
330
2A4
100
AcDbEntity
  8
GR1-1
  6
CONTINUOUS
 62
     7
100
AcDbLine
 10
778.485088
 20
140.529973
 30
0.0
 11
778.485088
 21
139.839789
 31
0.0
  0
LINE
  5
2AB
330
2A4
100
AcDbEntity
  8
GR1-1
  6
CONTINUOUS
 62
     7
100
AcDbLine
 10
778.485088
 20
139.839789
 30
0.0
 11
777.197187
 21
140.184881
 31
0.0
  0
LINE
  5
2AC
330
2A4
100
AcDbEntity
  8
GR1-1
  6
CONTINUOUS
 62
     7
100
AcDbLine
 10
777.197187
 20
140.184881
 30
0.0
 11
778.485088
 21
140.529973
 31
0.0
  0
LINE
  5
2AD
330
2A4
100
AcDbEntity
  8
GR1-1
  6
CONTINUOUS
 62
     7
100
AcDbLine
 10
792.742619
 20
139.839789
 30
0.0
 11
792.742619
 21
140.529973
 31
0.0
  0
LINE
  5
2AE
330
2A4
100
AcDbEntity
  8
GR1-1
  6
CONTINUOUS
 62
     7
100
AcDbLine
 10
792.742619
 20
140.529973
 30
0.0
 11
794.03052
 21
140.184881
 31
0.0
  0
LINE
  5
2AF
330
2A4
100
AcDbEntity
  8
GR1-1
  6
CONTINUOUS
 62
     7
100
AcDbLine
 10
794.03052
 20
140.184881
 30
0.0
 11
792.742619
 21
139.839789
 31
0.0
  0
TEXT
  5
2B0
330
2A4
100
AcDbEntity
  8
GR1-1
  6
CONTINUOUS
 62
     4
100
AcDbText
 10
783.613802
 20
140.184896
 30
0.0
 40
2.0
  1
５０５
 41
0.666667
  7
FX_VECTOR
 72
     5
 11
787.613802
 21
140.184896
 31
0.0
100
AcDbText
  0
ENDBLK
  5
2A6
330
2A4
100
AcDbEntity
  8
0
100
AcDbBlockEnd
  0
BLOCK
  5
2B2
330
2B1
100
AcDbEntity
  8
0
100
AcDbBlockBegin
  2
BLKF050
 70
     0
 71
     0
 10
0.0
 20
0.0
 30
0.0
  3
BLKF050
  1

  0
LINE
  5
2B5
330
2B1
100
AcDbEntity
  8
GR1-1
  6
CONTINUOUS
 62
     7
100
AcDbLine
 10
818.863854
 20
137.518215
 30
0.0
 11
818.863854
 21
140.851548
 31
0.0
  0
LINE
  5
2B6
330
2B1
100
AcDbEntity
  8
GR1-1
  6
CONTINUOUS
 62
     7
100
AcDbLine
 10
818.863854
 20
140.184881
 30
0.0
 11
794.03052
 21
140.184881
 31
0.0
  0
LINE
  5
2B7
330
2B1
100
AcDbEntity
  8
GR1-1
  6
CONTINUOUS
 62
     7
100
AcDbLine
 10
795.318421
 20
140.529973
 30
0.0
 11
795.318421
 21
139.839789
 31
0.0
  0
LINE
  5
2B8
330
2B1
100
AcDbEntity
  8
GR1-1
  6
CONTINUOUS
 62
     7
100
AcDbLine
 10
795.318421
 20
139.839789
 30
0.0
 11
794.03052
 21
140.184881
 31
0.0
  0
LINE
  5
2B9
330
2B1
100
AcDbEntity
  8
GR1-1
  6
CONTINUOUS
 62
     7
100
AcDbLine
 10
794.03052
 20
140.184881
 30
0.0
 11
795.318421
 21
140.529973
 31
0.0
  0
LINE
  5
2BA
330
2B1
100
AcDbEntity
  8
GR1-1
  6
CONTINUOUS
 62
     7
100
AcDbLine
 10
817.575952
 20
139.839789
 30
0.0
 11
817.575952
 21
140.529973
 31
0.0
  0
LINE
  5
2BB
330
2B1
100
AcDbEntity
  8
GR1-1
  6
CONTINUOUS
 62
     7
100
AcDbLine
 10
817.575952
 20
140.529973
 30
0.0
 11
818.863854
 21
140.184881
 31
0.0
  0
LINE
  5
2BC
330
2B1
100
AcDbEntity
  8
GR1-1
  6
CONTINUOUS
 62
     7
100
AcDbLine
 10
818.863854
 20
140.184881
 30
0.0
 11
817.575952
 21
139.839789
 31
0.0
  0
TEXT
  5
2BD
330
2B1
100
AcDbEntity
  8
GR1-1
  6
CONTINUOUS
 62
     4
100
AcDbText
 10
804.447135
 20
140.184896
 30
0.0
 40
2.0
  1
７４５
 41
0.666667
  7
FX_VECTOR
 72
     5
 11
808.447135
 21
140.184896
 31
0.0
100
AcDbText
  0
ENDBLK
  5
2B3
330
2B1
100
AcDbEntity
  8
0
100
AcDbBlockEnd
  0
BLOCK
  5
2BF
330
2BE
100
AcDbEntity
  8
0
100
AcDbBlockBegin
  2
BLKF051
 70
     0
 71
     0
 10
0.0
 20
0.0
 30
0.0
  3
BLKF051
  1

  0
LINE
  5
2C2
330
2BE
100
AcDbEntity
  8
GR1-1
  6
CONTINUOUS
 62
     7
100
AcDbLine
 10
835.697187
 20
137.518215
 30
0.0
 11
835.697187
 21
140.851548
 31
0.0
  0
LINE
  5
2C3
330
2BE
100
AcDbEntity
  8
GR1-1
  6
CONTINUOUS
 62
     7
100
AcDbLine
 10
835.697187
 20
140.184881
 30
0.0
 11
818.863854
 21
140.184881
 31
0.0
  0
LINE
  5
2C4
330
2BE
100
AcDbEntity
  8
GR1-1
  6
CONTINUOUS
 62
     7
100
AcDbLine
 10
820.151755
 20
140.529973
 30
0.0
 11
820.151755
 21
139.839789
 31
0.0
  0
LINE
  5
2C5
330
2BE
100
AcDbEntity
  8
GR1-1
  6
CONTINUOUS
 62
     7
100
AcDbLine
 10
820.151755
 20
139.839789
 30
0.0
 11
818.863854
 21
140.184881
 31
0.0
  0
LINE
  5
2C6
330
2BE
100
AcDbEntity
  8
GR1-1
  6
CONTINUOUS
 62
     7
100
AcDbLine
 10
818.863854
 20
140.184881
 30
0.0
 11
820.151755
 21
140.529973
 31
0.0
  0
LINE
  5
2C7
330
2BE
100
AcDbEntity
  8
GR1-1
  6
CONTINUOUS
 62
     7
100
AcDbLine
 10
834.409286
 20
139.839789
 30
0.0
 11
834.409286
 21
140.529973
 31
0.0
  0
LINE
  5
2C8
330
2BE
100
AcDbEntity
  8
GR1-1
  6
CONTINUOUS
 62
     7
100
AcDbLine
 10
834.409286
 20
140.529973
 30
0.0
 11
835.697187
 21
140.184881
 31
0.0
  0
LINE
  5
2C9
330
2BE
100
AcDbEntity
  8
GR1-1
  6
CONTINUOUS
 62
     7
100
AcDbLine
 10
835.697187
 20
140.184881
 30
0.0
 11
834.409286
 21
139.839789
 31
0.0
  0
TEXT
  5
2CA
330
2BE
100
AcDbEntity
  8
GR1-1
  6
CONTINUOUS
 62
     4
100
AcDbText
 10
825.280469
 20
140.184896
 30
0.0
 40
2.0
  1
５０５
 41
0.666667
  7
FX_VECTOR
 72
     5
 11
829.280469
 21
140.184896
 31
0.0
100
AcDbText
  0
ENDBLK
  5
2C0
330
2BE
100
AcDbEntity
  8
0
100
AcDbBlockEnd
  0
BLOCK
  5
2CC
330
2CB
100
AcDbEntity
  8
0
100
AcDbBlockBegin
  2
BLKF052
 70
     0
 71
     0
 10
0.0
 20
0.0
 30
0.0
  3
BLKF052
  1

  0
LINE
  5
2CF
330
2CB
100
AcDbEntity
  8
GR1-1
  6
CONTINUOUS
 62
     7
100
AcDbLine
 10
848.113854
 20
133.457243
 30
0.0
 11
848.113854
 21
140.851548
 31
0.0
  0
LINE
  5
2D0
330
2CB
100
AcDbEntity
  8
GR1-1
  6
CONTINUOUS
 62
     7
100
AcDbLine
 10
848.113854
 20
140.184881
 30
0.0
 11
835.697187
 21
140.184881
 31
0.0
  0
LINE
  5
2D1
330
2CB
100
AcDbEntity
  8
GR1-1
  6
CONTINUOUS
 62
     7
100
AcDbLine
 10
836.985088
 20
140.529973
 30
0.0
 11
836.985088
 21
139.839789
 31
0.0
  0
LINE
  5
2D2
330
2CB
100
AcDbEntity
  8
GR1-1
  6
CONTINUOUS
 62
     7
100
AcDbLine
 10
836.985088
 20
139.839789
 30
0.0
 11
835.697187
 21
140.184881
 31
0.0
  0
LINE
  5
2D3
330
2CB
100
AcDbEntity
  8
GR1-1
  6
CONTINUOUS
 62
     7
100
AcDbLine
 10
835.697187
 20
140.184881
 30
0.0
 11
836.985088
 21
140.529973
 31
0.0
  0
LINE
  5
2D4
330
2CB
100
AcDbEntity
  8
GR1-1
  6
CONTINUOUS
 62
     7
100
AcDbLine
 10
846.825952
 20
139.839789
 30
0.0
 11
846.825952
 21
140.529973
 31
0.0
  0
LINE
  5
2D5
330
2CB
100
AcDbEntity
  8
GR1-1
  6
CONTINUOUS
 62
     7
100
AcDbLine
 10
846.825952
 20
140.529973
 30
0.0
 11
848.113854
 21
140.184881
 31
0.0
  0
LINE
  5
2D6
330
2CB
100
AcDbEntity
  8
GR1-1
  6
CONTINUOUS
 62
     7
100
AcDbLine
 10
848.113854
 20
140.184881
 30
0.0
 11
846.825952
 21
139.839789
 31
0.0
  0
TEXT
  5
2D7
330
2CB
100
AcDbEntity
  8
GR1-1
  6
CONTINUOUS
 62
     4
100
AcDbText
 10
838.572135
 20
140.184896
 30
0.0
 40
2.0
  1
３７２．５
 41
0.666667
  7
FX_VECTOR
 72
     5
 11
845.238802
 21
140.184896
 31
0.0
100
AcDbText
  0
ENDBLK
  5
2CD
330
2CB
100
AcDbEntity
  8
0
100
AcDbBlockEnd
  0
BLOCK
  5
2D9
330
2D8
100
AcDbEntity
  8
0
100
AcDbBlockBegin
  2
BLKF053
 70
     0
 71
     0
 10
0.0
 20
0.0
 30
0.0
  3
BLKF053
  1

  0
LINE
  5
2DC
330
2D8
100
AcDbEntity
  8
GR1-1
  6
CONTINUOUS
 62
     7
100
AcDbLine
 10
764.113854
 20
132.790576
 30
0.0
 11
757.447187
 21
132.790576
 31
0.0
  0
LINE
  5
2DD
330
2D8
100
AcDbEntity
  8
GR1-1
  6
CONTINUOUS
 62
     7
100
AcDbLine
 10
775.363854
 20
135.813897
 30
0.0
 11
757.447187
 21
135.813897
 31
0.0
  0
LINE
  5
2DE
330
2D8
100
AcDbEntity
  8
GR1-1
  6
CONTINUOUS
 62
     7
100
AcDbLine
 10
758.113854
 20
137.813897
 30
0.0
 11
758.113854
 21
130.790576
 31
0.0
  0
LINE
  5
2DF
330
2D8
100
AcDbEntity
  8
GR1-1
  6
CONTINUOUS
 62
     7
100
AcDbLine
 10
758.458946
 20
131.502675
 30
0.0
 11
757.768761
 21
131.502675
 31
0.0
  0
LINE
  5
2E0
330
2D8
100
AcDbEntity
  8
GR1-1
  6
CONTINUOUS
 62
     7
100
AcDbLine
 10
757.768761
 20
131.502675
 30
0.0
 11
758.113854
 21
132.790576
 31
0.0
  0
LINE
  5
2E1
330
2D8
100
AcDbEntity
  8
GR1-1
  6
CONTINUOUS
 62
     7
100
AcDbLine
 10
758.113854
 20
132.790576
 30
0.0
 11
758.458946
 21
131.502675
 31
0.0
  0
LINE
  5
2E2
330
2D8
100
AcDbEntity
  8
GR1-1
  6
CONTINUOUS
 62
     7
100
AcDbLine
 10
757.768761
 20
137.101799
 30
0.0
 11
758.458946
 21
137.101799
 31
0.0
  0
LINE
  5
2E3
330
2D8
100
AcDbEntity
  8
GR1-1
  6
CONTINUOUS
 62
     7
100
AcDbLine
 10
758.458946
 20
137.101799
 30
0.0
 11
758.113854
 21
135.813897
 31
0.0
  0
LINE
  5
2E4
330
2D8
100
AcDbEntity
  8
GR1-1
  6
CONTINUOUS
 62
     7
100
AcDbLine
 10
758.113854
 20
135.813897
 30
0.0
 11
757.768761
 21
137.101799
 31
0.0
  0
TEXT
  5
2E5
330
2D8
100
AcDbEntity
  8
GR1-1
  6
CONTINUOUS
 62
     4
100
AcDbText
 10
757.447135
 20
131.635579
 30
0.0
 40
2.0
  1
９０．７
 50
90.0
 41
0.666667
  7
FX_VECTOR
 72
     5
 11
757.447135
 21
136.968913
 31
0.0
100
AcDbText
  0
ENDBLK
  5
2DA
330
2D8
100
AcDbEntity
  8
0
100
AcDbBlockEnd
  0
BLOCK
  5
2E7
330
2E6
100
AcDbEntity
  8
0
100
AcDbBlockBegin
  2
BLKF054
 70
     0
 71
     0
 10
0.0
 20
0.0
 30
0.0
  3
BLKF054
  1

  0
LINE
  5
2EA
330
2E6
100
AcDbEntity
  8
GR1-1
  6
CONTINUOUS
 62
     7
100
AcDbLine
 10
764.113854
 20
124.457243
 30
0.0
 11
757.447187
 21
124.457243
 31
0.0
  0
LINE
  5
2EB
330
2E6
100
AcDbEntity
  8
GR1-1
  6
CONTINUOUS
 62
     7
100
AcDbLine
 10
764.113854
 20
132.790576
 30
0.0
 11
757.447187
 21
132.790576
 31
0.0
  0
LINE
  5
2EC
330
2E6
100
AcDbEntity
  8
GR1-1
  6
CONTINUOUS
 62
     7
100
AcDbLine
 10
758.113854
 20
132.790576
 30
0.0
 11
758.113854
 21
124.457243
 31
0.0
  0
LINE
  5
2ED
330
2E6
100
AcDbEntity
  8
GR1-1
  6
CONTINUOUS
 62
     7
100
AcDbLine
 10
757.768761
 20
125.745144
 30
0.0
 11
758.458946
 21
125.745144
 31
0.0
  0
LINE
  5
2EE
330
2E6
100
AcDbEntity
  8
GR1-1
  6
CONTINUOUS
 62
     7
100
AcDbLine
 10
758.458946
 20
125.745144
 30
0.0
 11
758.113854
 21
124.457243
 31
0.0
  0
LINE
  5
2EF
330
2E6
100
AcDbEntity
  8
GR1-1
  6
CONTINUOUS
 62
     7
100
AcDbLine
 10
758.113854
 20
124.457243
 30
0.0
 11
757.768761
 21
125.745144
 31
0.0
  0
LINE
  5
2F0
330
2E6
100
AcDbEntity
  8
GR1-1
  6
CONTINUOUS
 62
     7
100
AcDbLine
 10
758.458946
 20
131.502675
 30
0.0
 11
757.768761
 21
131.502675
 31
0.0
  0
LINE
  5
2F1
330
2E6
100
AcDbEntity
  8
GR1-1
  6
CONTINUOUS
 62
     7
100
AcDbLine
 10
757.768761
 20
131.502675
 30
0.0
 11
758.113854
 21
132.790576
 31
0.0
  0
LINE
  5
2F2
330
2E6
100
AcDbEntity
  8
GR1-1
  6
CONTINUOUS
 62
     7
100
AcDbLine
 10
758.113854
 20
132.790576
 30
0.0
 11
758.458946
 21
131.502675
 31
0.0
  0
TEXT
  5
2F3
330
2E6
100
AcDbEntity
  8
GR1-1
  6
CONTINUOUS
 62
     4
100
AcDbText
 10
758.113802
 20
126.62391
 30
0.0
 40
2.0
  1
２５０
 50
90.0
 41
0.666667
  7
FX_VECTOR
 72
     5
 11
758.113802
 21
130.62391
 31
0.0
100
AcDbText
  0
ENDBLK
  5
2E8
330
2E6
100
AcDbEntity
  8
0
100
AcDbBlockEnd
  0
BLOCK
  5
2F5
330
2F4
100
AcDbEntity
  8
0
100
AcDbBlockBegin
  2
BLKF055
 70
     0
 71
     0
 10
0.0
 20
0.0
 30
0.0
  3
BLKF055
  1

  0
LINE
  5
2F8
330
2F4
100
AcDbEntity
  8
GR1-1
  6
CONTINUOUS
 62
     7
100
AcDbLine
 10
848.113854
 20
123.790576
 30
0.0
 11
848.113854
 21
117.123909
 31
0.0
  0
LINE
  5
2F9
330
2F4
100
AcDbEntity
  8
GR1-1
  6
CONTINUOUS
 62
     7
100
AcDbLine
 10
764.78052
 20
123.790576
 30
0.0
 11
764.78052
 21
117.123909
 31
0.0
  0
LINE
  5
2FA
330
2F4
100
AcDbEntity
  8
GR1-1
  6
CONTINUOUS
 62
     7
100
AcDbLine
 10
764.78052
 20
117.790576
 30
0.0
 11
848.113854
 21
117.790576
 31
0.0
  0
LINE
  5
2FB
330
2F4
100
AcDbEntity
  8
GR1-1
  6
CONTINUOUS
 62
     7
100
AcDbLine
 10
846.825952
 20
117.445484
 30
0.0
 11
846.825952
 21
118.135668
 31
0.0
  0
LINE
  5
2FC
330
2F4
100
AcDbEntity
  8
GR1-1
  6
CONTINUOUS
 62
     7
100
AcDbLine
 10
846.825952
 20
118.135668
 30
0.0
 11
848.113854
 21
117.790576
 31
0.0
  0
LINE
  5
2FD
330
2F4
100
AcDbEntity
  8
GR1-1
  6
CONTINUOUS
 62
     7
100
AcDbLine
 10
848.113854
 20
117.790576
 30
0.0
 11
846.825952
 21
117.445484
 31
0.0
  0
LINE
  5
2FE
330
2F4
100
AcDbEntity
  8
GR1-1
  6
CONTINUOUS
 62
     7
100
AcDbLine
 10
766.068421
 20
118.135668
 30
0.0
 11
766.068421
 21
117.445484
 31
0.0
  0
LINE
  5
2FF
330
2F4
100
AcDbEntity
  8
GR1-1
  6
CONTINUOUS
 62
     7
100
AcDbLine
 10
766.068421
 20
117.445484
 30
0.0
 11
764.78052
 21
117.790576
 31
0.0
  0
LINE
  5
300
330
2F4
100
AcDbEntity
  8
GR1-1
  6
CONTINUOUS
 62
     7
100
AcDbLine
 10
764.78052
 20
117.790576
 30
0.0
 11
766.068421
 21
118.135668
 31
0.0
  0
TEXT
  5
301
330
2F4
100
AcDbEntity
  8
GR1-1
  6
CONTINUOUS
 62
     4
100
AcDbText
 10
803.780469
 20
117.790576
 30
0.0
 40
2.0
  1
２５００
 41
0.666667
  7
FX_VECTOR
 72
     5
 11
809.113802
 21
117.790576
 31
0.0
100
AcDbText
  0
ENDBLK
  5
2F6
330
2F4
100
AcDbEntity
  8
0
100
AcDbBlockEnd
  0
ENDSEC
  0
SECTION
  2
ENTITIES
  0
LINE
  5
A7
330
1F
100
AcDbEntity
  8
GR1-1
  6
極太の実線
 62
     3
100
AcDbLine
 10
915.845963
 20
234.360363
 30
0.0
 11
638.845974
 21
234.360363
 31
0.0
  0
LINE
  5
A8
330
1F
100
AcDbEntity
  8
GR1-1
  6
極太の実線
 62
     3
100
AcDbLine
 10
638.845974
 20
234.360363
 30
0.0
 11
638.845958
 21
44.360363
 31
0.0
  0
LINE
  5
A9
330
1F
100
AcDbEntity
  8
GR1-1
  6
極太の実線
 62
     3
100
AcDbLine
 10
638.845958
 20
44.360363
 30
0.0
 11
915.845958
 21
44.360363
 31
0.0
  0
LINE
  5
AA
330
1F
100
AcDbEntity
  8
GR1-1
  6
極太の実線
 62
     3
100
AcDbLine
 10
915.845958
 20
44.360363
 30
0.0
 11
915.845963
 21
234.360363
 31
0.0
  0
LINE
  5
AB
330
1F
100
AcDbEntity
  8
GR1-1
  6
極太の実線
 62
     3
100
AcDbLine
 10
914.845963
 20
233.360363
 30
0.0
 11
639.845974
 21
233.360363
 31
0.0
  0
LINE
  5
AC
330
1F
100
AcDbEntity
  8
GR1-1
  6
極太の実線
 62
     3
100
AcDbLine
 10
639.845974
 20
233.360363
 30
0.0
 11
639.845958
 21
45.360363
 31
0.0
  0
LINE
  5
AD
330
1F
100
AcDbEntity
  8
GR1-1
  6
極太の実線
 62
     3
100
AcDbLine
 10
639.845958
 20
45.360363
 30
0.0
 11
914.845958
 21
45.360363
 31
0.0
  0
LINE
  5
AE
330
1F
100
AcDbEntity
  8
GR1-1
  6
極太の実線
 62
     3
100
AcDbLine
 10
914.845958
 20
45.360363
 30
0.0
 11
914.845963
 21
233.360363
 31
0.0
  0
LINE
  5
B0
330
1F
100
AcDbEntity
  8
GR1-1
  6
太い実線
 62
     4
100
AcDbLine
 10
836.793212
 20
66.861168
 30
0.0
 11
911.793237
 21
66.861168
 31
0.0
  0
LINE
  5
B1
330
1F
100
AcDbEntity
  8
GR1-1
  6
太い実線
 62
     4
100
AcDbLine
 10
911.793237
 20
60.861168
 30
0.0
 11
836.793212
 21
60.861168
 31
0.0
  0
LINE
  5
B2
330
1F
100
AcDbEntity
  8
GR1-1
  6
太い実線
 62
     4
100
AcDbLine
 10
836.793212
 20
54.861172
 30
0.0
 11
911.793237
 21
54.861172
 31
0.0
  0
LINE
  5
B3
330
1F
100
AcDbEntity
  8
GR1-1
  6
太い実線
 62
     4
100
AcDbLine
 10
836.793212
 20
48.86117
 30
0.0
 11
836.793212
 21
66.861168
 31
0.0
  0
LINE
  5
B4
330
1F
100
AcDbEntity
  8
GR1-1
  6
太い実線
 62
     4
100
AcDbLine
 10
851.793212
 20
66.861168
 30
0.0
 11
851.793212
 21
54.861172
 31
0.0
  0
LINE
  5
B5
330
1F
100
AcDbEntity
  8
GR1-1
  6
太い実線
 62
     4
100
AcDbLine
 10
874.293224
 20
54.861172
 30
0.0
 11
874.293224
 21
60.861168
 31
0.0
  0
TEXT
  5
B7
330
1F
100
AcDbEntity
  8
GR1-1
  6
細い実線
 62
     7
100
AcDbText
 10
841.743229
 20
61.932613
 30
0.0
 40
3.5
  1
図名
 41
0.728571
  7
STYLE1
 72
     5
 11
846.843229
 21
61.932613
 31
0.0
100
AcDbText
  0
TEXT
  5
B8
330
1F
100
AcDbEntity
  8
GR1-1
  6
細い実線
 62
     7
100
AcDbText
 10
841.743229
 20
55.901058
 30
0.0
 40
3.5
  1
尺度
 41
0.728571
  7
STYLE1
 72
     5
 11
846.843229
 21
55.901058
 31
0.0
100
AcDbText
  0
TEXT
  5
B9
330
1F
100
AcDbEntity
  8
GR1-1
  6
細い実線
 62
     7
100
AcDbText
 10
876.443229
 20
55.901058
 30
0.0
 40
3.5
  1
参考重量
 41
0.764286
  7
STYLE1
 72
     5
 11
887.143229
 21
55.901058
 31
0.0
100
AcDbText
  0
TEXT
  5
BA
330
1F
100
AcDbEntity
  8
GR1-1
  6
細い実線
 62
     7
100
AcDbText
 10
854.943229
 20
49.869503
 30
0.0
 40
3.5
  1
小倉セメント製品工業株式会社
 41
0.789796
  7
STYLE1
 72
     5
 11
893.643229
 21
49.869503
 31
0.0
100
AcDbText
  0
LINE
  5
BB
330
1F
100
AcDbEntity
  8
GR1-1
  6
太い実線
 62
     4
100
AcDbLine
 10
889.293273
 20
60.861168
 30
0.0
 11
889.293273
 21
54.861172
 31
0.0
  0
TEXT
  5
BC
330
1F
100
AcDbEntity
  8
GR1-1
  6
細い実線
 62
     7
100
AcDbText
 10
858.443229
 20
56.064075
 30
0.0
 40
3.5
  1
1/30
 41
0.657143
  7
STYLE1
 72
     5
 11
867.643229
 21
56.064075
 31
0.0
100
AcDbText
  0
TEXT
  5
BD
330
1F
100
AcDbEntity
  8
GR1-1
  6
細い実線
 62
     7
100
AcDbText
 10
892.451823
 20
55.901058
 30
0.0
 40
3.5
  1
440　ｋｇ
 41
0.657143
  7
STYLE1
 72
     5
 11
906.251823
 21
55.901058
 31
0.0
100
AcDbText
  0
TEXT
  5
BE
330
1F
100
AcDbEntity
  8
GR1-1
  6
細い実線
 62
     7
100
AcDbText
 10
857.126562
 20
61.85887
 30
0.0
 40
3.5
  1
KP大型ブロック基礎　500、4分　（低擁壁用）
 41
0.657143
  7
STYLE1
 72
     5
 11
912.326562
 21
61.85887
 31
0.0
100
AcDbText
  0
LINE
  5
BF
330
1F
100
AcDbEntity
  8
GR1-1
  6
太い実線
 62
     4
100
AcDbLine
 10
911.793237
 20
66.861168
 30
0.0
 11
911.793237
 21
48.86117
 31
0.0
  0
LINE
  5
C0
330
1F
100
AcDbEntity
  8
GR1-1
  6
太い実線
 62
     4
100
AcDbLine
 10
836.793212
 20
48.86117
 30
0.0
 11
911.793237
 21
48.86117
 31
0.0
  0
TEXT
  5
C1
330
1F
100
AcDbEntity
  8
GR1-1
  6
細い実線
 62
     7
100
AcDbText
 10
715.34707
 20
151.88182
 30
0.0
 40
3.0
  1
　側　面　図　
 41
0.851556
  7
FX_VECTOR
 72
     5
 11
733.229737
 21
151.88182
 31
0.0
100
AcDbText
  0
LINE
  5
C2
330
1F
100
AcDbEntity
  8
GR1-1
  6
細い実線
 62
     7
100
AcDbLine
 10
715.346998
 20
151.548507
 30
0.0
 11
734.680332
 21
151.548507
 31
0.0
  0
TEXT
  5
C3
330
1F
100
AcDbEntity
  8
GR1-1
  6
細い実線
 62
     7
100
AcDbText
 10
796.780534
 20
200.395036
 30
0.0
 40
3.0
  1
　平　面　図　
 41
0.851556
  7
FX_VECTOR
 72
     5
 11
814.6632
 21
200.395036
 31
0.0
100
AcDbText
  0
LINE
  5
C4
330
1F
100
AcDbEntity
  8
GR1-1
  6
細い実線
 62
     7
100
AcDbLine
 10
796.78052
 20
200.061717
 30
0.0
 11
816.113853
 21
200.061717
 31
0.0
  0
TEXT
  5
C5
330
1F
100
AcDbEntity
  8
GR1-1
  6
細い実線
 62
     7
100
AcDbText
 10
796.780534
 20
145.957536
 30
0.0
 40
3.0
  1
　正　面　図　
 41
0.851556
  7
FX_VECTOR
 72
     5
 11
814.6632
 21
145.957536
 31
0.0
100
AcDbText
  0
LINE
  5
C6
330
1F
100
AcDbEntity
  8
GR1-1
  6
細い実線
 62
     7
100
AcDbLine
 10
796.78052
 20
145.624204
 30
0.0
 11
816.113854
 21
145.624204
 31
0.0
  0
INSERT
  5
CA
330
1F
100
AcDbEntity
  8
0
100
AcDbBlockReference
  2
BLKF021
 10
0.0
 20
0.0
 30
0.0
  0
INSERT
  5
D8
330
1F
100
AcDbEntity
  8
0
100
AcDbBlockReference
  2
BLKF022
 10
0.0
 20
0.0
 30
0.0
  0
INSERT
  5
E6
330
1F
100
AcDbEntity
  8
0
100
AcDbBlockReference
  2
BLKF023
 10
0.0
 20
0.0
 30
0.0
  0
LINE
  5
F1
330
1F
100
AcDbEntity
  8
GR1-1
  6
CONTINUOUS
 62
     1
100
AcDbLine
 10
730.328319
 20
124.457243
 30
0.0
 11
733.661652
 21
124.457243
 31
0.0
  0
LINE
  5
F2
330
1F
100
AcDbEntity
  8
GR1-1
  6
CONTINUOUS
 62
     1
100
AcDbLine
 10
733.661652
 20
132.790576
 30
0.0
 11
730.328319
 21
132.790576
 31
0.0
  0
LINE
  5
F3
330
1F
100
AcDbEntity
  8
GR1-1
  6
CONTINUOUS
 62
     1
100
AcDbLine
 10
733.661652
 20
132.790576
 30
0.0
 11
733.661652
 21
124.457243
 31
0.0
  0
LINE
  5
F4
330
1F
100
AcDbEntity
  8
GR1-1
  6
CONTINUOUS
 62
     1
100
AcDbLine
 10
730.328319
 20
124.457243
 30
0.0
 11
728.10887
 21
132.592411
 31
0.0
  0
CIRCLE
  5
F5
330
1F
100
AcDbEntity
  8
GR1-1
  6
CONTINUOUS
 62
     6
100
AcDbCircle
 10
731.994985
 20
126.957243
 30
0.0
 40
0.25
  0
LINE
  5
F6
330
1F
100
AcDbEntity
  8
GR1-1
  6
CONTINUOUS
 62
     1
100
AcDbLine
 10
711.994985
 20
131.153671
 30
0.0
 11
730.328319
 21
132.790576
 31
0.0
  0
INSERT
  5
FA
330
1F
100
AcDbEntity
  8
0
100
AcDbBlockReference
  2
BLKF024
 10
0.0
 20
0.0
 30
0.0
  0
INSERT
  5
107
330
1F
100
AcDbEntity
  8
0
100
AcDbBlockReference
  2
BLKF025
 10
0.0
 20
0.0
 30
0.0
  0
INSERT
  5
114
330
1F
100
AcDbEntity
  8
0
100
AcDbBlockReference
  2
BLKF026
 10
0.0
 20
0.0
 30
0.0
  0
INSERT
  5
121
330
1F
100
AcDbEntity
  8
0
100
AcDbBlockReference
  2
BLKF027
 10
0.0
 20
0.0
 30
0.0
  0
INSERT
  5
12E
330
1F
100
AcDbEntity
  8
0
100
AcDbBlockReference
  2
BLKF028
 10
0.0
 20
0.0
 30
0.0
  0
INSERT
  5
13C
330
1F
100
AcDbEntity
  8
0
100
AcDbBlockReference
  2
BLKF029
 10
0.0
 20
0.0
 30
0.0
  0
LINE
  5
147
330
1F
100
AcDbEntity
  8
GR1-1
  6
CONTINUOUS
 62
     1
100
AcDbLine
 10
729.646265
 20
126.957243
 30
0.0
 11
715.478633
 21
126.957243
 31
0.0
  0
LINE
  5
148
330
1F
100
AcDbEntity
  8
GR1-1
  6
CONTINUOUS
 62
     1
100
AcDbLine
 10
711.994985
 20
124.457243
 30
0.0
 11
715.328735
 21
124.457243
 31
0.0
  0
CIRCLE
  5
149
330
1F
100
AcDbEntity
  8
GR1-1
  6
CONTINUOUS
 62
     6
100
AcDbCircle
 10
713.661652
 20
126.957243
 30
0.0
 40
0.25
  0
INSERT
  5
14D
330
1F
100
AcDbEntity
  8
0
100
AcDbBlockReference
  2
BLKF030
 10
0.0
 20
0.0
 30
0.0
  0
INSERT
  5
157
330
1F
100
AcDbEntity
  8
0
100
AcDbBlockReference
  2
BLKF031
 10
0.0
 20
0.0
 30
0.0
  0
LINE
  5
162
330
1F
100
AcDbEntity
  8
GR1-1
  6
CONTINUOUS
 62
     1
100
AcDbLine
 10
711.994985
 20
124.457243
 30
0.0
 11
711.994985
 21
131.153671
 31
0.0
  0
LINE
  5
163
330
1F
100
AcDbEntity
  8
GR1-1
  6
CONTINUOUS
 62
     1
100
AcDbLine
 10
715.328735
 20
124.457243
 30
0.0
 11
715.741696
 21
131.488199
 31
0.0
  0
INSERT
  5
167
330
1F
100
AcDbEntity
  8
0
100
AcDbBlockReference
  2
BLKF032
 10
0.0
 20
0.0
 30
0.0
  0
INSERT
  5
175
330
1F
100
AcDbEntity
  8
0
100
AcDbBlockReference
  2
BLKF033
 10
0.0
 20
0.0
 30
0.0
  0
INSERT
  5
182
330
1F
100
AcDbEntity
  8
0
100
AcDbBlockReference
  2
BLKF034
 10
0.0
 20
0.0
 30
0.0
  0
INSERT
  5
190
330
1F
100
AcDbEntity
  8
0
100
AcDbBlockReference
  2
BLKF035
 10
0.0
 20
0.0
 30
0.0
  0
INSERT
  5
19D
330
1F
100
AcDbEntity
  8
0
100
AcDbBlockReference
  2
BLKF036
 10
0.0
 20
0.0
 30
0.0
  0
LINE
  5
1A7
330
1F
100
AcDbEntity
  8
GR1-1
  6
CONTINUOUS
 62
     7
100
AcDbLine
 10
726.730839
 20
132.469372
 30
0.0
 11
726.477822
 21
135.793375
 31
0.0
  0
LINE
  5
1A8
330
1F
100
AcDbEntity
  8
GR1-1
  6
CONTINUOUS
 62
     1
100
AcDbLine
 10
726.707671
 20
135.813897
 30
0.0
 11
727.034241
 21
132.496462
 31
0.0
  0
LINE
  5
1A9
330
1F
100
AcDbEntity
  8
GR1-1
  6
CONTINUOUS
 62
     1
100
AcDbLine
 10
721.548025
 20
132.006621
 30
0.0
 11
722.358294
 21
135.42556
 31
0.0
  0
LINE
  5
1AA
330
1F
100
AcDbEntity
  8
GR1-1
  6
CONTINUOUS
 62
     1
100
AcDbLine
 10
727.034241
 20
132.496462
 30
0.0
 11
721.548025
 21
132.006621
 31
0.0
  0
LINE
  5
1AB
330
1F
100
AcDbEntity
  8
GR1-1
  6
CONTINUOUS
 62
     1
100
AcDbLine
 10
722.358294
 20
135.42556
 30
0.0
 11
726.707671
 21
135.813897
 31
0.0
  0
LINE
  5
1AC
330
1F
100
AcDbEntity
  8
GR1-1
  6
CONTINUOUS
 62
     1
100
AcDbLine
 10
764.910865
 20
187.702145
 30
0.0
 11
764.910865
 21
183.955434
 31
0.0
  0
LINE
  5
1AD
330
1F
100
AcDbEntity
  8
GR1-1
  6
CONTINUOUS
 62
     1
100
AcDbLine
 10
764.910865
 20
183.955434
 30
0.0
 11
773.994198
 21
183.955434
 31
0.0
  0
LINE
  5
1AE
330
1F
100
AcDbEntity
  8
GR1-1
  6
CONTINUOUS
 62
     1
100
AcDbLine
 10
773.994198
 20
183.955434
 30
0.0
 11
773.994198
 21
171.58826
 31
0.0
  0
LINE
  5
1AF
330
1F
100
AcDbEntity
  8
GR1-1
  6
CONTINUOUS
 62
     1
100
AcDbLine
 10
773.994198
 20
171.58826
 30
0.0
 11
764.910865
 21
171.58826
 31
0.0
  0
LINE
  5
1B0
330
1F
100
AcDbEntity
  8
GR1-1
  6
CONTINUOUS
 62
     1
100
AcDbLine
 10
764.910865
 20
171.58826
 30
0.0
 11
764.910865
 21
166.035478
 31
0.0
  0
LINE
  5
1B1
330
1F
100
AcDbEntity
  8
GR1-1
  6
CONTINUOUS
 62
     1
100
AcDbLine
 10
764.910865
 20
166.035478
 30
0.0
 11
848.244198
 21
166.035478
 31
0.0
  0
LINE
  5
1B2
330
1F
100
AcDbEntity
  8
GR1-1
  6
CONTINUOUS
 62
     1
100
AcDbLine
 10
848.244198
 20
166.035478
 30
0.0
 11
848.244198
 21
171.58826
 31
0.0
  0
LINE
  5
1B3
330
1F
100
AcDbEntity
  8
GR1-1
  6
CONTINUOUS
 62
     1
100
AcDbLine
 10
848.244198
 20
171.58826
 30
0.0
 11
839.160865
 21
171.58826
 31
0.0
  0
LINE
  5
1B4
330
1F
100
AcDbEntity
  8
GR1-1
  6
CONTINUOUS
 62
     1
100
AcDbLine
 10
839.160865
 20
171.58826
 30
0.0
 11
839.160865
 21
183.955434
 31
0.0
  0
LINE
  5
1B5
330
1F
100
AcDbEntity
  8
GR1-1
  6
CONTINUOUS
 62
     1
100
AcDbLine
 10
839.160865
 20
183.955434
 30
0.0
 11
848.244198
 21
183.955434
 31
0.0
  0
LINE
  5
1B6
330
1F
100
AcDbEntity
  8
GR1-1
  6
CONTINUOUS
 62
     1
100
AcDbLine
 10
848.244198
 20
183.955434
 30
0.0
 11
848.244198
 21
187.702145
 31
0.0
  0
LINE
  5
1B7
330
1F
100
AcDbEntity
  8
GR1-1
  6
CONTINUOUS
 62
     1
100
AcDbLine
 10
848.244198
 20
187.702145
 30
0.0
 11
764.910865
 21
187.702145
 31
0.0
  0
LINE
  5
1B8
330
1F
100
AcDbEntity
  8
GR1-1
  6
CONTINUOUS
 62
     1
100
AcDbLine
 10
780.660865
 20
183.955434
 30
0.0
 11
790.827532
 21
183.955434
 31
0.0
  0
LINE
  5
1B9
330
1F
100
AcDbEntity
  8
GR1-1
  6
CONTINUOUS
 62
     1
100
AcDbLine
 10
790.827532
 20
183.955434
 30
0.0
 11
790.827532
 21
171.58826
 31
0.0
  0
LINE
  5
1BA
330
1F
100
AcDbEntity
  8
GR1-1
  6
CONTINUOUS
 62
     1
100
AcDbLine
 10
790.827532
 20
171.58826
 30
0.0
 11
780.660865
 21
171.58826
 31
0.0
  0
LINE
  5
1BB
330
1F
100
AcDbEntity
  8
GR1-1
  6
CONTINUOUS
 62
     1
100
AcDbLine
 10
780.660865
 20
171.58826
 30
0.0
 11
780.660865
 21
183.955434
 31
0.0
  0
LINE
  5
1BC
330
1F
100
AcDbEntity
  8
GR1-1
  6
CONTINUOUS
 62
     1
100
AcDbLine
 10
797.494198
 20
183.955434
 30
0.0
 11
815.660865
 21
183.955434
 31
0.0
  0
LINE
  5
1BD
330
1F
100
AcDbEntity
  8
GR1-1
  6
CONTINUOUS
 62
     1
100
AcDbLine
 10
815.660865
 20
183.955434
 30
0.0
 11
815.660865
 21
171.58826
 31
0.0
  0
LINE
  5
1BE
330
1F
100
AcDbEntity
  8
GR1-1
  6
CONTINUOUS
 62
     1
100
AcDbLine
 10
815.660865
 20
171.58826
 30
0.0
 11
797.494198
 21
171.58826
 31
0.0
  0
LINE
  5
1BF
330
1F
100
AcDbEntity
  8
GR1-1
  6
CONTINUOUS
 62
     1
100
AcDbLine
 10
797.494198
 20
171.58826
 30
0.0
 11
797.494198
 21
183.955434
 31
0.0
  0
LINE
  5
1C0
330
1F
100
AcDbEntity
  8
GR1-1
  6
CONTINUOUS
 62
     1
100
AcDbLine
 10
822.327532
 20
183.955434
 30
0.0
 11
832.494198
 21
183.955434
 31
0.0
  0
LINE
  5
1C1
330
1F
100
AcDbEntity
  8
GR1-1
  6
CONTINUOUS
 62
     1
100
AcDbLine
 10
832.494198
 20
183.955434
 30
0.0
 11
832.494198
 21
171.58826
 31
0.0
  0
LINE
  5
1C2
330
1F
100
AcDbEntity
  8
GR1-1
  6
CONTINUOUS
 62
     1
100
AcDbLine
 10
832.494198
 20
171.58826
 30
0.0
 11
822.327532
 21
171.58826
 31
0.0
  0
LINE
  5
1C3
330
1F
100
AcDbEntity
  8
GR1-1
  6
CONTINUOUS
 62
     1
100
AcDbLine
 10
822.327532
 20
171.58826
 30
0.0
 11
822.327532
 21
183.955434
 31
0.0
  0
LINE
  5
1C4
330
1F
100
AcDbEntity
  8
GR1-1
  6
CONTINUOUS
 62
     7
100
AcDbLine
 10
779.160865
 20
172.662889
 30
0.0
 11
775.494198
 21
172.96629
 31
0.0
  0
LINE
  5
1C5
330
1F
100
AcDbEntity
  8
GR1-1
  6
CONTINUOUS
 62
     7
100
AcDbLine
 10
775.494198
 20
172.96629
 30
0.0
 11
775.494198
 21
178.149105
 31
0.0
  0
LINE
  5
1C6
330
1F
100
AcDbEntity
  8
GR1-1
  6
CONTINUOUS
 62
     7
100
AcDbLine
 10
775.494198
 20
178.149105
 30
0.0
 11
779.160865
 21
178.149105
 31
0.0
  0
LINE
  5
1C7
330
1F
100
AcDbEntity
  8
GR1-1
  6
CONTINUOUS
 62
     7
100
AcDbLine
 10
779.160865
 20
178.149105
 30
0.0
 11
779.160865
 21
172.662889
 31
0.0
  0
LINE
  5
1C8
330
1F
100
AcDbEntity
  8
GR1-1
  6
CONTINUOUS
 62
     1
100
AcDbLine
 10
775.938643
 20
173.219308
 30
0.0
 11
775.938643
 21
177.338836
 31
0.0
  0
LINE
  5
1C9
330
1F
100
AcDbEntity
  8
GR1-1
  6
CONTINUOUS
 62
     7
100
AcDbLine
 10
775.938006
 20
177.340427
 30
0.0
 11
775.494198
 21
178.149105
 31
0.0
  0
LINE
  5
1CA
330
1F
100
AcDbEntity
  8
GR1-1
  6
CONTINUOUS
 62
     1
100
AcDbLine
 10
775.938643
 20
177.338836
 30
0.0
 11
778.716421
 21
177.338836
 31
0.0
  0
LINE
  5
1CB
330
1F
100
AcDbEntity
  8
GR1-1
  6
CONTINUOUS
 62
     7
100
AcDbLine
 10
778.717057
 20
177.340427
 30
0.0
 11
779.160865
 21
178.149105
 31
0.0
  0
LINE
  5
1CC
330
1F
100
AcDbEntity
  8
GR1-1
  6
CONTINUOUS
 62
     1
100
AcDbLine
 10
778.716421
 20
177.338836
 30
0.0
 11
778.716421
 21
172.989458
 31
0.0
  0
LINE
  5
1CD
330
1F
100
AcDbEntity
  8
GR1-1
  6
CONTINUOUS
 62
     7
100
AcDbLine
 10
778.716421
 20
172.989458
 30
0.0
 11
775.938643
 21
173.219308
 31
0.0
  0
LINE
  5
1CE
330
1F
100
AcDbEntity
  8
GR1-1
  6
CONTINUOUS
 62
     7
100
AcDbLine
 10
775.938643
 20
173.219308
 30
0.0
 11
775.494198
 21
172.96629
 31
0.0
  0
LINE
  5
1CF
330
1F
100
AcDbEntity
  8
GR1-1
  6
CONTINUOUS
 62
     7
100
AcDbLine
 10
778.716421
 20
172.989458
 30
0.0
 11
779.160865
 21
172.662889
 31
0.0
  0
LINE
  5
1D0
330
1F
100
AcDbEntity
  8
GR1-1
  6
CONTINUOUS
 62
     7
100
AcDbLine
 10
792.327532
 20
172.662889
 30
0.0
 11
795.994198
 21
172.96629
 31
0.0
  0
LINE
  5
1D1
330
1F
100
AcDbEntity
  8
GR1-1
  6
CONTINUOUS
 62
     7
100
AcDbLine
 10
795.994198
 20
172.96629
 30
0.0
 11
795.994198
 21
178.149105
 31
0.0
  0
LINE
  5
1D2
330
1F
100
AcDbEntity
  8
GR1-1
  6
CONTINUOUS
 62
     7
100
AcDbLine
 10
795.994198
 20
178.149105
 30
0.0
 11
792.327532
 21
178.149105
 31
0.0
  0
LINE
  5
1D3
330
1F
100
AcDbEntity
  8
GR1-1
  6
CONTINUOUS
 62
     7
100
AcDbLine
 10
792.327532
 20
178.149105
 30
0.0
 11
792.327532
 21
172.662889
 31
0.0
  0
LINE
  5
1D4
330
1F
100
AcDbEntity
  8
GR1-1
  6
CONTINUOUS
 62
     1
100
AcDbLine
 10
795.549754
 20
173.219308
 30
0.0
 11
795.549754
 21
177.338836
 31
0.0
  0
LINE
  5
1D5
330
1F
100
AcDbEntity
  8
GR1-1
  6
CONTINUOUS
 62
     7
100
AcDbLine
 10
795.55039
 20
177.340427
 30
0.0
 11
795.994198
 21
178.149105
 31
0.0
  0
LINE
  5
1D6
330
1F
100
AcDbEntity
  8
GR1-1
  6
CONTINUOUS
 62
     1
100
AcDbLine
 10
795.549754
 20
177.338836
 30
0.0
 11
792.771976
 21
177.338836
 31
0.0
  0
LINE
  5
1D7
330
1F
100
AcDbEntity
  8
GR1-1
  6
CONTINUOUS
 62
     7
100
AcDbLine
 10
792.77134
 20
177.340427
 30
0.0
 11
792.327532
 21
178.149105
 31
0.0
  0
LINE
  5
1D8
330
1F
100
AcDbEntity
  8
GR1-1
  6
CONTINUOUS
 62
     1
100
AcDbLine
 10
792.771976
 20
177.338836
 30
0.0
 11
792.771976
 21
172.989458
 31
0.0
  0
LINE
  5
1D9
330
1F
100
AcDbEntity
  8
GR1-1
  6
CONTINUOUS
 62
     7
100
AcDbLine
 10
792.771976
 20
172.989458
 30
0.0
 11
795.549754
 21
173.219308
 31
0.0
  0
LINE
  5
1DA
330
1F
100
AcDbEntity
  8
GR1-1
  6
CONTINUOUS
 62
     7
100
AcDbLine
 10
795.549754
 20
173.219308
 30
0.0
 11
795.994198
 21
172.96629
 31
0.0
  0
LINE
  5
1DB
330
1F
100
AcDbEntity
  8
GR1-1
  6
CONTINUOUS
 62
     7
100
AcDbLine
 10
792.771976
 20
172.989458
 30
0.0
 11
792.327532
 21
172.662889
 31
0.0
  0
LINE
  5
1DC
330
1F
100
AcDbEntity
  8
GR1-1
  6
CONTINUOUS
 62
     7
100
AcDbLine
 10
833.994198
 20
172.662889
 30
0.0
 11
837.660865
 21
172.96629
 31
0.0
  0
LINE
  5
1DD
330
1F
100
AcDbEntity
  8
GR1-1
  6
CONTINUOUS
 62
     7
100
AcDbLine
 10
837.660865
 20
172.96629
 30
0.0
 11
837.660865
 21
178.149105
 31
0.0
  0
LINE
  5
1DE
330
1F
100
AcDbEntity
  8
GR1-1
  6
CONTINUOUS
 62
     7
100
AcDbLine
 10
837.660865
 20
178.149105
 30
0.0
 11
833.994198
 21
178.149105
 31
0.0
  0
LINE
  5
1DF
330
1F
100
AcDbEntity
  8
GR1-1
  6
CONTINUOUS
 62
     7
100
AcDbLine
 10
833.994198
 20
178.149105
 30
0.0
 11
833.994198
 21
172.662889
 31
0.0
  0
LINE
  5
1E0
330
1F
100
AcDbEntity
  8
GR1-1
  6
CONTINUOUS
 62
     1
100
AcDbLine
 10
837.21642
 20
173.219308
 30
0.0
 11
837.21642
 21
177.338836
 31
0.0
  0
LINE
  5
1E1
330
1F
100
AcDbEntity
  8
GR1-1
  6
CONTINUOUS
 62
     7
100
AcDbLine
 10
837.217057
 20
177.340427
 30
0.0
 11
837.660865
 21
178.149105
 31
0.0
  0
LINE
  5
1E2
330
1F
100
AcDbEntity
  8
GR1-1
  6
CONTINUOUS
 62
     1
100
AcDbLine
 10
837.21642
 20
177.338836
 30
0.0
 11
834.438643
 21
177.338836
 31
0.0
  0
LINE
  5
1E3
330
1F
100
AcDbEntity
  8
GR1-1
  6
CONTINUOUS
 62
     7
100
AcDbLine
 10
834.438006
 20
177.340427
 30
0.0
 11
833.994198
 21
178.149105
 31
0.0
  0
LINE
  5
1E4
330
1F
100
AcDbEntity
  8
GR1-1
  6
CONTINUOUS
 62
     1
100
AcDbLine
 10
834.438643
 20
177.338836
 30
0.0
 11
834.438643
 21
172.989458
 31
0.0
  0
LINE
  5
1E5
330
1F
100
AcDbEntity
  8
GR1-1
  6
CONTINUOUS
 62
     7
100
AcDbLine
 10
834.438643
 20
172.989458
 30
0.0
 11
837.21642
 21
173.219308
 31
0.0
  0
LINE
  5
1E6
330
1F
100
AcDbEntity
  8
GR1-1
  6
CONTINUOUS
 62
     7
100
AcDbLine
 10
837.21642
 20
173.219308
 30
0.0
 11
837.660865
 21
172.96629
 31
0.0
  0
LINE
  5
1E7
330
1F
100
AcDbEntity
  8
GR1-1
  6
CONTINUOUS
 62
     7
100
AcDbLine
 10
834.438643
 20
172.989458
 30
0.0
 11
833.994198
 21
172.662889
 31
0.0
  0
LINE
  5
1E8
330
1F
100
AcDbEntity
  8
GR1-1
  6
CONTINUOUS
 62
     7
100
AcDbLine
 10
820.827532
 20
172.662889
 30
0.0
 11
817.160865
 21
172.96629
 31
0.0
  0
LINE
  5
1E9
330
1F
100
AcDbEntity
  8
GR1-1
  6
CONTINUOUS
 62
     7
100
AcDbLine
 10
817.160865
 20
172.96629
 30
0.0
 11
817.160865
 21
178.149105
 31
0.0
  0
LINE
  5
1EA
330
1F
100
AcDbEntity
  8
GR1-1
  6
CONTINUOUS
 62
     7
100
AcDbLine
 10
817.160865
 20
178.149105
 30
0.0
 11
820.827532
 21
178.149105
 31
0.0
  0
LINE
  5
1EB
330
1F
100
AcDbEntity
  8
GR1-1
  6
CONTINUOUS
 62
     7
100
AcDbLine
 10
820.827532
 20
178.149105
 30
0.0
 11
820.827532
 21
172.662889
 31
0.0
  0
LINE
  5
1EC
330
1F
100
AcDbEntity
  8
GR1-1
  6
CONTINUOUS
 62
     1
100
AcDbLine
 10
817.605309
 20
173.219308
 30
0.0
 11
817.605309
 21
177.338836
 31
0.0
  0
LINE
  5
1ED
330
1F
100
AcDbEntity
  8
GR1-1
  6
CONTINUOUS
 62
     7
100
AcDbLine
 10
817.604673
 20
177.340427
 30
0.0
 11
817.160865
 21
178.149105
 31
0.0
  0
LINE
  5
1EE
330
1F
100
AcDbEntity
  8
GR1-1
  6
CONTINUOUS
 62
     1
100
AcDbLine
 10
817.605309
 20
177.338836
 30
0.0
 11
820.383087
 21
177.338836
 31
0.0
  0
LINE
  5
1EF
330
1F
100
AcDbEntity
  8
GR1-1
  6
CONTINUOUS
 62
     7
100
AcDbLine
 10
820.383724
 20
177.340427
 30
0.0
 11
820.827532
 21
178.149105
 31
0.0
  0
LINE
  5
1F0
330
1F
100
AcDbEntity
  8
GR1-1
  6
CONTINUOUS
 62
     1
100
AcDbLine
 10
820.383087
 20
177.338836
 30
0.0
 11
820.383087
 21
172.989458
 31
0.0
  0
LINE
  5
1F1
330
1F
100
AcDbEntity
  8
GR1-1
  6
CONTINUOUS
 62
     7
100
AcDbLine
 10
820.383087
 20
172.989458
 30
0.0
 11
817.605309
 21
173.219308
 31
0.0
  0
LINE
  5
1F2
330
1F
100
AcDbEntity
  8
GR1-1
  6
CONTINUOUS
 62
     7
100
AcDbLine
 10
817.605309
 20
173.219308
 30
0.0
 11
817.160865
 21
172.96629
 31
0.0
  0
LINE
  5
1F3
330
1F
100
AcDbEntity
  8
GR1-1
  6
CONTINUOUS
 62
     7
100
AcDbLine
 10
820.383087
 20
172.989458
 30
0.0
 11
820.827532
 21
172.662889
 31
0.0
  0
CIRCLE
  5
1F4
330
1F
100
AcDbEntity
  8
GR1-1
  6
CONTINUOUS
 62
     6
100
AcDbCircle
 10
777.327532
 20
167.868811
 30
0.0
 40
0.6666666666666666
  0
CIRCLE
  5
1F5
330
1F
100
AcDbEntity
  8
GR1-1
  6
CONTINUOUS
 62
     6
100
AcDbCircle
 10
835.827532
 20
167.868811
 30
0.0
 40
0.6666666666666666
  0
CIRCLE
  5
1F6
330
1F
100
AcDbEntity
  8
GR1-1
  6
CONTINUOUS
 62
     6
100
AcDbCircle
 10
806.577532
 20
186.035478
 30
0.0
 40
0.6666666666666666
  0
INSERT
  5
1FA
330
1F
100
AcDbEntity
  8
0
100
AcDbBlockReference
  2
BLKF037
 10
0.0
 20
0.0
 30
0.0
  0
LINE
  5
201
330
1F
100
AcDbEntity
  8
GR1-1
  6
CONTINUOUS
 62
     1
100
AcDbLine
 10
764.910865
 20
169.368811
 30
0.0
 11
848.244198
 21
169.368811
 31
0.0
  0
INSERT
  5
205
330
1F
100
AcDbEntity
  8
0
100
AcDbBlockReference
  2
BLKF038
 10
0.0
 20
0.0
 30
0.0
  0
INSERT
  5
213
330
1F
100
AcDbEntity
  8
0
100
AcDbBlockReference
  2
BLKF039
 10
0.0
 20
0.0
 30
0.0
  0
INSERT
  5
221
330
1F
100
AcDbEntity
  8
0
100
AcDbBlockReference
  2
BLKF040
 10
0.0
 20
0.0
 30
0.0
  0
INSERT
  5
22E
330
1F
100
AcDbEntity
  8
0
100
AcDbBlockReference
  2
BLKF041
 10
0.0
 20
0.0
 30
0.0
  0
INSERT
  5
23B
330
1F
100
AcDbEntity
  8
0
100
AcDbBlockReference
  2
BLKF042
 10
0.0
 20
0.0
 30
0.0
  0
INSERT
  5
248
330
1F
100
AcDbEntity
  8
0
100
AcDbBlockReference
  2
BLKF043
 10
0.0
 20
0.0
 30
0.0
  0
INSERT
  5
255
330
1F
100
AcDbEntity
  8
0
100
AcDbBlockReference
  2
BLKF044
 10
0.0
 20
0.0
 30
0.0
  0
INSERT
  5
262
330
1F
100
AcDbEntity
  8
0
100
AcDbBlockReference
  2
BLKF045
 10
0.0
 20
0.0
 30
0.0
  0
INSERT
  5
26F
330
1F
100
AcDbEntity
  8
0
100
AcDbBlockReference
  2
BLKF046
 10
0.0
 20
0.0
 30
0.0
  0
INSERT
  5
27C
330
1F
100
AcDbEntity
  8
0
100
AcDbBlockReference
  2
BLKF047
 10
0.0
 20
0.0
 30
0.0
  0
LINE
  5
286
330
1F
100
AcDbEntity
  8
GR1-1
  6
CONTINUOUS
 62
     1
100
AcDbLine
 10
764.78052
 20
132.790576
 30
0.0
 11
848.113854
 21
132.790576
 31
0.0
  0
LINE
  5
287
330
1F
100
AcDbEntity
  8
GR1-1
  6
CONTINUOUS
 62
     1
100
AcDbLine
 10
848.113854
 20
132.790576
 30
0.0
 11
848.113854
 21
124.457243
 31
0.0
  0
LINE
  5
288
330
1F
100
AcDbEntity
  8
GR1-1
  6
CONTINUOUS
 62
     1
100
AcDbLine
 10
848.113854
 20
124.457243
 30
0.0
 11
764.78052
 21
124.457243
 31
0.0
  0
LINE
  5
289
330
1F
100
AcDbEntity
  8
GR1-1
  6
CONTINUOUS
 62
     1
100
AcDbLine
 10
764.78052
 20
124.457243
 30
0.0
 11
764.78052
 21
132.790576
 31
0.0
  0
LINE
  5
28A
330
1F
100
AcDbEntity
  8
GR1-1
  6
CONTINUOUS
 62
     7
100
AcDbLine
 10
775.808298
 20
135.813897
 30
0.0
 11
775.403257
 21
132.790576
 31
0.0
  0
LINE
  5
28B
330
1F
100
AcDbEntity
  8
GR1-1
  6
CONTINUOUS
 62
     7
100
AcDbLine
 10
778.586076
 20
135.813897
 30
0.0
 11
778.991117
 21
132.790576
 31
0.0
  0
LINE
  5
28C
330
1F
100
AcDbEntity
  8
GR1-1
  6
CONTINUOUS
 62
     7
100
AcDbLine
 10
778.586076
 20
135.813897
 30
0.0
 11
775.808298
 21
135.813897
 31
0.0
  0
LINE
  5
28D
330
1F
100
AcDbEntity
  8
GR1-1
  6
CONTINUOUS
 62
     7
100
AcDbLine
 10
792.641631
 20
135.813897
 30
0.0
 11
792.23659
 21
132.790576
 31
0.0
  0
LINE
  5
28E
330
1F
100
AcDbEntity
  8
GR1-1
  6
CONTINUOUS
 62
     7
100
AcDbLine
 10
795.419409
 20
135.813897
 30
0.0
 11
795.82445
 21
132.790576
 31
0.0
  0
LINE
  5
28F
330
1F
100
AcDbEntity
  8
GR1-1
  6
CONTINUOUS
 62
     7
100
AcDbLine
 10
795.419409
 20
135.813897
 30
0.0
 11
792.641631
 21
135.813897
 31
0.0
  0
LINE
  5
290
330
1F
100
AcDbEntity
  8
GR1-1
  6
CONTINUOUS
 62
     7
100
AcDbLine
 10
817.474965
 20
135.813897
 30
0.0
 11
817.069923
 21
132.790576
 31
0.0
  0
LINE
  5
291
330
1F
100
AcDbEntity
  8
GR1-1
  6
CONTINUOUS
 62
     7
100
AcDbLine
 10
820.252742
 20
135.813897
 30
0.0
 11
820.657784
 21
132.790576
 31
0.0
  0
LINE
  5
292
330
1F
100
AcDbEntity
  8
GR1-1
  6
CONTINUOUS
 62
     7
100
AcDbLine
 10
820.252742
 20
135.813897
 30
0.0
 11
817.474965
 21
135.813897
 31
0.0
  0
LINE
  5
293
330
1F
100
AcDbEntity
  8
GR1-1
  6
CONTINUOUS
 62
     7
100
AcDbLine
 10
834.308298
 20
135.813897
 30
0.0
 11
833.903257
 21
132.790576
 31
0.0
  0
LINE
  5
294
330
1F
100
AcDbEntity
  8
GR1-1
  6
CONTINUOUS
 62
     7
100
AcDbLine
 10
837.086076
 20
135.813897
 30
0.0
 11
837.491117
 21
132.790576
 31
0.0
  0
LINE
  5
295
330
1F
100
AcDbEntity
  8
GR1-1
  6
CONTINUOUS
 62
     7
100
AcDbLine
 10
837.086076
 20
135.813897
 30
0.0
 11
834.308298
 21
135.813897
 31
0.0
  0
INSERT
  5
299
330
1F
100
AcDbEntity
  8
0
100
AcDbBlockReference
  2
BLKF048
 10
0.0
 20
0.0
 30
0.0
  0
INSERT
  5
2A7
330
1F
100
AcDbEntity
  8
0
100
AcDbBlockReference
  2
BLKF049
 10
0.0
 20
0.0
 30
0.0
  0
INSERT
  5
2B4
330
1F
100
AcDbEntity
  8
0
100
AcDbBlockReference
  2
BLKF050
 10
0.0
 20
0.0
 30
0.0
  0
INSERT
  5
2C1
330
1F
100
AcDbEntity
  8
0
100
AcDbBlockReference
  2
BLKF051
 10
0.0
 20
0.0
 30
0.0
  0
INSERT
  5
2CE
330
1F
100
AcDbEntity
  8
0
100
AcDbBlockReference
  2
BLKF052
 10
0.0
 20
0.0
 30
0.0
  0
INSERT
  5
2DB
330
1F
100
AcDbEntity
  8
0
100
AcDbBlockReference
  2
BLKF053
 10
0.0
 20
0.0
 30
0.0
  0
INSERT
  5
2E9
330
1F
100
AcDbEntity
  8
0
100
AcDbBlockReference
  2
BLKF054
 10
0.0
 20
0.0
 30
0.0
  0
INSERT
  5
2F7
330
1F
100
AcDbEntity
  8
0
100
AcDbBlockReference
  2
BLKF055
 10
0.0
 20
0.0
 30
0.0
  0
ENDSEC
  0
SECTION
  2
OBJECTS
  0
DICTIONARY
  5
C
330
0
100
AcDbDictionary
  3
ACAD_GROUP
350
D
  3
ACAD_LAYOUT
350
1A
  3
ACAD_MLINESTYLE
350
17
  3
ACAD_PLOTSETTINGS
350
19
1001
ACAD
1000
TREAT_AS_HARD
1070
     0
  0
DICTIONARY
  5
308
330
29
100
AcDbDictionary
  3
ACAD_XREC_ROUNDTRIP
360
309
  0
DICTIONARY
  5
D
102
{ACAD_REACTORS
330
C
102
}
330
C
100
AcDbDictionary
1001
ACAD
1000
TREAT_AS_HARD
1070
     0
  0
DICTIONARY
  5
1A
102
{ACAD_REACTORS
330
C
102
}
330
C
100
AcDbDictionary
1001
ACAD
1000
TREAT_AS_HARD
1070
     0
  0
DICTIONARY
  5
17
102
{ACAD_REACTORS
330
C
102
}
330
C
100
AcDbDictionary
  3
STANDARD
350
18
1001
ACAD
1000
TREAT_AS_HARD
1070
     0
  0
DICTIONARY
  5
19
102
{ACAD_REACTORS
330
C
102
}
330
C
100
AcDbDictionary
1001
ACAD
1000
TREAT_AS_HARD
1070
     0
  0
XRECORD
  5
309
102
{ACAD_REACTORS
330
308
102
}
330
308
100
AcDbXrecord
102
UCS
 74
     0
 71
     1
 10
0.0
 20
0.0
 30
0.0
 10
1.0
 20
0.0
 30
0.0
 10
0.0
 20
1.0
 30
0.0
146
0.0
 79
     0
102
VIEW
281
     0
  0
MLINESTYLE
  5
18
102
{ACAD_REACTORS
330
17
102
}
330
17
100
AcDbMlineStyle
  2
Standard
 70
     0
  3

 62
   256
 51
90.0
 52
90.0
 71
     2
 49
0.5
 62
   256
  6
BYLAYER
 49
-0.5
 62
   256
  6
BYLAYER
  0
ENDSEC
  0
EOF
