  0
SECTION
  2
HEADER
  9
$ACADVER
  1
AC1012
  9
$DWGCODEPAGE
  3
ansi_932
  9
$INSBASE
 10
591.720957
 20
8.11036
 30
0.0
  9
$EXTMIN
 10
591.720957
 20
8.11036
 30
0.0
  9
$EXTMAX
 10
962.970964
 20
270.610366
 30
0.0
  9
$LIMMIN
 10
591.720957
 20
8.11036
  9
$LIMMAX
 10
962.970964
 20
270.610366
  9
$ORTHOMODE
 70
     0
  9
$REGENMODE
 70
     1
  9
$FILLMODE
 70
     1
  9
$QTEXTMODE
 70
     0
  9
$MIRRTEXT
 70
     1
  9
$DRAGMODE
 70
     2
  9
$LTSCALE
 40
1.0
  9
$OSMODE
 70
    37
  9
$ATTMODE
 70
     1
  9
$TEXTSIZE
 40
0.2
  9
$TRACEWID
 40
0.05
  9
$TEXTSTYLE
  7
STYLE1
  9
$CLAYER
  8
0
  9
$CELTYPE
  6
BYLAYER
  9
$CECOLOR
 62
   256
  9
$CELTSCALE
 40
1.0
  9
$DELOBJ
 70
     1
  9
$DISPSILH
 70
     0
  9
$DIMSCALE
 40
1.0
  9
$DIMASZ
 40
2.0
  9
$DIMEXO
 40
2.0
  9
$DIMDLI
 40
7.0
  9
$DIMRND
 40
0.0
  9
$DIMDLE
 40
6.0
  9
$DIMEXE
 40
1.0
  9
$DIMTP
 40
0.0
  9
$DIMTM
 40
0.0
  9
$DIMTXT
 40
3.5
  9
$DIMCEN
 40
2.5
  9
$DIMTSZ
 40
0.0
  9
$DIMTOL
 70
     0
  9
$DIMLIM
 70
     0
  9
$DIMTIH
 70
     0
  9
$DIMTOH
 70
     0
  9
$DIMSE1
 70
     0
  9
$DIMSE2
 70
     0
  9
$DIMTAD
 70
     1
  9
$DIMZIN
 70
     8
  9
$DIMBLK
  1

  9
$DIMASO
 70
     1
  9
$DIMSHO
 70
     1
  9
$DIMPOST
  1

  9
$DIMAPOST
  1

  9
$DIMALT
 70
     0
  9
$DIMALTD
 70
     3
  9
$DIMALTF
 40
0.03937
  9
$DIMLFAC
 40
1.0
  9
$DIMTOFL
 70
     1
  9
$DIMTVP
 40
0.0
  9
$DIMTIX
 70
     0
  9
$DIMSOXD
 70
     0
  9
$DIMSAH
 70
     1
  9
$DIMBLK1
  1
FXTIP_ARROW_S
  9
$DIMBLK2
  1
FXTIP_ARROW_E
  9
$DIMSTYLE
  2
FXDIMINFO
  9
$DIMCLRD
 70
     7
  9
$DIMCLRE
 70
     7
  9
$DIMCLRT
 70
     7
  9
$DIMTFAC
 40
1.0
  9
$DIMGAP
 40
1.0
  9
$DIMJUST
 70
     0
  9
$DIMSD1
 70
     0
  9
$DIMSD2
 70
     0
  9
$DIMTOLJ
 70
     0
  9
$DIMTZIN
 70
     8
  9
$DIMALTZ
 70
     0
  9
$DIMALTTZ
 70
     0
  9
$DIMFIT
 70
     3
  9
$DIMUPT
 70
     0
  9
$DIMUNIT
 70
     2
  9
$DIMDEC
 70
     2
  9
$DIMTDEC
 70
     2
  9
$DIMALTU
 70
     2
  9
$DIMALTTD
 70
     3
  9
$DIMTXSTY
  7
STYLE1
  9
$DIMAUNIT
 70
     0
  9
$LUNITS
 70
     2
  9
$LUPREC
 70
     4
  9
$SKETCHINC
 40
0.1
  9
$FILLETRAD
 40
0.5
  9
$AUNITS
 70
     0
  9
$AUPREC
 70
     0
  9
$MENU
  1
.
  9
$ELEVATION
 40
0.0
  9
$PELEVATION
 40
0.0
  9
$THICKNESS
 40
0.0
  9
$LIMCHECK
 70
     0
  9
$CHAMFERA
 40
0.5
  9
$CHAMFERB
 40
0.5
  9
$CHAMFERC
 40
1.0
  9
$CHAMFERD
 40
0.0
  9
$SKPOLY
 70
     0
  9
$TDCREATE
 40
2455577.721649838
  9
$TDUPDATE
 40
2455577.721649849
  9
$TDINDWG
 40
0.0000000116
  9
$TDUSRTIMER
 40
0.0000000116
  9
$USRTIMER
 70
     1
  9
$ANGBASE
 50
0.0
  9
$ANGDIR
 70
     0
  9
$PDMODE
 70
     0
  9
$PDSIZE
 40
0.0
  9
$PLINEWID
 40
0.0
  9
$COORDS
 70
     1
  9
$SPLFRAME
 70
     0
  9
$SPLINETYPE
 70
     6
  9
$SPLINESEGS
 70
     8
  9
$ATTDIA
 70
     0
  9
$ATTREQ
 70
     1
  9
$HANDLING
 70
     1
  9
$HANDSEED
  5
5A3
  9
$SURFTAB1
 70
     6
  9
$SURFTAB2
 70
     6
  9
$SURFTYPE
 70
     6
  9
$SURFU
 70
     6
  9
$SURFV
 70
     6
  9
$UCSNAME
  2

  9
$UCSORG
 10
0.0
 20
0.0
 30
0.0
  9
$UCSXDIR
 10
1.0
 20
0.0
 30
0.0
  9
$UCSYDIR
 10
0.0
 20
1.0
 30
0.0
  9
$PUCSNAME
  2

  9
$PUCSORG
 10
0.0
 20
0.0
 30
0.0
  9
$PUCSXDIR
 10
1.0
 20
0.0
 30
0.0
  9
$PUCSYDIR
 10
0.0
 20
1.0
 30
0.0
  9
$USERI1
 70
     0
  9
$USERI2
 70
     0
  9
$USERI3
 70
     0
  9
$USERI4
 70
     0
  9
$USERI5
 70
     0
  9
$USERR1
 40
0.0
  9
$USERR2
 40
0.0
  9
$USERR3
 40
0.0
  9
$USERR4
 40
0.0
  9
$USERR5
 40
0.0
  9
$WORLDVIEW
 70
     1
  9
$SHADEDGE
 70
     3
  9
$SHADEDIF
 70
    70
  9
$TILEMODE
 70
     1
  9
$MAXACTVP
 70
    64
  9
$PINSBASE
 10
0.0
 20
0.0
 30
0.0
  9
$PLIMCHECK
 70
     0
  9
$PEXTMIN
 10
1.000000E+20
 20
1.000000E+20
 30
1.000000E+20
  9
$PEXTMAX
 10
-1.000000E+20
 20
-1.000000E+20
 30
-1.000000E+20
  9
$PLIMMIN
 10
0.0
 20
0.0
  9
$PLIMMAX
 10
12.0
 20
9.0
  9
$UNITMODE
 70
     0
  9
$VISRETAIN
 70
     1
  9
$PLINEGEN
 70
     0
  9
$PSLTSCALE
 70
     1
  9
$TREEDEPTH
 70
  3020
  9
$PICKSTYLE
 70
     1
  9
$CMLSTYLE
  2
STANDARD
  9
$CMLJUST
 70
     0
  9
$CMLSCALE
 40
1.0
  9
$SAVEIMAGES
 70
     1
  0
ENDSEC
  0
SECTION
  2
CLASSES
  0
CLASS
  1
ACDBDICTIONARYWDFLT
  2
AcDbDictionaryWithDefault
  3
ObjectDBX Classes
 90
        0
280
     0
281
     0
  0
CLASS
  1
XRECORD
  2
AcDbXrecord
  3
AutoCAD 2000
 90
    32768
280
     0
281
     0
  0
CLASS
  1
LWPOLYLINE
  2
AcDbPolyline
  3
AutoCAD 2000
 90
    32768
280
     0
281
     1
  0
CLASS
  1
HATCH
  2
AcDbHatch
  3
AutoCAD 2000
 90
    32768
280
     0
281
     1
  0
CLASS
  1
ACDBPLACEHOLDER
  2
AcDbPlaceHolder
  3
ObjectDBX Classes
 90
        0
280
     0
281
     0
  0
CLASS
  1
LAYOUT
  2
AcDbLayout
  3
ObjectDBX Classes
 90
        0
280
     0
281
     0
  0
ENDSEC
  0
SECTION
  2
TABLES
  0
TABLE
  2
VPORT
  5
8
330
0
100
AcDbSymbolTable
 70
     1
  0
VPORT
  5
29
102
{ACAD_XDICTIONARY
360
5A1
102
}
330
8
100
AcDbSymbolTableRecord
100
AcDbViewportTableRecord
  2
*ACTIVE
 70
     0
 10
0.0
 20
0.0
 11
1.0
 21
1.0
 12
777.34596
 22
139.360363
 13
0.0
 23
0.0
 14
0.5
 24
0.5
 15
0.5
 25
0.5
 16
0.0
 26
0.0
 36
1.0
 17
0.0
 27
0.0
 37
0.0
 40
262.500005
 41
1.414286
 42
50.0
 43
0.0
 44
0.0
 50
0.0
 51
0.0
 71
     0
 72
   100
 73
     1
 74
     3
 75
     0
 76
     0
 77
     0
 78
     0
  0
ENDTAB
  0
TABLE
  2
LTYPE
  5
5
330
0
100
AcDbSymbolTable
 70
     5
  0
LTYPE
  5
14
330
5
100
AcDbSymbolTableRecord
100
AcDbLinetypeTableRecord
  2
BYBLOCK
 70
     0
  3

 72
    65
 73
     0
 40
0.0
  0
LTYPE
  5
15
330
5
100
AcDbSymbolTableRecord
100
AcDbLinetypeTableRecord
  2
BYLAYER
 70
     0
  3

 72
    65
 73
     0
 40
0.0
  0
LTYPE
  5
16
330
5
100
AcDbSymbolTableRecord
100
AcDbLinetypeTableRecord
  2
CONTINUOUS
 70
     0
  3
--------------------
 72
    65
 73
     0
 40
0.0
  0
LTYPE
  5
A6
330
5
100
AcDbSymbolTableRecord
100
AcDbLinetypeTableRecord
  2
極太の実線
 70
     0
  3

 72
    65
 73
     0
 40
0.0
  0
LTYPE
  5
AF
330
5
100
AcDbSymbolTableRecord
100
AcDbLinetypeTableRecord
  2
太い実線
 70
     0
  3

 72
    65
 73
     0
 40
0.0
  0
LTYPE
  5
B6
330
5
100
AcDbSymbolTableRecord
100
AcDbLinetypeTableRecord
  2
細い実線
 70
     0
  3

 72
    65
 73
     0
 40
0.0
  0
LTYPE
  5
170
330
5
100
AcDbSymbolTableRecord
100
AcDbLinetypeTableRecord
  2
細い点線
 70
     0
  3

 72
    65
 73
     2
 40
2.5
 49
2.0
 74
     0
 49
-0.5
 74
     0
  0
ENDTAB
  0
TABLE
  2
LAYER
  5
2
330
0
100
AcDbSymbolTable
 70
    20
  0
LAYER
  5
10
330
2
100
AcDbSymbolTableRecord
100
AcDbLayerTableRecord
  2
0
 70
     0
 62
     7
  6
CONTINUOUS
  0
LAYER
  5
A5
330
2
100
AcDbSymbolTableRecord
100
AcDbLayerTableRecord
  2
GR1-1
 70
     0
 62
     7
  6
CONTINUOUS
  0
LAYER
  5
233
330
2
100
AcDbSymbolTableRecord
100
AcDbLayerTableRecord
  2
1-1
 70
     0
 62
     7
  6
CONTINUOUS
  0
ENDTAB
  0
TABLE
  2
STYLE
  5
3
330
0
100
AcDbSymbolTable
 70
     4
  0
STYLE
  5
11
330
3
100
AcDbSymbolTableRecord
100
AcDbTextStyleTableRecord
  2
STANDARD
 70
     0
 40
0.0
 41
1.0
 50
0.0
 71
     0
 42
0.2
  3
txt
  4

  0
STYLE
  5
3C
330
3
100
AcDbSymbolTableRecord
100
AcDbTextStyleTableRecord
  2
STYLE1
 70
     0
 40
0.0
 41
1.0
 50
0.0
 71
     0
 42
0.2
  3
MONOTXT.SHX
  4
extfont.shx
  0
STYLE
  5
3D
330
3
100
AcDbSymbolTableRecord
100
AcDbTextStyleTableRecord
  2
FX_VECTOR
 70
     0
 40
0.0
 41
1.0
 50
0.0
 71
     0
 42
0.2
  3
MONOTXT.SHX
  4
BIGFONT.SHX
  0
ENDTAB
  0
TABLE
  2
VIEW
  5
6
330
0
100
AcDbSymbolTable
 70
     0
  0
ENDTAB
  0
TABLE
  2
UCS
  5
7
330
0
100
AcDbSymbolTable
 70
     0
  0
ENDTAB
  0
TABLE
  2
APPID
  5
9
330
0
100
AcDbSymbolTable
 70
     1
  0
APPID
  5
12
330
9
100
AcDbSymbolTableRecord
100
AcDbRegAppTableRecord
  2
ACAD
 70
     0
  0
ENDTAB
  0
TABLE
  2
DIMSTYLE
  5
A
330
0
100
AcDbSymbolTable
 70
     2
  0
DIMSTYLE
105
27
330
A
100
AcDbSymbolTableRecord
100
AcDbDimStyleTableRecord
  2
STANDARD
 70
     0
  3

  4

  5

  6

  7

 40
1.0
 41
0.18
 42
0.0625
 43
0.38
 44
0.18
 45
0.0
 46
0.0
 47
0.0
 48
0.0
140
0.18
141
0.09
142
0.0
143
25.4
144
1.0
145
0.0
146
1.0
147
0.09
 71
     0
 72
     0
 73
     1
 74
     1
 75
     0
 76
     0
 77
     0
 78
     0
170
     0
171
     2
172
     0
173
     0
174
     0
175
     0
176
     0
177
     0
178
     0
270
     2
271
     4
272
     4
273
     2
274
     2
340
11
275
     0
280
     0
281
     0
282
     0
283
     1
284
     0
285
     0
286
     0
287
     3
288
     0
  0
DIMSTYLE
105
A4
330
A
100
AcDbSymbolTableRecord
100
AcDbDimStyleTableRecord
  2
FXDIMINFO
 70
     0
  3

  4

  5

  6
FXTIP_ARROW_S
  7
FXTIP_ARROW_E
 40
1.0
 41
2.0
 42
2.0
 43
7.0
 44
1.0
 45
0.0
 46
6.0
 47
0.0
 48
0.0
140
3.5
141
2.5
142
0.0
143
0.03937
144
1.0
145
0.0
146
1.0
147
1.0
 71
     0
 72
     0
 73
     0
 74
     0
 75
     0
 76
     0
 77
     1
 78
     8
170
     0
171
     3
172
     1
173
     1
174
     0
175
     0
176
     7
177
     7
178
     7
179
     2
270
     2
271
     2
272
     2
273
     2
274
     3
340
3C
275
     0
280
     0
281
     0
282
     0
283
     0
284
     8
285
     0
286
     0
287
     3
288
     0
  0
ENDTAB
  0
TABLE
  2
BLOCK_RECORD
  5
1
330
0
100
AcDbSymbolTable
 70
    93
  0
BLOCK_RECORD
  5
1F
330
1
100
AcDbSymbolTableRecord
100
AcDbBlockTableRecord
  2
*MODEL_SPACE
  0
BLOCK_RECORD
  5
1B
330
1
100
AcDbSymbolTableRecord
100
AcDbBlockTableRecord
  2
*PAPER_SPACE
  0
BLOCK_RECORD
  5
3E
330
1
100
AcDbSymbolTableRecord
100
AcDbBlockTableRecord
  2
FXTIP_ARROW_S
  0
BLOCK_RECORD
  5
44
330
1
100
AcDbSymbolTableRecord
100
AcDbBlockTableRecord
  2
FXTIP_ARROW_E
  0
BLOCK_RECORD
  5
4A
330
1
100
AcDbSymbolTableRecord
100
AcDbBlockTableRecord
  2
FXTIP_BLACKDOT_S
  0
BLOCK_RECORD
  5
50
330
1
100
AcDbSymbolTableRecord
100
AcDbBlockTableRecord
  2
FXTIP_BLACKDOT_E
  0
BLOCK_RECORD
  5
56
330
1
100
AcDbSymbolTableRecord
100
AcDbBlockTableRecord
  2
FXTIP_TRIANGLE_S
  0
BLOCK_RECORD
  5
5D
330
1
100
AcDbSymbolTableRecord
100
AcDbBlockTableRecord
  2
FXTIP_TRIANGLE_E
  0
BLOCK_RECORD
  5
64
330
1
100
AcDbSymbolTableRecord
100
AcDbBlockTableRecord
  2
FXTIP_ARCHITECT_S
  0
BLOCK_RECORD
  5
6A
330
1
100
AcDbSymbolTableRecord
100
AcDbBlockTableRecord
  2
FXTIP_ARCHITECT_E
  0
BLOCK_RECORD
  5
70
330
1
100
AcDbSymbolTableRecord
100
AcDbBlockTableRecord
  2
FXTIP_CIVIL_S
  0
BLOCK_RECORD
  5
76
330
1
100
AcDbSymbolTableRecord
100
AcDbBlockTableRecord
  2
FXTIP_CIVIL_E
  0
BLOCK_RECORD
  5
7C
330
1
100
AcDbSymbolTableRecord
100
AcDbBlockTableRecord
  2
FXTIP_WHITEDOT_S
  0
BLOCK_RECORD
  5
81
330
1
100
AcDbSymbolTableRecord
100
AcDbBlockTableRecord
  2
FXTIP_WHITEDOT_E
  0
BLOCK_RECORD
  5
86
330
1
100
AcDbSymbolTableRecord
100
AcDbBlockTableRecord
  2
FXTIP_UPARROW_S
  0
BLOCK_RECORD
  5
8B
330
1
100
AcDbSymbolTableRecord
100
AcDbBlockTableRecord
  2
FXTIP_UPARROW_E
  0
BLOCK_RECORD
  5
90
330
1
100
AcDbSymbolTableRecord
100
AcDbBlockTableRecord
  2
FXTIP_DOWNARROW_S
  0
BLOCK_RECORD
  5
95
330
1
100
AcDbSymbolTableRecord
100
AcDbBlockTableRecord
  2
FXTIP_DOWNARROW_E
  0
BLOCK_RECORD
  5
9A
330
1
100
AcDbSymbolTableRecord
100
AcDbBlockTableRecord
  2
FXTIP_BLACKTRIANGLE_S
  0
BLOCK_RECORD
  5
9F
330
1
100
AcDbSymbolTableRecord
100
AcDbBlockTableRecord
  2
FXTIP_BLACKTRIANGLE_E
  0
BLOCK_RECORD
  5
D1
330
1
100
AcDbSymbolTableRecord
100
AcDbBlockTableRecord
  2
BLKF021
  0
BLOCK_RECORD
  5
DF
330
1
100
AcDbSymbolTableRecord
100
AcDbBlockTableRecord
  2
BLKF022
  0
BLOCK_RECORD
  5
ED
330
1
100
AcDbSymbolTableRecord
100
AcDbBlockTableRecord
  2
BLKF023
  0
BLOCK_RECORD
  5
FB
330
1
100
AcDbSymbolTableRecord
100
AcDbBlockTableRecord
  2
BLKF024
  0
BLOCK_RECORD
  5
108
330
1
100
AcDbSymbolTableRecord
100
AcDbBlockTableRecord
  2
BLKF025
  0
BLOCK_RECORD
  5
115
330
1
100
AcDbSymbolTableRecord
100
AcDbBlockTableRecord
  2
BLKF026
  0
BLOCK_RECORD
  5
122
330
1
100
AcDbSymbolTableRecord
100
AcDbBlockTableRecord
  2
BLKF027
  0
BLOCK_RECORD
  5
137
330
1
100
AcDbSymbolTableRecord
100
AcDbBlockTableRecord
  2
BLKF028
  0
BLOCK_RECORD
  5
17D
330
1
100
AcDbSymbolTableRecord
100
AcDbBlockTableRecord
  2
BLKF029
  0
BLOCK_RECORD
  5
18B
330
1
100
AcDbSymbolTableRecord
100
AcDbBlockTableRecord
  2
BLKF030
  0
BLOCK_RECORD
  5
198
330
1
100
AcDbSymbolTableRecord
100
AcDbBlockTableRecord
  2
BLKF031
  0
BLOCK_RECORD
  5
1A6
330
1
100
AcDbSymbolTableRecord
100
AcDbBlockTableRecord
  2
BLKF032
  0
BLOCK_RECORD
  5
1B4
330
1
100
AcDbSymbolTableRecord
100
AcDbBlockTableRecord
  2
BLKF033
  0
BLOCK_RECORD
  5
1C2
330
1
100
AcDbSymbolTableRecord
100
AcDbBlockTableRecord
  2
BLKF034
  0
BLOCK_RECORD
  5
1CF
330
1
100
AcDbSymbolTableRecord
100
AcDbBlockTableRecord
  2
BLKF035
  0
BLOCK_RECORD
  5
1DC
330
1
100
AcDbSymbolTableRecord
100
AcDbBlockTableRecord
  2
BLKF036
  0
BLOCK_RECORD
  5
1E9
330
1
100
AcDbSymbolTableRecord
100
AcDbBlockTableRecord
  2
BLKF037
  0
BLOCK_RECORD
  5
1F6
330
1
100
AcDbSymbolTableRecord
100
AcDbBlockTableRecord
  2
BLKF038
  0
BLOCK_RECORD
  5
204
330
1
100
AcDbSymbolTableRecord
100
AcDbBlockTableRecord
  2
BLKF039
  0
BLOCK_RECORD
  5
212
330
1
100
AcDbSymbolTableRecord
100
AcDbBlockTableRecord
  2
BLKF040
  0
BLOCK_RECORD
  5
225
330
1
100
AcDbSymbolTableRecord
100
AcDbBlockTableRecord
  2
BLKF041
  0
BLOCK_RECORD
  5
25F
330
1
100
AcDbSymbolTableRecord
100
AcDbBlockTableRecord
  2
BLKF042
  0
BLOCK_RECORD
  5
26D
330
1
100
AcDbSymbolTableRecord
100
AcDbBlockTableRecord
  2
BLKF043
  0
BLOCK_RECORD
  5
27B
330
1
100
AcDbSymbolTableRecord
100
AcDbBlockTableRecord
  2
BLKF044
  0
BLOCK_RECORD
  5
288
330
1
100
AcDbSymbolTableRecord
100
AcDbBlockTableRecord
  2
BLKF045
  0
BLOCK_RECORD
  5
295
330
1
100
AcDbSymbolTableRecord
100
AcDbBlockTableRecord
  2
BLKF046
  0
BLOCK_RECORD
  5
2A2
330
1
100
AcDbSymbolTableRecord
100
AcDbBlockTableRecord
  2
BLKF047
  0
BLOCK_RECORD
  5
2AF
330
1
100
AcDbSymbolTableRecord
100
AcDbBlockTableRecord
  2
BLKF048
  0
BLOCK_RECORD
  5
2BD
330
1
100
AcDbSymbolTableRecord
100
AcDbBlockTableRecord
  2
BLKF049
  0
BLOCK_RECORD
  5
2CA
330
1
100
AcDbSymbolTableRecord
100
AcDbBlockTableRecord
  2
BLKF050
  0
BLOCK_RECORD
  5
2D8
330
1
100
AcDbSymbolTableRecord
100
AcDbBlockTableRecord
  2
BLKF051
  0
BLOCK_RECORD
  5
2E5
330
1
100
AcDbSymbolTableRecord
100
AcDbBlockTableRecord
  2
BLKF052
  0
BLOCK_RECORD
  5
317
330
1
100
AcDbSymbolTableRecord
100
AcDbBlockTableRecord
  2
BLKF053
  0
BLOCK_RECORD
  5
321
330
1
100
AcDbSymbolTableRecord
100
AcDbBlockTableRecord
  2
BLKF054
  0
BLOCK_RECORD
  5
336
330
1
100
AcDbSymbolTableRecord
100
AcDbBlockTableRecord
  2
BLKF055
  0
BLOCK_RECORD
  5
344
330
1
100
AcDbSymbolTableRecord
100
AcDbBlockTableRecord
  2
BLKF056
  0
BLOCK_RECORD
  5
352
330
1
100
AcDbSymbolTableRecord
100
AcDbBlockTableRecord
  2
BLKF057
  0
BLOCK_RECORD
  5
35F
330
1
100
AcDbSymbolTableRecord
100
AcDbBlockTableRecord
  2
BLKF058
  0
BLOCK_RECORD
  5
36C
330
1
100
AcDbSymbolTableRecord
100
AcDbBlockTableRecord
  2
BLKF059
  0
BLOCK_RECORD
  5
37A
330
1
100
AcDbSymbolTableRecord
100
AcDbBlockTableRecord
  2
BLKF060
  0
BLOCK_RECORD
  5
388
330
1
100
AcDbSymbolTableRecord
100
AcDbBlockTableRecord
  2
BLKF061
  0
BLOCK_RECORD
  5
395
330
1
100
AcDbSymbolTableRecord
100
AcDbBlockTableRecord
  2
BLKF062
  0
BLOCK_RECORD
  5
3A3
330
1
100
AcDbSymbolTableRecord
100
AcDbBlockTableRecord
  2
BLKF063
  0
BLOCK_RECORD
  5
3B1
330
1
100
AcDbSymbolTableRecord
100
AcDbBlockTableRecord
  2
BLKF064
  0
BLOCK_RECORD
  5
3C5
330
1
100
AcDbSymbolTableRecord
100
AcDbBlockTableRecord
  2
BLKF065
  0
BLOCK_RECORD
  5
3D3
330
1
100
AcDbSymbolTableRecord
100
AcDbBlockTableRecord
  2
BLKF066
  0
BLOCK_RECORD
  5
3E1
330
1
100
AcDbSymbolTableRecord
100
AcDbBlockTableRecord
  2
BLKF067
  0
BLOCK_RECORD
  5
3EF
330
1
100
AcDbSymbolTableRecord
100
AcDbBlockTableRecord
  2
BLKF068
  0
BLOCK_RECORD
  5
3FD
330
1
100
AcDbSymbolTableRecord
100
AcDbBlockTableRecord
  2
BLKF069
  0
BLOCK_RECORD
  5
40B
330
1
100
AcDbSymbolTableRecord
100
AcDbBlockTableRecord
  2
BLKF070
  0
BLOCK_RECORD
  5
419
330
1
100
AcDbSymbolTableRecord
100
AcDbBlockTableRecord
  2
BLKF071
  0
BLOCK_RECORD
  5
427
330
1
100
AcDbSymbolTableRecord
100
AcDbBlockTableRecord
  2
BLKF072
  0
BLOCK_RECORD
  5
446
330
1
100
AcDbSymbolTableRecord
100
AcDbBlockTableRecord
  2
BLKF073
  0
BLOCK_RECORD
  5
464
330
1
100
AcDbSymbolTableRecord
100
AcDbBlockTableRecord
  2
BLKF074
  0
BLOCK_RECORD
  5
46E
330
1
100
AcDbSymbolTableRecord
100
AcDbBlockTableRecord
  2
BLKF075
  0
BLOCK_RECORD
  5
47C
330
1
100
AcDbSymbolTableRecord
100
AcDbBlockTableRecord
  2
BLKF076
  0
BLOCK_RECORD
  5
489
330
1
100
AcDbSymbolTableRecord
100
AcDbBlockTableRecord
  2
BLKF077
  0
BLOCK_RECORD
  5
496
330
1
100
AcDbSymbolTableRecord
100
AcDbBlockTableRecord
  2
BLKF078
  0
BLOCK_RECORD
  5
4A4
330
1
100
AcDbSymbolTableRecord
100
AcDbBlockTableRecord
  2
BLKF079
  0
BLOCK_RECORD
  5
4B1
330
1
100
AcDbSymbolTableRecord
100
AcDbBlockTableRecord
  2
BLKF080
  0
BLOCK_RECORD
  5
4BE
330
1
100
AcDbSymbolTableRecord
100
AcDbBlockTableRecord
  2
BLKF081
  0
BLOCK_RECORD
  5
4CC
330
1
100
AcDbSymbolTableRecord
100
AcDbBlockTableRecord
  2
BLKF082
  0
BLOCK_RECORD
  5
4DA
330
1
100
AcDbSymbolTableRecord
100
AcDbBlockTableRecord
  2
BLKF083
  0
BLOCK_RECORD
  5
4E8
330
1
100
AcDbSymbolTableRecord
100
AcDbBlockTableRecord
  2
BLKF084
  0
BLOCK_RECORD
  5
4F5
330
1
100
AcDbSymbolTableRecord
100
AcDbBlockTableRecord
  2
BLKF085
  0
BLOCK_RECORD
  5
503
330
1
100
AcDbSymbolTableRecord
100
AcDbBlockTableRecord
  2
BLKF086
  0
BLOCK_RECORD
  5
511
330
1
100
AcDbSymbolTableRecord
100
AcDbBlockTableRecord
  2
BLKF087
  0
BLOCK_RECORD
  5
51F
330
1
100
AcDbSymbolTableRecord
100
AcDbBlockTableRecord
  2
BLKF088
  0
BLOCK_RECORD
  5
52C
330
1
100
AcDbSymbolTableRecord
100
AcDbBlockTableRecord
  2
BLKF089
  0
BLOCK_RECORD
  5
539
330
1
100
AcDbSymbolTableRecord
100
AcDbBlockTableRecord
  2
BLKF090
  0
BLOCK_RECORD
  5
546
330
1
100
AcDbSymbolTableRecord
100
AcDbBlockTableRecord
  2
BLKF091
  0
BLOCK_RECORD
  5
561
330
1
100
AcDbSymbolTableRecord
100
AcDbBlockTableRecord
  2
BLKF092
  0
BLOCK_RECORD
  5
56F
330
1
100
AcDbSymbolTableRecord
100
AcDbBlockTableRecord
  2
BLKF093
  0
BLOCK_RECORD
  5
57D
330
1
100
AcDbSymbolTableRecord
100
AcDbBlockTableRecord
  2
BLKF094
  0
ENDTAB
  0
ENDSEC
  0
SECTION
  2
BLOCKS
  0
BLOCK
  5
20
330
1F
100
AcDbEntity
  8
0
100
AcDbBlockBegin
  2
*MODEL_SPACE
 70
     0
 71
     0
 10
0.0
 20
0.0
 30
0.0
  3
*MODEL_SPACE
  1

  0
ENDBLK
  5
21
330
1F
100
AcDbEntity
  8
0
100
AcDbBlockEnd
  0
BLOCK
  5
1C
330
1B
100
AcDbEntity
 67
     1
  8
0
100
AcDbBlockBegin
  2
*PAPER_SPACE
 70
     0
 71
     0
 10
0.0
 20
0.0
 30
0.0
  3
*PAPER_SPACE
  1

  0
ENDBLK
  5
1D
330
1B
100
AcDbEntity
 67
     1
  8
0
100
AcDbBlockEnd
  0
BLOCK
  5
3F
330
3E
100
AcDbEntity
  8
0
100
AcDbBlockBegin
  2
FXTIP_ARROW_S
 70
     0
 71
     0
 10
0.0
 20
0.0
 30
0.0
  3
FXTIP_ARROW_S
  1

  0
LINE
  5
41
330
3E
100
AcDbEntity
  8
0
  6
CONTINUOUS
 62
     0
100
AcDbLine
 10
0.0
 20
0.0
 30
0.0
 11
-1.0
 21
0.0
 31
0.0
  0
LINE
  5
42
330
3E
100
AcDbEntity
  8
0
  6
CONTINUOUS
 62
     0
100
AcDbLine
 10
0.0
 20
0.0
 30
0.0
 11
-0.965926
 21
-0.258819
 31
0.0
  0
LINE
  5
43
330
3E
100
AcDbEntity
  8
0
  6
CONTINUOUS
 62
     0
100
AcDbLine
 10
0.0
 20
0.0
 30
0.0
 11
-0.965926
 21
0.258819
 31
0.0
  0
ENDBLK
  5
40
330
3E
100
AcDbEntity
  8
0
100
AcDbBlockEnd
  0
BLOCK
  5
45
330
44
100
AcDbEntity
  8
0
100
AcDbBlockBegin
  2
FXTIP_ARROW_E
 70
     0
 71
     0
 10
0.0
 20
0.0
 30
0.0
  3
FXTIP_ARROW_E
  1

  0
LINE
  5
47
330
44
100
AcDbEntity
  8
0
  6
CONTINUOUS
 62
     0
100
AcDbLine
 10
0.0
 20
0.0
 30
0.0
 11
-1.0
 21
0.0
 31
0.0
  0
LINE
  5
48
330
44
100
AcDbEntity
  8
0
  6
CONTINUOUS
 62
     0
100
AcDbLine
 10
0.0
 20
0.0
 30
0.0
 11
-0.965926
 21
0.258819
 31
0.0
  0
LINE
  5
49
330
44
100
AcDbEntity
  8
0
  6
CONTINUOUS
 62
     0
100
AcDbLine
 10
0.0
 20
0.0
 30
0.0
 11
-0.965926
 21
-0.258819
 31
0.0
  0
ENDBLK
  5
46
330
44
100
AcDbEntity
  8
0
100
AcDbBlockEnd
  0
BLOCK
  5
4B
330
4A
100
AcDbEntity
  8
0
100
AcDbBlockBegin
  2
FXTIP_BLACKDOT_S
 70
     0
 71
     0
 10
0.0
 20
0.0
 30
0.0
  3
FXTIP_BLACKDOT_S
  1

  0
LINE
  5
4D
330
4A
100
AcDbEntity
  8
0
  6
CONTINUOUS
 62
     0
100
AcDbLine
 10
0.0
 20
0.0
 30
0.0
 11
-1.0
 21
0.0
 31
0.0
  0
POLYLINE
  5
4E
330
4A
100
AcDbEntity
  8
0
  6
CONTINUOUS
 62
     0
100
AcDb2dPolyline
 66
     1
 10
0.0
 20
0.0
 30
0.0
 70
     1
  0
VERTEX
  5
59C
330
4E
100
AcDbEntity
  8
0
  6
CONTINUOUS
 62
     0
100
AcDbVertex
100
AcDb2dVertex
 10
-0.25
 20
0.0
 30
0.0
 40
0.5
 41
0.5
 42
1.0
  0
VERTEX
  5
59D
330
4E
100
AcDbEntity
  8
0
  6
CONTINUOUS
 62
     0
100
AcDbVertex
100
AcDb2dVertex
 10
0.25
 20
0.0
 30
0.0
 40
0.5
 41
0.5
 42
1.0
  0
SEQEND
  5
59B
330
4E
100
AcDbEntity
  8
0
  6
CONTINUOUS
 62
     0
  0
CIRCLE
  5
4F
330
4A
100
AcDbEntity
  8
0
  6
CONTINUOUS
 62
     0
100
AcDbCircle
 10
0.0
 20
0.0
 30
0.0
 40
0.5
  0
ENDBLK
  5
4C
330
4A
100
AcDbEntity
  8
0
100
AcDbBlockEnd
  0
BLOCK
  5
51
330
50
100
AcDbEntity
  8
0
100
AcDbBlockBegin
  2
FXTIP_BLACKDOT_E
 70
     0
 71
     0
 10
0.0
 20
0.0
 30
0.0
  3
FXTIP_BLACKDOT_E
  1

  0
LINE
  5
53
330
50
100
AcDbEntity
  8
0
  6
CONTINUOUS
 62
     0
100
AcDbLine
 10
0.0
 20
0.0
 30
0.0
 11
-1.0
 21
0.0
 31
0.0
  0
POLYLINE
  5
54
330
50
100
AcDbEntity
  8
0
  6
CONTINUOUS
 62
     0
100
AcDb2dPolyline
 66
     1
 10
0.0
 20
0.0
 30
0.0
 70
     1
  0
VERTEX
  5
59F
330
54
100
AcDbEntity
  8
0
  6
CONTINUOUS
 62
     0
100
AcDbVertex
100
AcDb2dVertex
 10
-0.25
 20
0.0
 30
0.0
 40
0.5
 41
0.5
 42
1.0
  0
VERTEX
  5
5A0
330
54
100
AcDbEntity
  8
0
  6
CONTINUOUS
 62
     0
100
AcDbVertex
100
AcDb2dVertex
 10
0.25
 20
0.0
 30
0.0
 40
0.5
 41
0.5
 42
1.0
  0
SEQEND
  5
59E
330
54
100
AcDbEntity
  8
0
  6
CONTINUOUS
 62
     0
  0
CIRCLE
  5
55
330
50
100
AcDbEntity
  8
0
  6
CONTINUOUS
 62
     0
100
AcDbCircle
 10
0.0
 20
0.0
 30
0.0
 40
0.5
  0
ENDBLK
  5
52
330
50
100
AcDbEntity
  8
0
100
AcDbBlockEnd
  0
BLOCK
  5
57
330
56
100
AcDbEntity
  8
0
100
AcDbBlockBegin
  2
FXTIP_TRIANGLE_S
 70
     0
 71
     0
 10
0.0
 20
0.0
 30
0.0
  3
FXTIP_TRIANGLE_S
  1

  0
LINE
  5
59
330
56
100
AcDbEntity
  8
0
  6
CONTINUOUS
 62
     0
100
AcDbLine
 10
0.0
 20
0.0
 30
0.0
 11
-1.0
 21
0.0
 31
0.0
  0
LINE
  5
5A
330
56
100
AcDbEntity
  8
0
  6
CONTINUOUS
 62
     0
100
AcDbLine
 10
0.0
 20
0.0
 30
0.0
 11
-0.965926
 21
-0.258819
 31
0.0
  0
LINE
  5
5B
330
56
100
AcDbEntity
  8
0
  6
CONTINUOUS
 62
     0
100
AcDbLine
 10
0.0
 20
0.0
 30
0.0
 11
-0.965926
 21
0.258819
 31
0.0
  0
LINE
  5
5C
330
56
100
AcDbEntity
  8
0
  6
CONTINUOUS
 62
     0
100
AcDbLine
 10
-0.965926
 20
-0.258819
 30
0.0
 11
-0.965926
 21
0.258819
 31
0.0
  0
ENDBLK
  5
58
330
56
100
AcDbEntity
  8
0
100
AcDbBlockEnd
  0
BLOCK
  5
5E
330
5D
100
AcDbEntity
  8
0
100
AcDbBlockBegin
  2
FXTIP_TRIANGLE_E
 70
     0
 71
     0
 10
0.0
 20
0.0
 30
0.0
  3
FXTIP_TRIANGLE_E
  1

  0
LINE
  5
60
330
5D
100
AcDbEntity
  8
0
  6
CONTINUOUS
 62
     0
100
AcDbLine
 10
0.0
 20
0.0
 30
0.0
 11
-1.0
 21
0.0
 31
0.0
  0
LINE
  5
61
330
5D
100
AcDbEntity
  8
0
  6
CONTINUOUS
 62
     0
100
AcDbLine
 10
0.0
 20
0.0
 30
0.0
 11
-0.965926
 21
0.258819
 31
0.0
  0
LINE
  5
62
330
5D
100
AcDbEntity
  8
0
  6
CONTINUOUS
 62
     0
100
AcDbLine
 10
0.0
 20
0.0
 30
0.0
 11
-0.965926
 21
-0.258819
 31
0.0
  0
LINE
  5
63
330
5D
100
AcDbEntity
  8
0
  6
CONTINUOUS
 62
     0
100
AcDbLine
 10
-0.965926
 20
0.258819
 30
0.0
 11
-0.965926
 21
-0.258819
 31
0.0
  0
ENDBLK
  5
5F
330
5D
100
AcDbEntity
  8
0
100
AcDbBlockEnd
  0
BLOCK
  5
65
330
64
100
AcDbEntity
  8
0
100
AcDbBlockBegin
  2
FXTIP_ARCHITECT_S
 70
     0
 71
     0
 10
0.0
 20
0.0
 30
0.0
  3
FXTIP_ARCHITECT_S
  1

  0
LINE
  5
67
330
64
100
AcDbEntity
  8
0
  6
CONTINUOUS
 62
     0
100
AcDbLine
 10
0.0
 20
0.0
 30
0.0
 11
-1.0
 21
0.0
 31
0.0
  0
LINE
  5
68
330
64
100
AcDbEntity
  8
0
  6
CONTINUOUS
 62
     0
100
AcDbLine
 10
0.0
 20
0.0
 30
0.0
 11
-0.707107
 21
-0.707107
 31
0.0
  0
LINE
  5
69
330
64
100
AcDbEntity
  8
0
  6
CONTINUOUS
 62
     0
100
AcDbLine
 10
0.0
 20
0.0
 30
0.0
 11
0.707107
 21
0.707107
 31
0.0
  0
ENDBLK
  5
66
330
64
100
AcDbEntity
  8
0
100
AcDbBlockEnd
  0
BLOCK
  5
6B
330
6A
100
AcDbEntity
  8
0
100
AcDbBlockBegin
  2
FXTIP_ARCHITECT_E
 70
     0
 71
     0
 10
0.0
 20
0.0
 30
0.0
  3
FXTIP_ARCHITECT_E
  1

  0
LINE
  5
6D
330
6A
100
AcDbEntity
  8
0
  6
CONTINUOUS
 62
     0
100
AcDbLine
 10
0.0
 20
0.0
 30
0.0
 11
-1.0
 21
0.0
 31
0.0
  0
LINE
  5
6E
330
6A
100
AcDbEntity
  8
0
  6
CONTINUOUS
 62
     0
100
AcDbLine
 10
0.0
 20
0.0
 30
0.0
 11
0.707107
 21
0.707107
 31
0.0
  0
LINE
  5
6F
330
6A
100
AcDbEntity
  8
0
  6
CONTINUOUS
 62
     0
100
AcDbLine
 10
0.0
 20
0.0
 30
0.0
 11
-0.707107
 21
-0.707107
 31
0.0
  0
ENDBLK
  5
6C
330
6A
100
AcDbEntity
  8
0
100
AcDbBlockEnd
  0
BLOCK
  5
71
330
70
100
AcDbEntity
  8
0
100
AcDbBlockBegin
  2
FXTIP_CIVIL_S
 70
     0
 71
     0
 10
0.0
 20
0.0
 30
0.0
  3
FXTIP_CIVIL_S
  1

  0
LINE
  5
73
330
70
100
AcDbEntity
  8
0
  6
CONTINUOUS
 62
     0
100
AcDbLine
 10
0.0
 20
0.0
 30
0.0
 11
-1.0
 21
0.0
 31
0.0
  0
LINE
  5
74
330
70
100
AcDbEntity
  8
0
  6
CONTINUOUS
 62
     0
100
AcDbLine
 10
0.0
 20
-0.125
 30
0.0
 11
-1.0
 21
-0.125
 31
0.0
  0
LINE
  5
75
330
70
100
AcDbEntity
  8
0
  6
CONTINUOUS
 62
     0
100
AcDbLine
 10
0.0
 20
-0.25
 30
0.0
 11
-1.0
 21
-0.25
 31
0.0
  0
ENDBLK
  5
72
330
70
100
AcDbEntity
  8
0
100
AcDbBlockEnd
  0
BLOCK
  5
77
330
76
100
AcDbEntity
  8
0
100
AcDbBlockBegin
  2
FXTIP_CIVIL_E
 70
     0
 71
     0
 10
0.0
 20
0.0
 30
0.0
  3
FXTIP_CIVIL_E
  1

  0
LINE
  5
79
330
76
100
AcDbEntity
  8
0
  6
CONTINUOUS
 62
     0
100
AcDbLine
 10
0.0
 20
0.0
 30
0.0
 11
-1.0
 21
0.0
 31
0.0
  0
LINE
  5
7A
330
76
100
AcDbEntity
  8
0
  6
CONTINUOUS
 62
     0
100
AcDbLine
 10
0.0
 20
0.125
 30
0.0
 11
-1.0
 21
0.125
 31
0.0
  0
LINE
  5
7B
330
76
100
AcDbEntity
  8
0
  6
CONTINUOUS
 62
     0
100
AcDbLine
 10
0.0
 20
0.25
 30
0.0
 11
-1.0
 21
0.25
 31
0.0
  0
ENDBLK
  5
78
330
76
100
AcDbEntity
  8
0
100
AcDbBlockEnd
  0
BLOCK
  5
7D
330
7C
100
AcDbEntity
  8
0
100
AcDbBlockBegin
  2
FXTIP_WHITEDOT_S
 70
     0
 71
     0
 10
0.0
 20
0.0
 30
0.0
  3
FXTIP_WHITEDOT_S
  1

  0
LINE
  5
7F
330
7C
100
AcDbEntity
  8
0
  6
CONTINUOUS
 62
     0
100
AcDbLine
 10
0.0
 20
0.0
 30
0.0
 11
-1.0
 21
0.0
 31
0.0
  0
CIRCLE
  5
80
330
7C
100
AcDbEntity
  8
0
  6
CONTINUOUS
 62
     0
100
AcDbCircle
 10
0.0
 20
0.0
 30
0.0
 40
0.5
  0
ENDBLK
  5
7E
330
7C
100
AcDbEntity
  8
0
100
AcDbBlockEnd
  0
BLOCK
  5
82
330
81
100
AcDbEntity
  8
0
100
AcDbBlockBegin
  2
FXTIP_WHITEDOT_E
 70
     0
 71
     0
 10
0.0
 20
0.0
 30
0.0
  3
FXTIP_WHITEDOT_E
  1

  0
LINE
  5
84
330
81
100
AcDbEntity
  8
0
  6
CONTINUOUS
 62
     0
100
AcDbLine
 10
0.0
 20
0.0
 30
0.0
 11
-1.0
 21
0.0
 31
0.0
  0
CIRCLE
  5
85
330
81
100
AcDbEntity
  8
0
  6
CONTINUOUS
 62
     0
100
AcDbCircle
 10
0.0
 20
0.0
 30
0.0
 40
0.5
  0
ENDBLK
  5
83
330
81
100
AcDbEntity
  8
0
100
AcDbBlockEnd
  0
BLOCK
  5
87
330
86
100
AcDbEntity
  8
0
100
AcDbBlockBegin
  2
FXTIP_UPARROW_S
 70
     0
 71
     0
 10
0.0
 20
0.0
 30
0.0
  3
FXTIP_UPARROW_S
  1

  0
LINE
  5
89
330
86
100
AcDbEntity
  8
0
  6
CONTINUOUS
 62
     0
100
AcDbLine
 10
0.0
 20
0.0
 30
0.0
 11
-1.0
 21
0.0
 31
0.0
  0
LINE
  5
8A
330
86
100
AcDbEntity
  8
0
  6
CONTINUOUS
 62
     0
100
AcDbLine
 10
0.0
 20
0.0
 30
0.0
 11
-0.965926
 21
-0.258819
 31
0.0
  0
ENDBLK
  5
88
330
86
100
AcDbEntity
  8
0
100
AcDbBlockEnd
  0
BLOCK
  5
8C
330
8B
100
AcDbEntity
  8
0
100
AcDbBlockBegin
  2
FXTIP_UPARROW_E
 70
     0
 71
     0
 10
0.0
 20
0.0
 30
0.0
  3
FXTIP_UPARROW_E
  1

  0
LINE
  5
8E
330
8B
100
AcDbEntity
  8
0
  6
CONTINUOUS
 62
     0
100
AcDbLine
 10
0.0
 20
0.0
 30
0.0
 11
-1.0
 21
0.0
 31
0.0
  0
LINE
  5
8F
330
8B
100
AcDbEntity
  8
0
  6
CONTINUOUS
 62
     0
100
AcDbLine
 10
0.0
 20
0.0
 30
0.0
 11
-0.965926
 21
0.258819
 31
0.0
  0
ENDBLK
  5
8D
330
8B
100
AcDbEntity
  8
0
100
AcDbBlockEnd
  0
BLOCK
  5
91
330
90
100
AcDbEntity
  8
0
100
AcDbBlockBegin
  2
FXTIP_DOWNARROW_S
 70
     0
 71
     0
 10
0.0
 20
0.0
 30
0.0
  3
FXTIP_DOWNARROW_S
  1

  0
LINE
  5
93
330
90
100
AcDbEntity
  8
0
  6
CONTINUOUS
 62
     0
100
AcDbLine
 10
0.0
 20
0.0
 30
0.0
 11
-1.0
 21
0.0
 31
0.0
  0
LINE
  5
94
330
90
100
AcDbEntity
  8
0
  6
CONTINUOUS
 62
     0
100
AcDbLine
 10
0.0
 20
0.0
 30
0.0
 11
-0.965926
 21
0.258819
 31
0.0
  0
ENDBLK
  5
92
330
90
100
AcDbEntity
  8
0
100
AcDbBlockEnd
  0
BLOCK
  5
96
330
95
100
AcDbEntity
  8
0
100
AcDbBlockBegin
  2
FXTIP_DOWNARROW_E
 70
     0
 71
     0
 10
0.0
 20
0.0
 30
0.0
  3
FXTIP_DOWNARROW_E
  1

  0
LINE
  5
98
330
95
100
AcDbEntity
  8
0
  6
CONTINUOUS
 62
     0
100
AcDbLine
 10
0.0
 20
0.0
 30
0.0
 11
-1.0
 21
0.0
 31
0.0
  0
LINE
  5
99
330
95
100
AcDbEntity
  8
0
  6
CONTINUOUS
 62
     0
100
AcDbLine
 10
0.0
 20
0.0
 30
0.0
 11
-0.965926
 21
-0.258819
 31
0.0
  0
ENDBLK
  5
97
330
95
100
AcDbEntity
  8
0
100
AcDbBlockEnd
  0
BLOCK
  5
9B
330
9A
100
AcDbEntity
  8
0
100
AcDbBlockBegin
  2
FXTIP_BLACKTRIANGLE_S
 70
     0
 71
     0
 10
0.0
 20
0.0
 30
0.0
  3
FXTIP_BLACKTRIANGLE_S
  1

  0
LINE
  5
9D
330
9A
100
AcDbEntity
  8
0
  6
CONTINUOUS
 62
     0
100
AcDbLine
 10
0.0
 20
0.0
 30
0.0
 11
-1.0
 21
0.0
 31
0.0
  0
SOLID
  5
9E
330
9A
100
AcDbEntity
  8
0
  6
CONTINUOUS
 62
     0
100
AcDbTrace
 10
0.0
 20
0.0
 30
0.0
 11
-0.965926
 21
-0.258819
 31
0.0
 12
-0.965926
 22
0.258819
 32
0.0
 13
-0.965926
 23
0.258819
 33
0.0
  0
ENDBLK
  5
9C
330
9A
100
AcDbEntity
  8
0
100
AcDbBlockEnd
  0
BLOCK
  5
A0
330
9F
100
AcDbEntity
  8
0
100
AcDbBlockBegin
  2
FXTIP_BLACKTRIANGLE_E
 70
     0
 71
     0
 10
0.0
 20
0.0
 30
0.0
  3
FXTIP_BLACKTRIANGLE_E
  1

  0
LINE
  5
A2
330
9F
100
AcDbEntity
  8
0
  6
CONTINUOUS
 62
     0
100
AcDbLine
 10
0.0
 20
0.0
 30
0.0
 11
-1.0
 21
0.0
 31
0.0
  0
SOLID
  5
A3
330
9F
100
AcDbEntity
  8
0
  6
CONTINUOUS
 62
     0
100
AcDbTrace
 10
0.0
 20
0.0
 30
0.0
 11
-0.965926
 21
0.258819
 31
0.0
 12
-0.965926
 22
-0.258819
 32
0.0
 13
-0.965926
 23
-0.258819
 33
0.0
  0
ENDBLK
  5
A1
330
9F
100
AcDbEntity
  8
0
100
AcDbBlockEnd
  0
BLOCK
  5
D2
330
D1
100
AcDbEntity
  8
0
100
AcDbBlockBegin
  2
BLKF021
 70
     0
 71
     0
 10
0.0
 20
0.0
 30
0.0
  3
BLKF021
  1

  0
LINE
  5
D5
330
D1
100
AcDbEntity
  8
GR1-1
  6
細い実線
 62
     7
100
AcDbLine
 10
724.983411
 20
168.512085
 30
0.0
 11
718.316745
 21
168.512085
 31
0.0
  0
LINE
  5
D6
330
D1
100
AcDbEntity
  8
GR1-1
  6
細い実線
 62
     7
100
AcDbLine
 10
724.983411
 20
181.285419
 30
0.0
 11
718.316745
 21
181.285419
 31
0.0
  0
LINE
  5
D7
330
D1
100
AcDbEntity
  8
GR1-1
  6
細い実線
 62
     7
100
AcDbLine
 10
718.983411
 20
181.285419
 30
0.0
 11
718.983411
 21
168.512085
 31
0.0
  0
LINE
  5
D8
330
D1
100
AcDbEntity
  8
GR1-1
  6
細い実線
 62
     7
100
AcDbLine
 10
718.638319
 20
169.799986
 30
0.0
 11
719.328503
 21
169.799986
 31
0.0
  0
LINE
  5
D9
330
D1
100
AcDbEntity
  8
GR1-1
  6
細い実線
 62
     7
100
AcDbLine
 10
719.328503
 20
169.799986
 30
0.0
 11
718.983411
 21
168.512085
 31
0.0
  0
LINE
  5
DA
330
D1
100
AcDbEntity
  8
GR1-1
  6
細い実線
 62
     7
100
AcDbLine
 10
718.983411
 20
168.512085
 30
0.0
 11
718.638319
 21
169.799986
 31
0.0
  0
LINE
  5
DB
330
D1
100
AcDbEntity
  8
GR1-1
  6
細い実線
 62
     7
100
AcDbLine
 10
719.328503
 20
179.997518
 30
0.0
 11
718.638319
 21
179.997518
 31
0.0
  0
LINE
  5
DC
330
D1
100
AcDbEntity
  8
GR1-1
  6
細い実線
 62
     7
100
AcDbLine
 10
718.638319
 20
179.997518
 30
0.0
 11
718.983411
 21
181.285419
 31
0.0
  0
LINE
  5
DD
330
D1
100
AcDbEntity
  8
GR1-1
  6
細い実線
 62
     7
100
AcDbLine
 10
718.983411
 20
181.285419
 30
0.0
 11
719.328503
 21
179.997518
 31
0.0
  0
TEXT
  5
DE
330
D1
100
AcDbEntity
  8
GR1-1
  6
細い実線
 62
     7
100
AcDbText
 10
718.983398
 20
171.56543
 30
0.0
 40
2.0
  1
３８３．２
 50
90.0
 41
0.666667
  7
FX_VECTOR
 72
     5
 11
718.983398
 21
178.232096
 31
0.0
100
AcDbText
  0
ENDBLK
  5
D3
330
D1
100
AcDbEntity
  8
0
100
AcDbBlockEnd
  0
BLOCK
  5
E0
330
DF
100
AcDbEntity
  8
0
100
AcDbBlockBegin
  2
BLKF022
 70
     0
 71
     0
 10
0.0
 20
0.0
 30
0.0
  3
BLKF022
  1

  0
LINE
  5
E3
330
DF
100
AcDbEntity
  8
GR1-1
  6
細い実線
 62
     7
100
AcDbLine
 10
725.650078
 20
181.952085
 30
0.0
 11
725.650078
 21
193.618752
 31
0.0
  0
LINE
  5
E4
330
DF
100
AcDbEntity
  8
GR1-1
  6
細い実線
 62
     7
100
AcDbLine
 10
767.316745
 20
181.952085
 30
0.0
 11
767.316745
 21
193.618752
 31
0.0
  0
LINE
  5
E5
330
DF
100
AcDbEntity
  8
GR1-1
  6
細い実線
 62
     7
100
AcDbLine
 10
767.316745
 20
192.952085
 30
0.0
 11
725.650078
 21
192.952085
 31
0.0
  0
LINE
  5
E6
330
DF
100
AcDbEntity
  8
GR1-1
  6
細い実線
 62
     7
100
AcDbLine
 10
726.937979
 20
193.297177
 30
0.0
 11
726.937979
 21
192.606993
 31
0.0
  0
LINE
  5
E7
330
DF
100
AcDbEntity
  8
GR1-1
  6
細い実線
 62
     7
100
AcDbLine
 10
726.937979
 20
192.606993
 30
0.0
 11
725.650078
 21
192.952085
 31
0.0
  0
LINE
  5
E8
330
DF
100
AcDbEntity
  8
GR1-1
  6
細い実線
 62
     7
100
AcDbLine
 10
725.650078
 20
192.952085
 30
0.0
 11
726.937979
 21
193.297177
 31
0.0
  0
LINE
  5
E9
330
DF
100
AcDbEntity
  8
GR1-1
  6
細い実線
 62
     7
100
AcDbLine
 10
766.028844
 20
192.606993
 30
0.0
 11
766.028844
 21
193.297177
 31
0.0
  0
LINE
  5
EA
330
DF
100
AcDbEntity
  8
GR1-1
  6
細い実線
 62
     7
100
AcDbLine
 10
766.028844
 20
193.297177
 30
0.0
 11
767.316745
 21
192.952085
 31
0.0
  0
LINE
  5
EB
330
DF
100
AcDbEntity
  8
GR1-1
  6
細い実線
 62
     7
100
AcDbLine
 10
767.316745
 20
192.952085
 30
0.0
 11
766.028844
 21
192.606993
 31
0.0
  0
TEXT
  5
EC
330
DF
100
AcDbEntity
  8
GR1-1
  6
細い実線
 62
     7
100
AcDbText
 10
743.816732
 20
192.9521
 30
0.0
 40
2.0
  1
１２５０
 41
0.666667
  7
FX_VECTOR
 72
     5
 11
749.150065
 21
192.9521
 31
0.0
100
AcDbText
  0
ENDBLK
  5
E1
330
DF
100
AcDbEntity
  8
0
100
AcDbBlockEnd
  0
BLOCK
  5
EE
330
ED
100
AcDbEntity
  8
0
100
AcDbBlockBegin
  2
BLKF023
 70
     0
 71
     0
 10
0.0
 20
0.0
 30
0.0
  3
BLKF023
  1

  0
LINE
  5
F1
330
ED
100
AcDbEntity
  8
GR1-1
  6
細い実線
 62
     7
100
AcDbLine
 10
725.650078
 20
181.952085
 30
0.0
 11
725.650078
 21
190.285419
 31
0.0
  0
LINE
  5
F2
330
ED
100
AcDbEntity
  8
GR1-1
  6
細い実線
 62
     7
100
AcDbLine
 10
736.233411
 20
181.952085
 30
0.0
 11
736.233411
 21
190.285419
 31
0.0
  0
LINE
  5
F3
330
ED
100
AcDbEntity
  8
GR1-1
  6
細い実線
 62
     7
100
AcDbLine
 10
736.233411
 20
189.618752
 30
0.0
 11
725.650078
 21
189.618752
 31
0.0
  0
LINE
  5
F4
330
ED
100
AcDbEntity
  8
GR1-1
  6
細い実線
 62
     7
100
AcDbLine
 10
726.937979
 20
189.963844
 30
0.0
 11
726.937979
 21
189.27366
 31
0.0
  0
LINE
  5
F5
330
ED
100
AcDbEntity
  8
GR1-1
  6
細い実線
 62
     7
100
AcDbLine
 10
726.937979
 20
189.27366
 30
0.0
 11
725.650078
 21
189.618752
 31
0.0
  0
LINE
  5
F6
330
ED
100
AcDbEntity
  8
GR1-1
  6
細い実線
 62
     7
100
AcDbLine
 10
725.650078
 20
189.618752
 30
0.0
 11
726.937979
 21
189.963844
 31
0.0
  0
LINE
  5
F7
330
ED
100
AcDbEntity
  8
GR1-1
  6
細い実線
 62
     7
100
AcDbLine
 10
734.94551
 20
189.27366
 30
0.0
 11
734.94551
 21
189.963844
 31
0.0
  0
LINE
  5
F8
330
ED
100
AcDbEntity
  8
GR1-1
  6
細い実線
 62
     7
100
AcDbLine
 10
734.94551
 20
189.963844
 30
0.0
 11
736.233411
 21
189.618752
 31
0.0
  0
LINE
  5
F9
330
ED
100
AcDbEntity
  8
GR1-1
  6
細い実線
 62
     7
100
AcDbLine
 10
736.233411
 20
189.618752
 30
0.0
 11
734.94551
 21
189.27366
 31
0.0
  0
TEXT
  5
FA
330
ED
100
AcDbEntity
  8
GR1-1
  6
細い実線
 62
     7
100
AcDbText
 10
727.608398
 20
189.618766
 30
0.0
 40
2.0
  1
３１７．５
 41
0.666667
  7
FX_VECTOR
 72
     5
 11
734.275065
 21
189.618766
 31
0.0
100
AcDbText
  0
ENDBLK
  5
EF
330
ED
100
AcDbEntity
  8
0
100
AcDbBlockEnd
  0
BLOCK
  5
FC
330
FB
100
AcDbEntity
  8
0
100
AcDbBlockBegin
  2
BLKF024
 70
     0
 71
     0
 10
0.0
 20
0.0
 30
0.0
  3
BLKF024
  1

  0
LINE
  5
FF
330
FB
100
AcDbEntity
  8
GR1-1
  6
細い実線
 62
     7
100
AcDbLine
 10
739.900078
 20
181.952085
 30
0.0
 11
739.900078
 21
190.285419
 31
0.0
  0
LINE
  5
100
330
FB
100
AcDbEntity
  8
GR1-1
  6
細い実線
 62
     7
100
AcDbLine
 10
739.900078
 20
189.618752
 30
0.0
 11
736.233411
 21
189.618752
 31
0.0
  0
LINE
  5
101
330
FB
100
AcDbEntity
  8
GR1-1
  6
細い実線
 62
     7
100
AcDbLine
 10
737.521312
 20
189.963844
 30
0.0
 11
737.521312
 21
189.27366
 31
0.0
  0
LINE
  5
102
330
FB
100
AcDbEntity
  8
GR1-1
  6
細い実線
 62
     7
100
AcDbLine
 10
737.521312
 20
189.27366
 30
0.0
 11
736.233411
 21
189.618752
 31
0.0
  0
LINE
  5
103
330
FB
100
AcDbEntity
  8
GR1-1
  6
細い実線
 62
     7
100
AcDbLine
 10
736.233411
 20
189.618752
 30
0.0
 11
737.521312
 21
189.963844
 31
0.0
  0
LINE
  5
104
330
FB
100
AcDbEntity
  8
GR1-1
  6
細い実線
 62
     7
100
AcDbLine
 10
738.612177
 20
189.27366
 30
0.0
 11
738.612177
 21
189.963844
 31
0.0
  0
LINE
  5
105
330
FB
100
AcDbEntity
  8
GR1-1
  6
細い実線
 62
     7
100
AcDbLine
 10
738.612177
 20
189.963844
 30
0.0
 11
739.900078
 21
189.618752
 31
0.0
  0
LINE
  5
106
330
FB
100
AcDbEntity
  8
GR1-1
  6
細い実線
 62
     7
100
AcDbLine
 10
739.900078
 20
189.618752
 30
0.0
 11
738.612177
 21
189.27366
 31
0.0
  0
TEXT
  5
107
330
FB
100
AcDbEntity
  8
GR1-1
  6
細い実線
 62
     7
100
AcDbText
 10
736.066732
 20
190.285433
 30
0.0
 40
2.0
  1
１１０
 41
0.666667
  7
FX_VECTOR
 72
     5
 11
740.066732
 21
190.285433
 31
0.0
100
AcDbText
  0
ENDBLK
  5
FD
330
FB
100
AcDbEntity
  8
0
100
AcDbBlockEnd
  0
BLOCK
  5
109
330
108
100
AcDbEntity
  8
0
100
AcDbBlockBegin
  2
BLKF025
 70
     0
 71
     0
 10
0.0
 20
0.0
 30
0.0
  3
BLKF025
  1

  0
LINE
  5
10C
330
108
100
AcDbEntity
  8
GR1-1
  6
細い実線
 62
     7
100
AcDbLine
 10
753.066745
 20
181.952085
 30
0.0
 11
753.066745
 21
190.285419
 31
0.0
  0
LINE
  5
10D
330
108
100
AcDbEntity
  8
GR1-1
  6
細い実線
 62
     7
100
AcDbLine
 10
753.066745
 20
189.618752
 30
0.0
 11
739.900078
 21
189.618752
 31
0.0
  0
LINE
  5
10E
330
108
100
AcDbEntity
  8
GR1-1
  6
細い実線
 62
     7
100
AcDbLine
 10
741.187979
 20
189.963844
 30
0.0
 11
741.187979
 21
189.27366
 31
0.0
  0
LINE
  5
10F
330
108
100
AcDbEntity
  8
GR1-1
  6
細い実線
 62
     7
100
AcDbLine
 10
741.187979
 20
189.27366
 30
0.0
 11
739.900078
 21
189.618752
 31
0.0
  0
LINE
  5
110
330
108
100
AcDbEntity
  8
GR1-1
  6
細い実線
 62
     7
100
AcDbLine
 10
739.900078
 20
189.618752
 30
0.0
 11
741.187979
 21
189.963844
 31
0.0
  0
LINE
  5
111
330
108
100
AcDbEntity
  8
GR1-1
  6
細い実線
 62
     7
100
AcDbLine
 10
751.778844
 20
189.27366
 30
0.0
 11
751.778844
 21
189.963844
 31
0.0
  0
LINE
  5
112
330
108
100
AcDbEntity
  8
GR1-1
  6
細い実線
 62
     7
100
AcDbLine
 10
751.778844
 20
189.963844
 30
0.0
 11
753.066745
 21
189.618752
 31
0.0
  0
LINE
  5
113
330
108
100
AcDbEntity
  8
GR1-1
  6
細い実線
 62
     7
100
AcDbLine
 10
753.066745
 20
189.618752
 30
0.0
 11
751.778844
 21
189.27366
 31
0.0
  0
TEXT
  5
114
330
108
100
AcDbEntity
  8
GR1-1
  6
細い実線
 62
     7
100
AcDbText
 10
744.483398
 20
189.618766
 30
0.0
 40
2.0
  1
３９５
 41
0.666667
  7
FX_VECTOR
 72
     5
 11
748.483398
 21
189.618766
 31
0.0
100
AcDbText
  0
ENDBLK
  5
10A
330
108
100
AcDbEntity
  8
0
100
AcDbBlockEnd
  0
BLOCK
  5
116
330
115
100
AcDbEntity
  8
0
100
AcDbBlockBegin
  2
BLKF026
 70
     0
 71
     0
 10
0.0
 20
0.0
 30
0.0
  3
BLKF026
  1

  0
LINE
  5
119
330
115
100
AcDbEntity
  8
GR1-1
  6
細い実線
 62
     7
100
AcDbLine
 10
756.733411
 20
181.952085
 30
0.0
 11
756.733411
 21
190.285419
 31
0.0
  0
LINE
  5
11A
330
115
100
AcDbEntity
  8
GR1-1
  6
細い実線
 62
     7
100
AcDbLine
 10
756.733411
 20
189.618752
 30
0.0
 11
753.066745
 21
189.618752
 31
0.0
  0
LINE
  5
11B
330
115
100
AcDbEntity
  8
GR1-1
  6
細い実線
 62
     7
100
AcDbLine
 10
754.354646
 20
189.963844
 30
0.0
 11
754.354646
 21
189.27366
 31
0.0
  0
LINE
  5
11C
330
115
100
AcDbEntity
  8
GR1-1
  6
細い実線
 62
     7
100
AcDbLine
 10
754.354646
 20
189.27366
 30
0.0
 11
753.066745
 21
189.618752
 31
0.0
  0
LINE
  5
11D
330
115
100
AcDbEntity
  8
GR1-1
  6
細い実線
 62
     7
100
AcDbLine
 10
753.066745
 20
189.618752
 30
0.0
 11
754.354646
 21
189.963844
 31
0.0
  0
LINE
  5
11E
330
115
100
AcDbEntity
  8
GR1-1
  6
細い実線
 62
     7
100
AcDbLine
 10
755.44551
 20
189.27366
 30
0.0
 11
755.44551
 21
189.963844
 31
0.0
  0
LINE
  5
11F
330
115
100
AcDbEntity
  8
GR1-1
  6
細い実線
 62
     7
100
AcDbLine
 10
755.44551
 20
189.963844
 30
0.0
 11
756.733411
 21
189.618752
 31
0.0
  0
LINE
  5
120
330
115
100
AcDbEntity
  8
GR1-1
  6
細い実線
 62
     7
100
AcDbLine
 10
756.733411
 20
189.618752
 30
0.0
 11
755.44551
 21
189.27366
 31
0.0
  0
TEXT
  5
121
330
115
100
AcDbEntity
  8
GR1-1
  6
細い実線
 62
     7
100
AcDbText
 10
752.900065
 20
190.285433
 30
0.0
 40
2.0
  1
１１０
 41
0.666667
  7
FX_VECTOR
 72
     5
 11
756.900065
 21
190.285433
 31
0.0
100
AcDbText
  0
ENDBLK
  5
117
330
115
100
AcDbEntity
  8
0
100
AcDbBlockEnd
  0
BLOCK
  5
123
330
122
100
AcDbEntity
  8
0
100
AcDbBlockBegin
  2
BLKF027
 70
     0
 71
     0
 10
0.0
 20
0.0
 30
0.0
  3
BLKF027
  1

  0
LINE
  5
126
330
122
100
AcDbEntity
  8
GR1-1
  6
細い実線
 62
     7
100
AcDbLine
 10
767.316745
 20
181.952085
 30
0.0
 11
767.316745
 21
190.285419
 31
0.0
  0
LINE
  5
127
330
122
100
AcDbEntity
  8
GR1-1
  6
細い実線
 62
     7
100
AcDbLine
 10
767.316745
 20
189.618752
 30
0.0
 11
756.733411
 21
189.618752
 31
0.0
  0
LINE
  5
128
330
122
100
AcDbEntity
  8
GR1-1
  6
細い実線
 62
     7
100
AcDbLine
 10
758.021312
 20
189.963844
 30
0.0
 11
758.021312
 21
189.27366
 31
0.0
  0
LINE
  5
129
330
122
100
AcDbEntity
  8
GR1-1
  6
細い実線
 62
     7
100
AcDbLine
 10
758.021312
 20
189.27366
 30
0.0
 11
756.733411
 21
189.618752
 31
0.0
  0
LINE
  5
12A
330
122
100
AcDbEntity
  8
GR1-1
  6
細い実線
 62
     7
100
AcDbLine
 10
756.733411
 20
189.618752
 30
0.0
 11
758.021312
 21
189.963844
 31
0.0
  0
LINE
  5
12B
330
122
100
AcDbEntity
  8
GR1-1
  6
細い実線
 62
     7
100
AcDbLine
 10
766.028844
 20
189.27366
 30
0.0
 11
766.028844
 21
189.963844
 31
0.0
  0
LINE
  5
12C
330
122
100
AcDbEntity
  8
GR1-1
  6
細い実線
 62
     7
100
AcDbLine
 10
766.028844
 20
189.963844
 30
0.0
 11
767.316745
 21
189.618752
 31
0.0
  0
LINE
  5
12D
330
122
100
AcDbEntity
  8
GR1-1
  6
細い実線
 62
     7
100
AcDbLine
 10
767.316745
 20
189.618752
 30
0.0
 11
766.028844
 21
189.27366
 31
0.0
  0
TEXT
  5
12E
330
122
100
AcDbEntity
  8
GR1-1
  6
細い実線
 62
     7
100
AcDbText
 10
758.691732
 20
189.618766
 30
0.0
 40
2.0
  1
３１７．５
 41
0.666667
  7
FX_VECTOR
 72
     5
 11
765.358398
 21
189.618766
 31
0.0
100
AcDbText
  0
ENDBLK
  5
124
330
122
100
AcDbEntity
  8
0
100
AcDbBlockEnd
  0
BLOCK
  5
138
330
137
100
AcDbEntity
  8
0
100
AcDbBlockBegin
  2
BLKF028
 70
     0
 71
     0
 10
0.0
 20
0.0
 30
0.0
  3
BLKF028
  1

  0
LINE
  5
13B
330
137
100
AcDbEntity
  8
GR1-1
  6
細い実線
 62
     7
100
AcDbLine
 10
736.233411
 20
184.618752
 30
0.0
 11
718.316745
 21
184.618752
 31
0.0
  0
LINE
  5
13C
330
137
100
AcDbEntity
  8
GR1-1
  6
細い実線
 62
     7
100
AcDbLine
 10
718.983411
 20
184.618752
 30
0.0
 11
718.983411
 21
181.285419
 31
0.0
  0
LINE
  5
13D
330
137
100
AcDbEntity
  8
GR1-1
  6
細い実線
 62
     7
100
AcDbLine
 10
718.638319
 20
182.57332
 30
0.0
 11
719.328503
 21
182.57332
 31
0.0
  0
LINE
  5
13E
330
137
100
AcDbEntity
  8
GR1-1
  6
細い実線
 62
     7
100
AcDbLine
 10
719.328503
 20
182.57332
 30
0.0
 11
718.983411
 21
181.285419
 31
0.0
  0
LINE
  5
13F
330
137
100
AcDbEntity
  8
GR1-1
  6
細い実線
 62
     7
100
AcDbLine
 10
718.983411
 20
181.285419
 30
0.0
 11
718.638319
 21
182.57332
 31
0.0
  0
LINE
  5
140
330
137
100
AcDbEntity
  8
GR1-1
  6
細い実線
 62
     7
100
AcDbLine
 10
719.328503
 20
183.330851
 30
0.0
 11
718.638319
 21
183.330851
 31
0.0
  0
LINE
  5
141
330
137
100
AcDbEntity
  8
GR1-1
  6
細い実線
 62
     7
100
AcDbLine
 10
718.638319
 20
183.330851
 30
0.0
 11
718.983411
 21
184.618752
 31
0.0
  0
LINE
  5
142
330
137
100
AcDbEntity
  8
GR1-1
  6
細い実線
 62
     7
100
AcDbLine
 10
718.983411
 20
184.618752
 30
0.0
 11
719.328503
 21
183.330851
 31
0.0
  0
TEXT
  5
143
330
137
100
AcDbEntity
  8
GR1-1
  6
細い実線
 62
     7
100
AcDbText
 10
718.316732
 20
180.952083
 30
0.0
 40
2.0
  1
１００
 50
90.0
 41
0.666667
  7
FX_VECTOR
 72
     5
 11
718.316732
 21
184.952083
 31
0.0
100
AcDbText
  0
ENDBLK
  5
139
330
137
100
AcDbEntity
  8
0
100
AcDbBlockEnd
  0
BLOCK
  5
17E
330
17D
100
AcDbEntity
  8
0
100
AcDbBlockBegin
  2
BLKF029
 70
     0
 71
     0
 10
0.0
 20
0.0
 30
0.0
  3
BLKF029
  1

  0
LINE
  5
181
330
17D
100
AcDbEntity
  8
GR1-1
  6
細い実線
 62
     7
100
AcDbLine
 10
756.512627
 20
128.360363
 30
0.0
 11
756.512627
 21
140.02703
 31
0.0
  0
LINE
  5
182
330
17D
100
AcDbEntity
  8
GR1-1
  6
細い実線
 62
     7
100
AcDbLine
 10
798.179294
 20
128.360363
 30
0.0
 11
798.179294
 21
140.02703
 31
0.0
  0
LINE
  5
183
330
17D
100
AcDbEntity
  8
GR1-1
  6
細い実線
 62
     7
100
AcDbLine
 10
798.179294
 20
139.360363
 30
0.0
 11
756.512627
 21
139.360363
 31
0.0
  0
LINE
  5
184
330
17D
100
AcDbEntity
  8
GR1-1
  6
細い実線
 62
     7
100
AcDbLine
 10
757.800529
 20
139.705455
 30
0.0
 11
757.800529
 21
139.015271
 31
0.0
  0
LINE
  5
185
330
17D
100
AcDbEntity
  8
GR1-1
  6
細い実線
 62
     7
100
AcDbLine
 10
757.800529
 20
139.015271
 30
0.0
 11
756.512627
 21
139.360363
 31
0.0
  0
LINE
  5
186
330
17D
100
AcDbEntity
  8
GR1-1
  6
細い実線
 62
     7
100
AcDbLine
 10
756.512627
 20
139.360363
 30
0.0
 11
757.800529
 21
139.705455
 31
0.0
  0
LINE
  5
187
330
17D
100
AcDbEntity
  8
GR1-1
  6
細い実線
 62
     7
100
AcDbLine
 10
796.891393
 20
139.015271
 30
0.0
 11
796.891393
 21
139.705455
 31
0.0
  0
LINE
  5
188
330
17D
100
AcDbEntity
  8
GR1-1
  6
細い実線
 62
     7
100
AcDbLine
 10
796.891393
 20
139.705455
 30
0.0
 11
798.179294
 21
139.360363
 31
0.0
  0
LINE
  5
189
330
17D
100
AcDbEntity
  8
GR1-1
  6
細い実線
 62
     7
100
AcDbLine
 10
798.179294
 20
139.360363
 30
0.0
 11
796.891393
 21
139.015271
 31
0.0
  0
TEXT
  5
18A
330
17D
100
AcDbEntity
  8
GR1-1
  6
細い実線
 62
     7
100
AcDbText
 10
774.679232
 20
139.360368
 30
0.0
 40
2.0
  1
１２５０
 41
0.666667
  7
FX_VECTOR
 72
     5
 11
780.012565
 21
139.360368
 31
0.0
100
AcDbText
  0
ENDBLK
  5
17F
330
17D
100
AcDbEntity
  8
0
100
AcDbBlockEnd
  0
BLOCK
  5
18C
330
18B
100
AcDbEntity
  8
0
100
AcDbBlockBegin
  2
BLKF030
 70
     0
 71
     0
 10
0.0
 20
0.0
 30
0.0
  3
BLKF030
  1

  0
LINE
  5
18F
330
18B
100
AcDbEntity
  8
GR1-1
  6
細い実線
 62
     7
100
AcDbLine
 10
756.512627
 20
114.52703
 30
0.0
 11
756.512627
 21
101.193696
 31
0.0
  0
LINE
  5
190
330
18B
100
AcDbEntity
  8
GR1-1
  6
細い実線
 62
     7
100
AcDbLine
 10
768.929294
 20
101.860363
 30
0.0
 11
756.512627
 21
101.860363
 31
0.0
  0
LINE
  5
191
330
18B
100
AcDbEntity
  8
GR1-1
  6
細い実線
 62
     7
100
AcDbLine
 10
757.800529
 20
102.205455
 30
0.0
 11
757.800529
 21
101.515271
 31
0.0
  0
LINE
  5
192
330
18B
100
AcDbEntity
  8
GR1-1
  6
細い実線
 62
     7
100
AcDbLine
 10
757.800529
 20
101.515271
 30
0.0
 11
756.512627
 21
101.860363
 31
0.0
  0
LINE
  5
193
330
18B
100
AcDbEntity
  8
GR1-1
  6
細い実線
 62
     7
100
AcDbLine
 10
756.512627
 20
101.860363
 30
0.0
 11
757.800529
 21
102.205455
 31
0.0
  0
LINE
  5
194
330
18B
100
AcDbEntity
  8
GR1-1
  6
細い実線
 62
     7
100
AcDbLine
 10
767.641393
 20
101.515271
 30
0.0
 11
767.641393
 21
102.205455
 31
0.0
  0
LINE
  5
195
330
18B
100
AcDbEntity
  8
GR1-1
  6
細い実線
 62
     7
100
AcDbLine
 10
767.641393
 20
102.205455
 30
0.0
 11
768.929294
 21
101.860363
 31
0.0
  0
LINE
  5
196
330
18B
100
AcDbEntity
  8
GR1-1
  6
細い実線
 62
     7
100
AcDbLine
 10
768.929294
 20
101.860363
 30
0.0
 11
767.641393
 21
101.515271
 31
0.0
  0
TEXT
  5
197
330
18B
100
AcDbEntity
  8
GR1-1
  6
細い実線
 62
     7
100
AcDbText
 10
759.387565
 20
101.86036
 30
0.0
 40
2.0
  1
３７２．５
 41
0.666667
  7
FX_VECTOR
 72
     5
 11
766.054232
 21
101.86036
 31
0.0
100
AcDbText
  0
ENDBLK
  5
18D
330
18B
100
AcDbEntity
  8
0
100
AcDbBlockEnd
  0
BLOCK
  5
199
330
198
100
AcDbEntity
  8
0
100
AcDbBlockBegin
  2
BLKF031
 70
     0
 71
     0
 10
0.0
 20
0.0
 30
0.0
  3
BLKF031
  1

  0
LINE
  5
19C
330
198
100
AcDbEntity
  8
GR1-1
  6
細い実線
 62
     7
100
AcDbLine
 10
768.095961
 20
114.52703
 30
0.0
 11
768.095961
 21
106.193696
 31
0.0
  0
LINE
  5
19D
330
198
100
AcDbEntity
  8
GR1-1
  6
細い実線
 62
     7
100
AcDbLine
 10
769.762627
 20
114.52703
 30
0.0
 11
769.762627
 21
106.193696
 31
0.0
  0
LINE
  5
19E
330
198
100
AcDbEntity
  8
GR1-1
  6
細い実線
 62
     7
100
AcDbLine
 10
771.762627
 20
106.860363
 30
0.0
 11
766.095961
 21
106.860363
 31
0.0
  0
LINE
  5
19F
330
198
100
AcDbEntity
  8
GR1-1
  6
細い実線
 62
     7
100
AcDbLine
 10
766.80806
 20
106.515271
 30
0.0
 11
766.80806
 21
107.205455
 31
0.0
  0
LINE
  5
1A0
330
198
100
AcDbEntity
  8
GR1-1
  6
細い実線
 62
     7
100
AcDbLine
 10
766.80806
 20
107.205455
 30
0.0
 11
768.095961
 21
106.860363
 31
0.0
  0
LINE
  5
1A1
330
198
100
AcDbEntity
  8
GR1-1
  6
細い実線
 62
     7
100
AcDbLine
 10
768.095961
 20
106.860363
 30
0.0
 11
766.80806
 21
106.515271
 31
0.0
  0
LINE
  5
1A2
330
198
100
AcDbEntity
  8
GR1-1
  6
細い実線
 62
     7
100
AcDbLine
 10
771.050529
 20
107.205455
 30
0.0
 11
771.050529
 21
106.515271
 31
0.0
  0
LINE
  5
1A3
330
198
100
AcDbEntity
  8
GR1-1
  6
細い実線
 62
     7
100
AcDbLine
 10
771.050529
 20
106.515271
 30
0.0
 11
769.762627
 21
106.860363
 31
0.0
  0
LINE
  5
1A4
330
198
100
AcDbEntity
  8
GR1-1
  6
細い実線
 62
     7
100
AcDbLine
 10
769.762627
 20
106.860363
 30
0.0
 11
771.050529
 21
107.205455
 31
0.0
  0
TEXT
  5
1A5
330
198
100
AcDbEntity
  8
GR1-1
  6
細い実線
 62
     7
100
AcDbText
 10
771.208789
 20
106.86036
 30
0.0
 40
2.0
  1
５０
 41
0.666667
  7
FX_VECTOR
 72
     5
 11
773.875456
 21
106.86036
 31
0.0
100
AcDbText
  0
ENDBLK
  5
19A
330
198
100
AcDbEntity
  8
0
100
AcDbBlockEnd
  0
BLOCK
  5
1A7
330
1A6
100
AcDbEntity
  8
0
100
AcDbBlockBegin
  2
BLKF032
 70
     0
 71
     0
 10
0.0
 20
0.0
 30
0.0
  3
BLKF032
  1

  0
LINE
  5
1AA
330
1A6
100
AcDbEntity
  8
GR1-1
  6
細い実線
 62
     7
100
AcDbLine
 10
784.929294
 20
114.52703
 30
0.0
 11
784.929294
 21
106.193696
 31
0.0
  0
LINE
  5
1AB
330
1A6
100
AcDbEntity
  8
GR1-1
  6
細い実線
 62
     7
100
AcDbLine
 10
786.595961
 20
114.52703
 30
0.0
 11
786.595961
 21
106.193696
 31
0.0
  0
LINE
  5
1AC
330
1A6
100
AcDbEntity
  8
GR1-1
  6
細い実線
 62
     7
100
AcDbLine
 10
788.595961
 20
106.860363
 30
0.0
 11
782.929294
 21
106.860363
 31
0.0
  0
LINE
  5
1AD
330
1A6
100
AcDbEntity
  8
GR1-1
  6
細い実線
 62
     7
100
AcDbLine
 10
783.641393
 20
106.515271
 30
0.0
 11
783.641393
 21
107.205455
 31
0.0
  0
LINE
  5
1AE
330
1A6
100
AcDbEntity
  8
GR1-1
  6
細い実線
 62
     7
100
AcDbLine
 10
783.641393
 20
107.205455
 30
0.0
 11
784.929294
 21
106.860363
 31
0.0
  0
LINE
  5
1AF
330
1A6
100
AcDbEntity
  8
GR1-1
  6
細い実線
 62
     7
100
AcDbLine
 10
784.929294
 20
106.860363
 30
0.0
 11
783.641393
 21
106.515271
 31
0.0
  0
LINE
  5
1B0
330
1A6
100
AcDbEntity
  8
GR1-1
  6
細い実線
 62
     7
100
AcDbLine
 10
787.883862
 20
107.205455
 30
0.0
 11
787.883862
 21
106.515271
 31
0.0
  0
LINE
  5
1B1
330
1A6
100
AcDbEntity
  8
GR1-1
  6
細い実線
 62
     7
100
AcDbLine
 10
787.883862
 20
106.515271
 30
0.0
 11
786.595961
 21
106.860363
 31
0.0
  0
LINE
  5
1B2
330
1A6
100
AcDbEntity
  8
GR1-1
  6
細い実線
 62
     7
100
AcDbLine
 10
786.595961
 20
106.860363
 30
0.0
 11
787.883862
 21
107.205455
 31
0.0
  0
TEXT
  5
1B3
330
1A6
100
AcDbEntity
  8
GR1-1
  6
細い実線
 62
     7
100
AcDbText
 10
788.042122
 20
106.86036
 30
0.0
 40
2.0
  1
５０
 41
0.666667
  7
FX_VECTOR
 72
     5
 11
790.708789
 21
106.86036
 31
0.0
100
AcDbText
  0
ENDBLK
  5
1A8
330
1A6
100
AcDbEntity
  8
0
100
AcDbBlockEnd
  0
BLOCK
  5
1B5
330
1B4
100
AcDbEntity
  8
0
100
AcDbBlockBegin
  2
BLKF033
 70
     0
 71
     0
 10
0.0
 20
0.0
 30
0.0
  3
BLKF033
  1

  0
LINE
  5
1B8
330
1B4
100
AcDbEntity
  8
GR1-1
  6
細い実線
 62
     7
100
AcDbLine
 10
756.512627
 20
128.360363
 30
0.0
 11
756.512627
 21
136.693696
 31
0.0
  0
LINE
  5
1B9
330
1B4
100
AcDbEntity
  8
GR1-1
  6
細い実線
 62
     7
100
AcDbLine
 10
767.095961
 20
128.360363
 30
0.0
 11
767.095961
 21
136.693696
 31
0.0
  0
LINE
  5
1BA
330
1B4
100
AcDbEntity
  8
GR1-1
  6
細い実線
 62
     7
100
AcDbLine
 10
767.095961
 20
136.02703
 30
0.0
 11
756.512627
 21
136.02703
 31
0.0
  0
LINE
  5
1BB
330
1B4
100
AcDbEntity
  8
GR1-1
  6
細い実線
 62
     7
100
AcDbLine
 10
757.800529
 20
136.372122
 30
0.0
 11
757.800529
 21
135.681937
 31
0.0
  0
LINE
  5
1BC
330
1B4
100
AcDbEntity
  8
GR1-1
  6
細い実線
 62
     7
100
AcDbLine
 10
757.800529
 20
135.681937
 30
0.0
 11
756.512627
 21
136.02703
 31
0.0
  0
LINE
  5
1BD
330
1B4
100
AcDbEntity
  8
GR1-1
  6
細い実線
 62
     7
100
AcDbLine
 10
756.512627
 20
136.02703
 30
0.0
 11
757.800529
 21
136.372122
 31
0.0
  0
LINE
  5
1BE
330
1B4
100
AcDbEntity
  8
GR1-1
  6
細い実線
 62
     7
100
AcDbLine
 10
765.80806
 20
135.681937
 30
0.0
 11
765.80806
 21
136.372122
 31
0.0
  0
LINE
  5
1BF
330
1B4
100
AcDbEntity
  8
GR1-1
  6
細い実線
 62
     7
100
AcDbLine
 10
765.80806
 20
136.372122
 30
0.0
 11
767.095961
 21
136.02703
 31
0.0
  0
LINE
  5
1C0
330
1B4
100
AcDbEntity
  8
GR1-1
  6
細い実線
 62
     7
100
AcDbLine
 10
767.095961
 20
136.02703
 30
0.0
 11
765.80806
 21
135.681937
 31
0.0
  0
TEXT
  5
1C1
330
1B4
100
AcDbEntity
  8
GR1-1
  6
細い実線
 62
     7
100
AcDbText
 10
758.470898
 20
136.027026
 30
0.0
 40
2.0
  1
３１７．５
 41
0.666667
  7
FX_VECTOR
 72
     5
 11
765.137565
 21
136.027026
 31
0.0
100
AcDbText
  0
ENDBLK
  5
1B6
330
1B4
100
AcDbEntity
  8
0
100
AcDbBlockEnd
  0
BLOCK
  5
1C3
330
1C2
100
AcDbEntity
  8
0
100
AcDbBlockBegin
  2
BLKF034
 70
     0
 71
     0
 10
0.0
 20
0.0
 30
0.0
  3
BLKF034
  1

  0
LINE
  5
1C6
330
1C2
100
AcDbEntity
  8
GR1-1
  6
細い実線
 62
     7
100
AcDbLine
 10
770.762627
 20
128.360363
 30
0.0
 11
770.762627
 21
136.693696
 31
0.0
  0
LINE
  5
1C7
330
1C2
100
AcDbEntity
  8
GR1-1
  6
細い実線
 62
     7
100
AcDbLine
 10
770.762627
 20
136.02703
 30
0.0
 11
767.095961
 21
136.02703
 31
0.0
  0
LINE
  5
1C8
330
1C2
100
AcDbEntity
  8
GR1-1
  6
細い実線
 62
     7
100
AcDbLine
 10
768.383862
 20
136.372122
 30
0.0
 11
768.383862
 21
135.681937
 31
0.0
  0
LINE
  5
1C9
330
1C2
100
AcDbEntity
  8
GR1-1
  6
細い実線
 62
     7
100
AcDbLine
 10
768.383862
 20
135.681937
 30
0.0
 11
767.095961
 21
136.02703
 31
0.0
  0
LINE
  5
1CA
330
1C2
100
AcDbEntity
  8
GR1-1
  6
細い実線
 62
     7
100
AcDbLine
 10
767.095961
 20
136.02703
 30
0.0
 11
768.383862
 21
136.372122
 31
0.0
  0
LINE
  5
1CB
330
1C2
100
AcDbEntity
  8
GR1-1
  6
細い実線
 62
     7
100
AcDbLine
 10
769.474726
 20
135.681937
 30
0.0
 11
769.474726
 21
136.372122
 31
0.0
  0
LINE
  5
1CC
330
1C2
100
AcDbEntity
  8
GR1-1
  6
細い実線
 62
     7
100
AcDbLine
 10
769.474726
 20
136.372122
 30
0.0
 11
770.762627
 21
136.02703
 31
0.0
  0
LINE
  5
1CD
330
1C2
100
AcDbEntity
  8
GR1-1
  6
細い実線
 62
     7
100
AcDbLine
 10
770.762627
 20
136.02703
 30
0.0
 11
769.474726
 21
135.681937
 31
0.0
  0
TEXT
  5
1CE
330
1C2
100
AcDbEntity
  8
GR1-1
  6
細い実線
 62
     7
100
AcDbText
 10
766.929232
 20
136.693701
 30
0.0
 40
2.0
  1
１１０
 41
0.666667
  7
FX_VECTOR
 72
     5
 11
770.929232
 21
136.693701
 31
0.0
100
AcDbText
  0
ENDBLK
  5
1C4
330
1C2
100
AcDbEntity
  8
0
100
AcDbBlockEnd
  0
BLOCK
  5
1D0
330
1CF
100
AcDbEntity
  8
0
100
AcDbBlockBegin
  2
BLKF035
 70
     0
 71
     0
 10
0.0
 20
0.0
 30
0.0
  3
BLKF035
  1

  0
LINE
  5
1D3
330
1CF
100
AcDbEntity
  8
GR1-1
  6
細い実線
 62
     7
100
AcDbLine
 10
783.929294
 20
128.360363
 30
0.0
 11
783.929294
 21
136.693696
 31
0.0
  0
LINE
  5
1D4
330
1CF
100
AcDbEntity
  8
GR1-1
  6
細い実線
 62
     7
100
AcDbLine
 10
783.929294
 20
136.02703
 30
0.0
 11
770.762627
 21
136.02703
 31
0.0
  0
LINE
  5
1D5
330
1CF
100
AcDbEntity
  8
GR1-1
  6
細い実線
 62
     7
100
AcDbLine
 10
772.050529
 20
136.372122
 30
0.0
 11
772.050529
 21
135.681937
 31
0.0
  0
LINE
  5
1D6
330
1CF
100
AcDbEntity
  8
GR1-1
  6
細い実線
 62
     7
100
AcDbLine
 10
772.050529
 20
135.681937
 30
0.0
 11
770.762627
 21
136.02703
 31
0.0
  0
LINE
  5
1D7
330
1CF
100
AcDbEntity
  8
GR1-1
  6
細い実線
 62
     7
100
AcDbLine
 10
770.762627
 20
136.02703
 30
0.0
 11
772.050529
 21
136.372122
 31
0.0
  0
LINE
  5
1D8
330
1CF
100
AcDbEntity
  8
GR1-1
  6
細い実線
 62
     7
100
AcDbLine
 10
782.641393
 20
135.681937
 30
0.0
 11
782.641393
 21
136.372122
 31
0.0
  0
LINE
  5
1D9
330
1CF
100
AcDbEntity
  8
GR1-1
  6
細い実線
 62
     7
100
AcDbLine
 10
782.641393
 20
136.372122
 30
0.0
 11
783.929294
 21
136.02703
 31
0.0
  0
LINE
  5
1DA
330
1CF
100
AcDbEntity
  8
GR1-1
  6
細い実線
 62
     7
100
AcDbLine
 10
783.929294
 20
136.02703
 30
0.0
 11
782.641393
 21
135.681937
 31
0.0
  0
TEXT
  5
1DB
330
1CF
100
AcDbEntity
  8
GR1-1
  6
細い実線
 62
     7
100
AcDbText
 10
775.345898
 20
136.027026
 30
0.0
 40
2.0
  1
３９５
 41
0.666667
  7
FX_VECTOR
 72
     5
 11
779.345898
 21
136.027026
 31
0.0
100
AcDbText
  0
ENDBLK
  5
1D1
330
1CF
100
AcDbEntity
  8
0
100
AcDbBlockEnd
  0
BLOCK
  5
1DD
330
1DC
100
AcDbEntity
  8
0
100
AcDbBlockBegin
  2
BLKF036
 70
     0
 71
     0
 10
0.0
 20
0.0
 30
0.0
  3
BLKF036
  1

  0
LINE
  5
1E0
330
1DC
100
AcDbEntity
  8
GR1-1
  6
細い実線
 62
     7
100
AcDbLine
 10
787.595961
 20
128.360363
 30
0.0
 11
787.595961
 21
136.693696
 31
0.0
  0
LINE
  5
1E1
330
1DC
100
AcDbEntity
  8
GR1-1
  6
細い実線
 62
     7
100
AcDbLine
 10
787.595961
 20
136.02703
 30
0.0
 11
783.929294
 21
136.02703
 31
0.0
  0
LINE
  5
1E2
330
1DC
100
AcDbEntity
  8
GR1-1
  6
細い実線
 62
     7
100
AcDbLine
 10
785.217195
 20
136.372122
 30
0.0
 11
785.217195
 21
135.681937
 31
0.0
  0
LINE
  5
1E3
330
1DC
100
AcDbEntity
  8
GR1-1
  6
細い実線
 62
     7
100
AcDbLine
 10
785.217195
 20
135.681937
 30
0.0
 11
783.929294
 21
136.02703
 31
0.0
  0
LINE
  5
1E4
330
1DC
100
AcDbEntity
  8
GR1-1
  6
細い実線
 62
     7
100
AcDbLine
 10
783.929294
 20
136.02703
 30
0.0
 11
785.217195
 21
136.372122
 31
0.0
  0
LINE
  5
1E5
330
1DC
100
AcDbEntity
  8
GR1-1
  6
細い実線
 62
     7
100
AcDbLine
 10
786.30806
 20
135.681937
 30
0.0
 11
786.30806
 21
136.372122
 31
0.0
  0
LINE
  5
1E6
330
1DC
100
AcDbEntity
  8
GR1-1
  6
細い実線
 62
     7
100
AcDbLine
 10
786.30806
 20
136.372122
 30
0.0
 11
787.595961
 21
136.02703
 31
0.0
  0
LINE
  5
1E7
330
1DC
100
AcDbEntity
  8
GR1-1
  6
細い実線
 62
     7
100
AcDbLine
 10
787.595961
 20
136.02703
 30
0.0
 11
786.30806
 21
135.681937
 31
0.0
  0
TEXT
  5
1E8
330
1DC
100
AcDbEntity
  8
GR1-1
  6
細い実線
 62
     7
100
AcDbText
 10
783.762565
 20
136.693701
 30
0.0
 40
2.0
  1
１１０
 41
0.666667
  7
FX_VECTOR
 72
     5
 11
787.762565
 21
136.693701
 31
0.0
100
AcDbText
  0
ENDBLK
  5
1DE
330
1DC
100
AcDbEntity
  8
0
100
AcDbBlockEnd
  0
BLOCK
  5
1EA
330
1E9
100
AcDbEntity
  8
0
100
AcDbBlockBegin
  2
BLKF037
 70
     0
 71
     0
 10
0.0
 20
0.0
 30
0.0
  3
BLKF037
  1

  0
LINE
  5
1ED
330
1E9
100
AcDbEntity
  8
GR1-1
  6
細い実線
 62
     7
100
AcDbLine
 10
798.179294
 20
128.360363
 30
0.0
 11
798.179294
 21
136.693696
 31
0.0
  0
LINE
  5
1EE
330
1E9
100
AcDbEntity
  8
GR1-1
  6
細い実線
 62
     7
100
AcDbLine
 10
798.179294
 20
136.02703
 30
0.0
 11
787.595961
 21
136.02703
 31
0.0
  0
LINE
  5
1EF
330
1E9
100
AcDbEntity
  8
GR1-1
  6
細い実線
 62
     7
100
AcDbLine
 10
788.883862
 20
136.372122
 30
0.0
 11
788.883862
 21
135.681937
 31
0.0
  0
LINE
  5
1F0
330
1E9
100
AcDbEntity
  8
GR1-1
  6
細い実線
 62
     7
100
AcDbLine
 10
788.883862
 20
135.681937
 30
0.0
 11
787.595961
 21
136.02703
 31
0.0
  0
LINE
  5
1F1
330
1E9
100
AcDbEntity
  8
GR1-1
  6
細い実線
 62
     7
100
AcDbLine
 10
787.595961
 20
136.02703
 30
0.0
 11
788.883862
 21
136.372122
 31
0.0
  0
LINE
  5
1F2
330
1E9
100
AcDbEntity
  8
GR1-1
  6
細い実線
 62
     7
100
AcDbLine
 10
796.891393
 20
135.681937
 30
0.0
 11
796.891393
 21
136.372122
 31
0.0
  0
LINE
  5
1F3
330
1E9
100
AcDbEntity
  8
GR1-1
  6
細い実線
 62
     7
100
AcDbLine
 10
796.891393
 20
136.372122
 30
0.0
 11
798.179294
 21
136.02703
 31
0.0
  0
LINE
  5
1F4
330
1E9
100
AcDbEntity
  8
GR1-1
  6
細い実線
 62
     7
100
AcDbLine
 10
798.179294
 20
136.02703
 30
0.0
 11
796.891393
 21
135.681937
 31
0.0
  0
TEXT
  5
1F5
330
1E9
100
AcDbEntity
  8
GR1-1
  6
細い実線
 62
     7
100
AcDbText
 10
789.554232
 20
136.027026
 30
0.0
 40
2.0
  1
３１７．５
 41
0.666667
  7
FX_VECTOR
 72
     5
 11
796.220898
 21
136.027026
 31
0.0
100
AcDbText
  0
ENDBLK
  5
1EB
330
1E9
100
AcDbEntity
  8
0
100
AcDbBlockEnd
  0
BLOCK
  5
1F7
330
1F6
100
AcDbEntity
  8
0
100
AcDbBlockBegin
  2
BLKF038
 70
     0
 71
     0
 10
0.0
 20
0.0
 30
0.0
  3
BLKF038
  1

  0
LINE
  5
1FA
330
1F6
100
AcDbEntity
  8
GR1-1
  6
細い実線
 62
     7
100
AcDbLine
 10
755.845961
 20
127.860363
 30
0.0
 11
747.095961
 21
127.860363
 31
0.0
  0
LINE
  5
1FB
330
1F6
100
AcDbEntity
  8
GR1-1
  6
細い実線
 62
     7
100
AcDbLine
 10
755.845961
 20
115.193696
 30
0.0
 11
747.095961
 21
115.193696
 31
0.0
  0
LINE
  5
1FC
330
1F6
100
AcDbEntity
  8
GR1-1
  6
細い実線
 62
     7
100
AcDbLine
 10
747.762627
 20
115.193696
 30
0.0
 11
747.762627
 21
127.860363
 31
0.0
  0
LINE
  5
1FD
330
1F6
100
AcDbEntity
  8
GR1-1
  6
細い実線
 62
     7
100
AcDbLine
 10
748.10772
 20
126.572462
 30
0.0
 11
747.417535
 21
126.572462
 31
0.0
  0
LINE
  5
1FE
330
1F6
100
AcDbEntity
  8
GR1-1
  6
細い実線
 62
     7
100
AcDbLine
 10
747.417535
 20
126.572462
 30
0.0
 11
747.762627
 21
127.860363
 31
0.0
  0
LINE
  5
1FF
330
1F6
100
AcDbEntity
  8
GR1-1
  6
細い実線
 62
     7
100
AcDbLine
 10
747.762627
 20
127.860363
 30
0.0
 11
748.10772
 21
126.572462
 31
0.0
  0
LINE
  5
200
330
1F6
100
AcDbEntity
  8
GR1-1
  6
細い実線
 62
     7
100
AcDbLine
 10
747.417535
 20
116.481597
 30
0.0
 11
748.10772
 21
116.481597
 31
0.0
  0
LINE
  5
201
330
1F6
100
AcDbEntity
  8
GR1-1
  6
細い実線
 62
     7
100
AcDbLine
 10
748.10772
 20
116.481597
 30
0.0
 11
747.762627
 21
115.193696
 31
0.0
  0
LINE
  5
202
330
1F6
100
AcDbEntity
  8
GR1-1
  6
細い実線
 62
     7
100
AcDbLine
 10
747.762627
 20
115.193696
 30
0.0
 11
747.417535
 21
116.481597
 31
0.0
  0
TEXT
  5
203
330
1F6
100
AcDbEntity
  8
GR1-1
  6
細い実線
 62
     7
100
AcDbText
 10
747.762565
 20
119.527026
 30
0.0
 40
2.0
  1
３８０
 50
90.0
 41
0.666667
  7
FX_VECTOR
 72
     5
 11
747.762565
 21
123.527026
 31
0.0
100
AcDbText
  0
ENDBLK
  5
1F8
330
1F6
100
AcDbEntity
  8
0
100
AcDbBlockEnd
  0
BLOCK
  5
205
330
204
100
AcDbEntity
  8
0
100
AcDbBlockBegin
  2
BLKF039
 70
     0
 71
     0
 10
0.0
 20
0.0
 30
0.0
  3
BLKF039
  1

  0
LINE
  5
208
330
204
100
AcDbEntity
  8
GR1-1
  6
細い実線
 62
     7
100
AcDbLine
 10
768.929294
 20
106.231649
 30
0.0
 11
768.929294
 21
101.193696
 31
0.0
  0
LINE
  5
209
330
204
100
AcDbEntity
  8
GR1-1
  6
細い実線
 62
     7
100
AcDbLine
 10
785.762627
 20
106.231649
 30
0.0
 11
785.762627
 21
101.193696
 31
0.0
  0
LINE
  5
20A
330
204
100
AcDbEntity
  8
GR1-1
  6
細い実線
 62
     7
100
AcDbLine
 10
785.762627
 20
101.860363
 30
0.0
 11
768.929294
 21
101.860363
 31
0.0
  0
LINE
  5
20B
330
204
100
AcDbEntity
  8
GR1-1
  6
細い実線
 62
     7
100
AcDbLine
 10
770.217195
 20
102.205455
 30
0.0
 11
770.217195
 21
101.515271
 31
0.0
  0
LINE
  5
20C
330
204
100
AcDbEntity
  8
GR1-1
  6
細い実線
 62
     7
100
AcDbLine
 10
770.217195
 20
101.515271
 30
0.0
 11
768.929294
 21
101.860363
 31
0.0
  0
LINE
  5
20D
330
204
100
AcDbEntity
  8
GR1-1
  6
細い実線
 62
     7
100
AcDbLine
 10
768.929294
 20
101.860363
 30
0.0
 11
770.217195
 21
102.205455
 31
0.0
  0
LINE
  5
20E
330
204
100
AcDbEntity
  8
GR1-1
  6
細い実線
 62
     7
100
AcDbLine
 10
784.474726
 20
101.515271
 30
0.0
 11
784.474726
 21
102.205455
 31
0.0
  0
LINE
  5
20F
330
204
100
AcDbEntity
  8
GR1-1
  6
細い実線
 62
     7
100
AcDbLine
 10
784.474726
 20
102.205455
 30
0.0
 11
785.762627
 21
101.860363
 31
0.0
  0
LINE
  5
210
330
204
100
AcDbEntity
  8
GR1-1
  6
細い実線
 62
     7
100
AcDbLine
 10
785.762627
 20
101.860363
 30
0.0
 11
784.474726
 21
101.515271
 31
0.0
  0
TEXT
  5
211
330
204
100
AcDbEntity
  8
GR1-1
  6
細い実線
 62
     7
100
AcDbText
 10
775.345898
 20
101.86036
 30
0.0
 40
2.0
  1
５０５
 41
0.666667
  7
FX_VECTOR
 72
     5
 11
779.345898
 21
101.86036
 31
0.0
100
AcDbText
  0
ENDBLK
  5
206
330
204
100
AcDbEntity
  8
0
100
AcDbBlockEnd
  0
BLOCK
  5
213
330
212
100
AcDbEntity
  8
0
100
AcDbBlockBegin
  2
BLKF040
 70
     0
 71
     0
 10
0.0
 20
0.0
 30
0.0
  3
BLKF040
  1

  0
LINE
  5
216
330
212
100
AcDbEntity
  8
GR1-1
  6
細い実線
 62
     7
100
AcDbLine
 10
798.179294
 20
114.52703
 30
0.0
 11
798.179294
 21
101.193696
 31
0.0
  0
LINE
  5
217
330
212
100
AcDbEntity
  8
GR1-1
  6
細い実線
 62
     7
100
AcDbLine
 10
798.179294
 20
101.860363
 30
0.0
 11
785.762627
 21
101.860363
 31
0.0
  0
LINE
  5
218
330
212
100
AcDbEntity
  8
GR1-1
  6
細い実線
 62
     7
100
AcDbLine
 10
787.050529
 20
102.205455
 30
0.0
 11
787.050529
 21
101.515271
 31
0.0
  0
LINE
  5
219
330
212
100
AcDbEntity
  8
GR1-1
  6
細い実線
 62
     7
100
AcDbLine
 10
787.050529
 20
101.515271
 30
0.0
 11
785.762627
 21
101.860363
 31
0.0
  0
LINE
  5
21A
330
212
100
AcDbEntity
  8
GR1-1
  6
細い実線
 62
     7
100
AcDbLine
 10
785.762627
 20
101.860363
 30
0.0
 11
787.050529
 21
102.205455
 31
0.0
  0
LINE
  5
21B
330
212
100
AcDbEntity
  8
GR1-1
  6
細い実線
 62
     7
100
AcDbLine
 10
796.891393
 20
101.515271
 30
0.0
 11
796.891393
 21
102.205455
 31
0.0
  0
LINE
  5
21C
330
212
100
AcDbEntity
  8
GR1-1
  6
細い実線
 62
     7
100
AcDbLine
 10
796.891393
 20
102.205455
 30
0.0
 11
798.179294
 21
101.860363
 31
0.0
  0
LINE
  5
21D
330
212
100
AcDbEntity
  8
GR1-1
  6
細い実線
 62
     7
100
AcDbLine
 10
798.179294
 20
101.860363
 30
0.0
 11
796.891393
 21
101.515271
 31
0.0
  0
TEXT
  5
21E
330
212
100
AcDbEntity
  8
GR1-1
  6
細い実線
 62
     7
100
AcDbText
 10
788.637565
 20
101.86036
 30
0.0
 40
2.0
  1
３７２．５
 41
0.666667
  7
FX_VECTOR
 72
     5
 11
795.304232
 21
101.86036
 31
0.0
100
AcDbText
  0
ENDBLK
  5
214
330
212
100
AcDbEntity
  8
0
100
AcDbBlockEnd
  0
BLOCK
  5
226
330
225
100
AcDbEntity
  8
0
100
AcDbBlockBegin
  2
BLKF041
 70
     0
 71
     0
 10
0.0
 20
0.0
 30
0.0
  3
BLKF041
  1

  0
LINE
  5
229
330
225
100
AcDbEntity
  8
GR1-1
  6
細い実線
 62
     7
100
AcDbLine
 10
767.095961
 20
131.300363
 30
0.0
 11
747.095961
 21
131.300363
 31
0.0
  0
LINE
  5
22A
330
225
100
AcDbEntity
  8
GR1-1
  6
細い実線
 62
     7
100
AcDbLine
 10
755.845961
 20
127.860363
 30
0.0
 11
747.095961
 21
127.860363
 31
0.0
  0
LINE
  5
22B
330
225
100
AcDbEntity
  8
GR1-1
  6
細い実線
 62
     7
100
AcDbLine
 10
747.762627
 20
127.860363
 30
0.0
 11
747.762627
 21
131.300363
 31
0.0
  0
LINE
  5
22C
330
225
100
AcDbEntity
  8
GR1-1
  6
細い実線
 62
     7
100
AcDbLine
 10
748.10772
 20
130.012462
 30
0.0
 11
747.417535
 21
130.012462
 31
0.0
  0
LINE
  5
22D
330
225
100
AcDbEntity
  8
GR1-1
  6
細い実線
 62
     7
100
AcDbLine
 10
747.417535
 20
130.012462
 30
0.0
 11
747.762627
 21
131.300363
 31
0.0
  0
LINE
  5
22E
330
225
100
AcDbEntity
  8
GR1-1
  6
細い実線
 62
     7
100
AcDbLine
 10
747.762627
 20
131.300363
 30
0.0
 11
748.10772
 21
130.012462
 31
0.0
  0
LINE
  5
22F
330
225
100
AcDbEntity
  8
GR1-1
  6
細い実線
 62
     7
100
AcDbLine
 10
747.417535
 20
129.148264
 30
0.0
 11
748.10772
 21
129.148264
 31
0.0
  0
LINE
  5
230
330
225
100
AcDbEntity
  8
GR1-1
  6
細い実線
 62
     7
100
AcDbLine
 10
748.10772
 20
129.148264
 30
0.0
 11
747.762627
 21
127.860363
 31
0.0
  0
LINE
  5
231
330
225
100
AcDbEntity
  8
GR1-1
  6
細い実線
 62
     7
100
AcDbLine
 10
747.762627
 20
127.860363
 30
0.0
 11
747.417535
 21
129.148264
 31
0.0
  0
TEXT
  5
232
330
225
100
AcDbEntity
  8
GR1-1
  6
細い実線
 62
     7
100
AcDbText
 10
747.095898
 20
126.24703
 30
0.0
 40
2.0
  1
１０３．２
 50
90.0
 41
0.666667
  7
FX_VECTOR
 72
     5
 11
747.095898
 21
132.913696
 31
0.0
100
AcDbText
  0
ENDBLK
  5
227
330
225
100
AcDbEntity
  8
0
100
AcDbBlockEnd
  0
BLOCK
  5
260
330
25F
100
AcDbEntity
  8
0
100
AcDbBlockBegin
  2
BLKF042
 70
     0
 71
     0
 10
0.0
 20
0.0
 30
0.0
  3
BLKF042
  1

  0
LINE
  5
263
330
25F
100
AcDbEntity
  8
1-1
  6
細い実線
 62
     7
100
AcDbLine
 10
794.002242
 20
190.411263
 30
0.0
 11
794.002242
 21
200.411263
 31
0.0
  0
LINE
  5
264
330
25F
100
AcDbEntity
  8
1-1
  6
細い実線
 62
     7
100
AcDbLine
 10
835.668909
 20
190.411263
 30
0.0
 11
835.668909
 21
200.411263
 31
0.0
  0
LINE
  5
265
330
25F
100
AcDbEntity
  8
1-1
  6
細い実線
 62
     7
100
AcDbLine
 10
835.668909
 20
199.744596
 30
0.0
 11
794.002242
 21
199.744596
 31
0.0
  0
LINE
  5
266
330
25F
100
AcDbEntity
  8
1-1
  6
細い実線
 62
     7
100
AcDbLine
 10
795.290144
 20
200.089688
 30
0.0
 11
795.290144
 21
199.399504
 31
0.0
  0
LINE
  5
267
330
25F
100
AcDbEntity
  8
1-1
  6
細い実線
 62
     7
100
AcDbLine
 10
795.290144
 20
199.399504
 30
0.0
 11
794.002242
 21
199.744596
 31
0.0
  0
LINE
  5
268
330
25F
100
AcDbEntity
  8
1-1
  6
細い実線
 62
     7
100
AcDbLine
 10
794.002242
 20
199.744596
 30
0.0
 11
795.290144
 21
200.089688
 31
0.0
  0
LINE
  5
269
330
25F
100
AcDbEntity
  8
1-1
  6
細い実線
 62
     7
100
AcDbLine
 10
834.381008
 20
199.399504
 30
0.0
 11
834.381008
 21
200.089688
 31
0.0
  0
LINE
  5
26A
330
25F
100
AcDbEntity
  8
1-1
  6
細い実線
 62
     7
100
AcDbLine
 10
834.381008
 20
200.089688
 30
0.0
 11
835.668909
 21
199.744596
 31
0.0
  0
LINE
  5
26B
330
25F
100
AcDbEntity
  8
1-1
  6
細い実線
 62
     7
100
AcDbLine
 10
835.668909
 20
199.744596
 30
0.0
 11
834.381008
 21
199.399504
 31
0.0
  0
TEXT
  5
26C
330
25F
100
AcDbEntity
  8
1-1
  6
CONTINUOUS
 62
     7
100
AcDbText
 10
812.16888
 20
199.74458
 30
0.0
 40
2.0
  1
１２５０
 41
0.666667
  7
FX_VECTOR
 72
     5
 11
817.502214
 21
199.74458
 31
0.0
100
AcDbText
  0
ENDBLK
  5
261
330
25F
100
AcDbEntity
  8
0
100
AcDbBlockEnd
  0
BLOCK
  5
26E
330
26D
100
AcDbEntity
  8
0
100
AcDbBlockBegin
  2
BLKF043
 70
     0
 71
     0
 10
0.0
 20
0.0
 30
0.0
  3
BLKF043
  1

  0
LINE
  5
271
330
26D
100
AcDbEntity
  8
1-1
  6
細い実線
 62
     7
100
AcDbLine
 10
794.002242
 20
190.411263
 30
0.0
 11
794.002242
 21
197.077929
 31
0.0
  0
LINE
  5
272
330
26D
100
AcDbEntity
  8
1-1
  6
細い実線
 62
     7
100
AcDbLine
 10
804.585576
 20
190.411263
 30
0.0
 11
804.585576
 21
197.077929
 31
0.0
  0
LINE
  5
273
330
26D
100
AcDbEntity
  8
1-1
  6
細い実線
 62
     7
100
AcDbLine
 10
804.585576
 20
196.411263
 30
0.0
 11
794.002242
 21
196.411263
 31
0.0
  0
LINE
  5
274
330
26D
100
AcDbEntity
  8
1-1
  6
細い実線
 62
     7
100
AcDbLine
 10
795.290144
 20
196.756355
 30
0.0
 11
795.290144
 21
196.066171
 31
0.0
  0
LINE
  5
275
330
26D
100
AcDbEntity
  8
1-1
  6
細い実線
 62
     7
100
AcDbLine
 10
795.290144
 20
196.066171
 30
0.0
 11
794.002242
 21
196.411263
 31
0.0
  0
LINE
  5
276
330
26D
100
AcDbEntity
  8
1-1
  6
細い実線
 62
     7
100
AcDbLine
 10
794.002242
 20
196.411263
 30
0.0
 11
795.290144
 21
196.756355
 31
0.0
  0
LINE
  5
277
330
26D
100
AcDbEntity
  8
1-1
  6
細い実線
 62
     7
100
AcDbLine
 10
803.297675
 20
196.066171
 30
0.0
 11
803.297675
 21
196.756355
 31
0.0
  0
LINE
  5
278
330
26D
100
AcDbEntity
  8
1-1
  6
細い実線
 62
     7
100
AcDbLine
 10
803.297675
 20
196.756355
 30
0.0
 11
804.585576
 21
196.411263
 31
0.0
  0
LINE
  5
279
330
26D
100
AcDbEntity
  8
1-1
  6
細い実線
 62
     7
100
AcDbLine
 10
804.585576
 20
196.411263
 30
0.0
 11
803.297675
 21
196.066171
 31
0.0
  0
TEXT
  5
27A
330
26D
100
AcDbEntity
  8
1-1
  6
CONTINUOUS
 62
     7
100
AcDbText
 10
795.960547
 20
196.411247
 30
0.0
 40
2.0
  1
３１７．５
 41
0.666667
  7
FX_VECTOR
 72
     5
 11
802.627214
 21
196.411247
 31
0.0
100
AcDbText
  0
ENDBLK
  5
26F
330
26D
100
AcDbEntity
  8
0
100
AcDbBlockEnd
  0
BLOCK
  5
27C
330
27B
100
AcDbEntity
  8
0
100
AcDbBlockBegin
  2
BLKF044
 70
     0
 71
     0
 10
0.0
 20
0.0
 30
0.0
  3
BLKF044
  1

  0
LINE
  5
27F
330
27B
100
AcDbEntity
  8
1-1
  6
細い実線
 62
     7
100
AcDbLine
 10
808.252242
 20
190.411263
 30
0.0
 11
808.252242
 21
197.077929
 31
0.0
  0
LINE
  5
280
330
27B
100
AcDbEntity
  8
1-1
  6
細い実線
 62
     7
100
AcDbLine
 10
808.252242
 20
196.411263
 30
0.0
 11
804.585576
 21
196.411263
 31
0.0
  0
LINE
  5
281
330
27B
100
AcDbEntity
  8
1-1
  6
細い実線
 62
     7
100
AcDbLine
 10
805.873477
 20
196.756355
 30
0.0
 11
805.873477
 21
196.066171
 31
0.0
  0
LINE
  5
282
330
27B
100
AcDbEntity
  8
1-1
  6
細い実線
 62
     7
100
AcDbLine
 10
805.873477
 20
196.066171
 30
0.0
 11
804.585576
 21
196.411263
 31
0.0
  0
LINE
  5
283
330
27B
100
AcDbEntity
  8
1-1
  6
細い実線
 62
     7
100
AcDbLine
 10
804.585576
 20
196.411263
 30
0.0
 11
805.873477
 21
196.756355
 31
0.0
  0
LINE
  5
284
330
27B
100
AcDbEntity
  8
1-1
  6
細い実線
 62
     7
100
AcDbLine
 10
806.964341
 20
196.066171
 30
0.0
 11
806.964341
 21
196.756355
 31
0.0
  0
LINE
  5
285
330
27B
100
AcDbEntity
  8
1-1
  6
細い実線
 62
     7
100
AcDbLine
 10
806.964341
 20
196.756355
 30
0.0
 11
808.252242
 21
196.411263
 31
0.0
  0
LINE
  5
286
330
27B
100
AcDbEntity
  8
1-1
  6
細い実線
 62
     7
100
AcDbLine
 10
808.252242
 20
196.411263
 30
0.0
 11
806.964341
 21
196.066171
 31
0.0
  0
TEXT
  5
287
330
27B
100
AcDbEntity
  8
1-1
  6
CONTINUOUS
 62
     7
100
AcDbText
 10
804.41888
 20
197.077913
 30
0.0
 40
2.0
  1
１１０
 41
0.666667
  7
FX_VECTOR
 72
     5
 11
808.41888
 21
197.077913
 31
0.0
100
AcDbText
  0
ENDBLK
  5
27D
330
27B
100
AcDbEntity
  8
0
100
AcDbBlockEnd
  0
BLOCK
  5
289
330
288
100
AcDbEntity
  8
0
100
AcDbBlockBegin
  2
BLKF045
 70
     0
 71
     0
 10
0.0
 20
0.0
 30
0.0
  3
BLKF045
  1

  0
LINE
  5
28C
330
288
100
AcDbEntity
  8
1-1
  6
細い実線
 62
     7
100
AcDbLine
 10
821.418909
 20
190.411263
 30
0.0
 11
821.418909
 21
197.077929
 31
0.0
  0
LINE
  5
28D
330
288
100
AcDbEntity
  8
1-1
  6
細い実線
 62
     7
100
AcDbLine
 10
821.418909
 20
196.411263
 30
0.0
 11
808.252242
 21
196.411263
 31
0.0
  0
LINE
  5
28E
330
288
100
AcDbEntity
  8
1-1
  6
細い実線
 62
     7
100
AcDbLine
 10
809.540144
 20
196.756355
 30
0.0
 11
809.540144
 21
196.066171
 31
0.0
  0
LINE
  5
28F
330
288
100
AcDbEntity
  8
1-1
  6
細い実線
 62
     7
100
AcDbLine
 10
809.540144
 20
196.066171
 30
0.0
 11
808.252242
 21
196.411263
 31
0.0
  0
LINE
  5
290
330
288
100
AcDbEntity
  8
1-1
  6
細い実線
 62
     7
100
AcDbLine
 10
808.252242
 20
196.411263
 30
0.0
 11
809.540144
 21
196.756355
 31
0.0
  0
LINE
  5
291
330
288
100
AcDbEntity
  8
1-1
  6
細い実線
 62
     7
100
AcDbLine
 10
820.131008
 20
196.066171
 30
0.0
 11
820.131008
 21
196.756355
 31
0.0
  0
LINE
  5
292
330
288
100
AcDbEntity
  8
1-1
  6
細い実線
 62
     7
100
AcDbLine
 10
820.131008
 20
196.756355
 30
0.0
 11
821.418909
 21
196.411263
 31
0.0
  0
LINE
  5
293
330
288
100
AcDbEntity
  8
1-1
  6
細い実線
 62
     7
100
AcDbLine
 10
821.418909
 20
196.411263
 30
0.0
 11
820.131008
 21
196.066171
 31
0.0
  0
TEXT
  5
294
330
288
100
AcDbEntity
  8
1-1
  6
CONTINUOUS
 62
     7
100
AcDbText
 10
812.835547
 20
196.411247
 30
0.0
 40
2.0
  1
３９５
 41
0.666667
  7
FX_VECTOR
 72
     5
 11
816.835547
 21
196.411247
 31
0.0
100
AcDbText
  0
ENDBLK
  5
28A
330
288
100
AcDbEntity
  8
0
100
AcDbBlockEnd
  0
BLOCK
  5
296
330
295
100
AcDbEntity
  8
0
100
AcDbBlockBegin
  2
BLKF046
 70
     0
 71
     0
 10
0.0
 20
0.0
 30
0.0
  3
BLKF046
  1

  0
LINE
  5
299
330
295
100
AcDbEntity
  8
1-1
  6
細い実線
 62
     7
100
AcDbLine
 10
825.085576
 20
190.411263
 30
0.0
 11
825.085576
 21
197.077929
 31
0.0
  0
LINE
  5
29A
330
295
100
AcDbEntity
  8
1-1
  6
細い実線
 62
     7
100
AcDbLine
 10
825.085576
 20
196.411263
 30
0.0
 11
821.418909
 21
196.411263
 31
0.0
  0
LINE
  5
29B
330
295
100
AcDbEntity
  8
1-1
  6
細い実線
 62
     7
100
AcDbLine
 10
822.70681
 20
196.756355
 30
0.0
 11
822.70681
 21
196.066171
 31
0.0
  0
LINE
  5
29C
330
295
100
AcDbEntity
  8
1-1
  6
細い実線
 62
     7
100
AcDbLine
 10
822.70681
 20
196.066171
 30
0.0
 11
821.418909
 21
196.411263
 31
0.0
  0
LINE
  5
29D
330
295
100
AcDbEntity
  8
1-1
  6
細い実線
 62
     7
100
AcDbLine
 10
821.418909
 20
196.411263
 30
0.0
 11
822.70681
 21
196.756355
 31
0.0
  0
LINE
  5
29E
330
295
100
AcDbEntity
  8
1-1
  6
細い実線
 62
     7
100
AcDbLine
 10
823.797675
 20
196.066171
 30
0.0
 11
823.797675
 21
196.756355
 31
0.0
  0
LINE
  5
29F
330
295
100
AcDbEntity
  8
1-1
  6
細い実線
 62
     7
100
AcDbLine
 10
823.797675
 20
196.756355
 30
0.0
 11
825.085576
 21
196.411263
 31
0.0
  0
LINE
  5
2A0
330
295
100
AcDbEntity
  8
1-1
  6
細い実線
 62
     7
100
AcDbLine
 10
825.085576
 20
196.411263
 30
0.0
 11
823.797675
 21
196.066171
 31
0.0
  0
TEXT
  5
2A1
330
295
100
AcDbEntity
  8
1-1
  6
CONTINUOUS
 62
     7
100
AcDbText
 10
821.252214
 20
197.077913
 30
0.0
 40
2.0
  1
１１０
 41
0.666667
  7
FX_VECTOR
 72
     5
 11
825.252214
 21
197.077913
 31
0.0
100
AcDbText
  0
ENDBLK
  5
297
330
295
100
AcDbEntity
  8
0
100
AcDbBlockEnd
  0
BLOCK
  5
2A3
330
2A2
100
AcDbEntity
  8
0
100
AcDbBlockBegin
  2
BLKF047
 70
     0
 71
     0
 10
0.0
 20
0.0
 30
0.0
  3
BLKF047
  1

  0
LINE
  5
2A6
330
2A2
100
AcDbEntity
  8
1-1
  6
細い実線
 62
     7
100
AcDbLine
 10
835.668909
 20
190.411263
 30
0.0
 11
835.668909
 21
197.077929
 31
0.0
  0
LINE
  5
2A7
330
2A2
100
AcDbEntity
  8
1-1
  6
細い実線
 62
     7
100
AcDbLine
 10
835.668909
 20
196.411263
 30
0.0
 11
825.085576
 21
196.411263
 31
0.0
  0
LINE
  5
2A8
330
2A2
100
AcDbEntity
  8
1-1
  6
細い実線
 62
     7
100
AcDbLine
 10
826.373477
 20
196.756355
 30
0.0
 11
826.373477
 21
196.066171
 31
0.0
  0
LINE
  5
2A9
330
2A2
100
AcDbEntity
  8
1-1
  6
細い実線
 62
     7
100
AcDbLine
 10
826.373477
 20
196.066171
 30
0.0
 11
825.085576
 21
196.411263
 31
0.0
  0
LINE
  5
2AA
330
2A2
100
AcDbEntity
  8
1-1
  6
細い実線
 62
     7
100
AcDbLine
 10
825.085576
 20
196.411263
 30
0.0
 11
826.373477
 21
196.756355
 31
0.0
  0
LINE
  5
2AB
330
2A2
100
AcDbEntity
  8
1-1
  6
細い実線
 62
     7
100
AcDbLine
 10
834.381008
 20
196.066171
 30
0.0
 11
834.381008
 21
196.756355
 31
0.0
  0
LINE
  5
2AC
330
2A2
100
AcDbEntity
  8
1-1
  6
細い実線
 62
     7
100
AcDbLine
 10
834.381008
 20
196.756355
 30
0.0
 11
835.668909
 21
196.411263
 31
0.0
  0
LINE
  5
2AD
330
2A2
100
AcDbEntity
  8
1-1
  6
細い実線
 62
     7
100
AcDbLine
 10
835.668909
 20
196.411263
 30
0.0
 11
834.381008
 21
196.066171
 31
0.0
  0
TEXT
  5
2AE
330
2A2
100
AcDbEntity
  8
1-1
  6
CONTINUOUS
 62
     7
100
AcDbText
 10
827.04388
 20
196.411247
 30
0.0
 40
2.0
  1
３１７．５
 41
0.666667
  7
FX_VECTOR
 72
     5
 11
833.710547
 21
196.411247
 31
0.0
100
AcDbText
  0
ENDBLK
  5
2A4
330
2A2
100
AcDbEntity
  8
0
100
AcDbBlockEnd
  0
BLOCK
  5
2B0
330
2AF
100
AcDbEntity
  8
0
100
AcDbBlockBegin
  2
BLKF048
 70
     0
 71
     0
 10
0.0
 20
0.0
 30
0.0
  3
BLKF048
  1

  0
LINE
  5
2B3
330
2AF
100
AcDbEntity
  8
1-1
  6
細い実線
 62
     7
100
AcDbLine
 10
793.335576
 20
189.712596
 30
0.0
 11
786.668909
 21
189.712596
 31
0.0
  0
LINE
  5
2B4
330
2AF
100
AcDbEntity
  8
1-1
  6
細い実線
 62
     7
100
AcDbLine
 10
793.335576
 20
172.344085
 30
0.0
 11
786.668909
 21
172.344085
 31
0.0
  0
LINE
  5
2B5
330
2AF
100
AcDbEntity
  8
1-1
  6
細い実線
 62
     7
100
AcDbLine
 10
787.335576
 20
172.344085
 30
0.0
 11
787.335576
 21
189.712596
 31
0.0
  0
LINE
  5
2B6
330
2AF
100
AcDbEntity
  8
1-1
  6
細い実線
 62
     7
100
AcDbLine
 10
787.680668
 20
188.424695
 30
0.0
 11
786.990484
 21
188.424695
 31
0.0
  0
LINE
  5
2B7
330
2AF
100
AcDbEntity
  8
1-1
  6
細い実線
 62
     7
100
AcDbLine
 10
786.990484
 20
188.424695
 30
0.0
 11
787.335576
 21
189.712596
 31
0.0
  0
LINE
  5
2B8
330
2AF
100
AcDbEntity
  8
1-1
  6
細い実線
 62
     7
100
AcDbLine
 10
787.335576
 20
189.712596
 30
0.0
 11
787.680668
 21
188.424695
 31
0.0
  0
LINE
  5
2B9
330
2AF
100
AcDbEntity
  8
1-1
  6
細い実線
 62
     7
100
AcDbLine
 10
786.990484
 20
173.631986
 30
0.0
 11
787.680668
 21
173.631986
 31
0.0
  0
LINE
  5
2BA
330
2AF
100
AcDbEntity
  8
1-1
  6
細い実線
 62
     7
100
AcDbLine
 10
787.680668
 20
173.631986
 30
0.0
 11
787.335576
 21
172.344085
 31
0.0
  0
LINE
  5
2BB
330
2AF
100
AcDbEntity
  8
1-1
  6
細い実線
 62
     7
100
AcDbLine
 10
787.335576
 20
172.344085
 30
0.0
 11
786.990484
 21
173.631986
 31
0.0
  0
TEXT
  5
2BC
330
2AF
100
AcDbEntity
  8
1-1
  6
CONTINUOUS
 62
     7
100
AcDbText
 10
787.335547
 20
177.695003
 30
0.0
 40
2.0
  1
５２１．１
 50
90.0
 41
0.666667
  7
FX_VECTOR
 72
     5
 11
787.335547
 21
184.36167
 31
0.0
100
AcDbText
  0
ENDBLK
  5
2B1
330
2AF
100
AcDbEntity
  8
0
100
AcDbBlockEnd
  0
BLOCK
  5
2BE
330
2BD
100
AcDbEntity
  8
0
100
AcDbBlockBegin
  2
BLKF049
 70
     0
 71
     0
 10
0.0
 20
0.0
 30
0.0
  3
BLKF049
  1

  0
LINE
  5
2C1
330
2BD
100
AcDbEntity
  8
1-1
  6
細い実線
 62
     7
100
AcDbLine
 10
793.335576
 20
168.512085
 30
0.0
 11
786.668909
 21
168.512085
 31
0.0
  0
LINE
  5
2C2
330
2BD
100
AcDbEntity
  8
1-1
  6
細い実線
 62
     7
100
AcDbLine
 10
787.335576
 20
168.512085
 30
0.0
 11
787.335576
 21
172.344085
 31
0.0
  0
LINE
  5
2C3
330
2BD
100
AcDbEntity
  8
1-1
  6
細い実線
 62
     7
100
AcDbLine
 10
787.680668
 20
171.056184
 30
0.0
 11
786.990484
 21
171.056184
 31
0.0
  0
LINE
  5
2C4
330
2BD
100
AcDbEntity
  8
1-1
  6
細い実線
 62
     7
100
AcDbLine
 10
786.990484
 20
171.056184
 30
0.0
 11
787.335576
 21
172.344085
 31
0.0
  0
LINE
  5
2C5
330
2BD
100
AcDbEntity
  8
1-1
  6
細い実線
 62
     7
100
AcDbLine
 10
787.335576
 20
172.344085
 30
0.0
 11
787.680668
 21
171.056184
 31
0.0
  0
LINE
  5
2C6
330
2BD
100
AcDbEntity
  8
1-1
  6
細い実線
 62
     7
100
AcDbLine
 10
786.990484
 20
169.799986
 30
0.0
 11
787.680668
 21
169.799986
 31
0.0
  0
LINE
  5
2C7
330
2BD
100
AcDbEntity
  8
1-1
  6
細い実線
 62
     7
100
AcDbLine
 10
787.680668
 20
169.799986
 30
0.0
 11
787.335576
 21
168.512085
 31
0.0
  0
LINE
  5
2C8
330
2BD
100
AcDbEntity
  8
1-1
  6
細い実線
 62
     7
100
AcDbLine
 10
787.335576
 20
168.512085
 30
0.0
 11
786.990484
 21
169.799986
 31
0.0
  0
TEXT
  5
2C9
330
2BD
100
AcDbEntity
  8
1-1
  6
CONTINUOUS
 62
     7
100
AcDbText
 10
786.66888
 20
168.428076
 30
0.0
 40
2.0
  1
１１５
 50
90.0
 41
0.666667
  7
FX_VECTOR
 72
     5
 11
786.66888
 21
172.428076
 31
0.0
100
AcDbText
  0
ENDBLK
  5
2BF
330
2BD
100
AcDbEntity
  8
0
100
AcDbBlockEnd
  0
BLOCK
  5
2CB
330
2CA
100
AcDbEntity
  8
0
100
AcDbBlockBegin
  2
BLKF050
 70
     0
 71
     0
 10
0.0
 20
0.0
 30
0.0
  3
BLKF050
  1

  0
LINE
  5
2CE
330
2CA
100
AcDbEntity
  8
1-1
  6
細い実線
 62
     7
100
AcDbLine
 10
793.335576
 20
189.712596
 30
0.0
 11
790.002242
 21
189.712596
 31
0.0
  0
LINE
  5
2CF
330
2CA
100
AcDbEntity
  8
1-1
  6
細い実線
 62
     7
100
AcDbLine
 10
793.335576
 20
188.14655
 30
0.0
 11
790.002242
 21
188.14655
 31
0.0
  0
LINE
  5
2D0
330
2CA
100
AcDbEntity
  8
1-1
  6
細い実線
 62
     7
100
AcDbLine
 10
790.668909
 20
186.14655
 30
0.0
 11
790.668909
 21
191.712596
 31
0.0
  0
LINE
  5
2D1
330
2CA
100
AcDbEntity
  8
1-1
  6
細い実線
 62
     7
100
AcDbLine
 10
790.323817
 20
191.000497
 30
0.0
 11
791.014001
 21
191.000497
 31
0.0
  0
LINE
  5
2D2
330
2CA
100
AcDbEntity
  8
1-1
  6
細い実線
 62
     7
100
AcDbLine
 10
791.014001
 20
191.000497
 30
0.0
 11
790.668909
 21
189.712596
 31
0.0
  0
LINE
  5
2D3
330
2CA
100
AcDbEntity
  8
1-1
  6
細い実線
 62
     7
100
AcDbLine
 10
790.668909
 20
189.712596
 30
0.0
 11
790.323817
 21
191.000497
 31
0.0
  0
LINE
  5
2D4
330
2CA
100
AcDbEntity
  8
1-1
  6
細い実線
 62
     7
100
AcDbLine
 10
791.014001
 20
186.858649
 30
0.0
 11
790.323817
 21
186.858649
 31
0.0
  0
LINE
  5
2D5
330
2CA
100
AcDbEntity
  8
1-1
  6
細い実線
 62
     7
100
AcDbLine
 10
790.323817
 20
186.858649
 30
0.0
 11
790.668909
 21
188.14655
 31
0.0
  0
LINE
  5
2D6
330
2CA
100
AcDbEntity
  8
1-1
  6
細い実線
 62
     7
100
AcDbLine
 10
790.668909
 20
188.14655
 30
0.0
 11
791.014001
 21
186.858649
 31
0.0
  0
TEXT
  5
2D7
330
2CA
100
AcDbEntity
  8
1-1
  6
CONTINUOUS
 62
     7
100
AcDbText
 10
790.076888
 20
189.984847
 30
0.0
 40
2.0
  1
４７
 50
90.0
 41
0.666667
  7
FX_VECTOR
 72
     5
 11
790.076888
 21
192.651514
 31
0.0
100
AcDbText
  0
ENDBLK
  5
2CC
330
2CA
100
AcDbEntity
  8
0
100
AcDbBlockEnd
  0
BLOCK
  5
2D9
330
2D8
100
AcDbEntity
  8
0
100
AcDbBlockBegin
  2
BLKF051
 70
     0
 71
     0
 10
0.0
 20
0.0
 30
0.0
  3
BLKF051
  1

  0
LINE
  5
2DC
330
2D8
100
AcDbEntity
  8
1-1
  6
細い実線
 62
     7
100
AcDbLine
 10
793.335576
 20
173.910131
 30
0.0
 11
790.002242
 21
173.910131
 31
0.0
  0
LINE
  5
2DD
330
2D8
100
AcDbEntity
  8
1-1
  6
細い実線
 62
     7
100
AcDbLine
 10
790.668909
 20
173.910131
 30
0.0
 11
790.668909
 21
188.14655
 31
0.0
  0
LINE
  5
2DE
330
2D8
100
AcDbEntity
  8
1-1
  6
細い実線
 62
     7
100
AcDbLine
 10
791.014001
 20
186.858649
 30
0.0
 11
790.323817
 21
186.858649
 31
0.0
  0
LINE
  5
2DF
330
2D8
100
AcDbEntity
  8
1-1
  6
細い実線
 62
     7
100
AcDbLine
 10
790.323817
 20
186.858649
 30
0.0
 11
790.668909
 21
188.14655
 31
0.0
  0
LINE
  5
2E0
330
2D8
100
AcDbEntity
  8
1-1
  6
細い実線
 62
     7
100
AcDbLine
 10
790.668909
 20
188.14655
 30
0.0
 11
791.014001
 21
186.858649
 31
0.0
  0
LINE
  5
2E1
330
2D8
100
AcDbEntity
  8
1-1
  6
細い実線
 62
     7
100
AcDbLine
 10
790.323817
 20
175.198032
 30
0.0
 11
791.014001
 21
175.198032
 31
0.0
  0
LINE
  5
2E2
330
2D8
100
AcDbEntity
  8
1-1
  6
細い実線
 62
     7
100
AcDbLine
 10
791.014001
 20
175.198032
 30
0.0
 11
790.668909
 21
173.910131
 31
0.0
  0
LINE
  5
2E3
330
2D8
100
AcDbEntity
  8
1-1
  6
細い実線
 62
     7
100
AcDbLine
 10
790.668909
 20
173.910131
 30
0.0
 11
790.323817
 21
175.198032
 31
0.0
  0
TEXT
  5
2E4
330
2D8
100
AcDbEntity
  8
1-1
  6
CONTINUOUS
 62
     7
100
AcDbText
 10
790.66888
 20
177.695003
 30
0.0
 40
2.0
  1
４２７．１
 50
90.0
 41
0.666667
  7
FX_VECTOR
 72
     5
 11
790.66888
 21
184.36167
 31
0.0
100
AcDbText
  0
ENDBLK
  5
2DA
330
2D8
100
AcDbEntity
  8
0
100
AcDbBlockEnd
  0
BLOCK
  5
2E6
330
2E5
100
AcDbEntity
  8
0
100
AcDbBlockBegin
  2
BLKF052
 70
     0
 71
     0
 10
0.0
 20
0.0
 30
0.0
  3
BLKF052
  1

  0
LINE
  5
2E9
330
2E5
100
AcDbEntity
  8
1-1
  6
細い実線
 62
     7
100
AcDbLine
 10
793.335576
 20
172.344085
 30
0.0
 11
790.002242
 21
172.344085
 31
0.0
  0
LINE
  5
2EA
330
2E5
100
AcDbEntity
  8
1-1
  6
細い実線
 62
     7
100
AcDbLine
 10
790.668909
 20
170.344085
 30
0.0
 11
790.668909
 21
175.910131
 31
0.0
  0
LINE
  5
2EB
330
2E5
100
AcDbEntity
  8
1-1
  6
細い実線
 62
     7
100
AcDbLine
 10
790.323817
 20
175.198032
 30
0.0
 11
791.014001
 21
175.198032
 31
0.0
  0
LINE
  5
2EC
330
2E5
100
AcDbEntity
  8
1-1
  6
細い実線
 62
     7
100
AcDbLine
 10
791.014001
 20
175.198032
 30
0.0
 11
790.668909
 21
173.910131
 31
0.0
  0
LINE
  5
2ED
330
2E5
100
AcDbEntity
  8
1-1
  6
細い実線
 62
     7
100
AcDbLine
 10
790.668909
 20
173.910131
 30
0.0
 11
790.323817
 21
175.198032
 31
0.0
  0
LINE
  5
2EE
330
2E5
100
AcDbEntity
  8
1-1
  6
細い実線
 62
     7
100
AcDbLine
 10
791.014001
 20
171.056184
 30
0.0
 11
790.323817
 21
171.056184
 31
0.0
  0
LINE
  5
2EF
330
2E5
100
AcDbEntity
  8
1-1
  6
細い実線
 62
     7
100
AcDbLine
 10
790.323817
 20
171.056184
 30
0.0
 11
790.668909
 21
172.344085
 31
0.0
  0
LINE
  5
2F0
330
2E5
100
AcDbEntity
  8
1-1
  6
細い実線
 62
     7
100
AcDbLine
 10
790.668909
 20
172.344085
 30
0.0
 11
791.014001
 21
171.056184
 31
0.0
  0
TEXT
  5
2F1
330
2E5
100
AcDbEntity
  8
1-1
  6
CONTINUOUS
 62
     7
100
AcDbText
 10
790.375456
 20
169.554443
 30
0.0
 40
2.0
  1
４７
 50
90.0
 41
0.666667
  7
FX_VECTOR
 72
     5
 11
790.375456
 21
172.22111
 31
0.0
100
AcDbText
  0
ENDBLK
  5
2E7
330
2E5
100
AcDbEntity
  8
0
100
AcDbBlockEnd
  0
BLOCK
  5
318
330
317
100
AcDbEntity
  8
0
100
AcDbBlockBegin
  2
BLKF053
 70
     0
 71
     0
 10
0.0
 20
0.0
 30
0.0
  3
BLKF053
  1

  0
LINE
  5
31B
330
317
100
AcDbEntity
  8
1-1
  6
細い実線
 62
     7
100
AcDbLine
 10
810.464352
 20
193.900734
 30
0.0
 11
810.464352
 21
193.21055
 31
0.0
  0
LINE
  5
31C
330
317
100
AcDbEntity
  8
1-1
  6
細い実線
 62
     7
100
AcDbLine
 10
810.464352
 20
193.21055
 30
0.0
 11
809.176451
 21
193.555642
 31
0.0
  0
LINE
  5
31D
330
317
100
AcDbEntity
  8
1-1
  6
細い実線
 62
     7
100
AcDbLine
 10
809.176451
 20
193.555642
 30
0.0
 11
810.464352
 21
193.900734
 31
0.0
  0
LINE
  5
31E
330
317
100
AcDbEntity
  8
1-1
  6
細い実線
 62
     7
100
AcDbLine
 10
809.176451
 20
193.555642
 30
0.0
 11
814.835576
 21
193.555642
 31
0.0
  0
LINE
  5
31F
330
317
100
AcDbEntity
  8
1-1
  6
細い実線
 62
     7
100
AcDbLine
 10
814.835576
 20
193.555642
 30
0.0
 11
814.835576
 21
191.078273
 31
0.0
  0
ENDBLK
  5
319
330
317
100
AcDbEntity
  8
0
100
AcDbBlockEnd
  0
BLOCK
  5
322
330
321
100
AcDbEntity
  8
0
100
AcDbBlockBegin
  2
BLKF054
 70
     0
 71
     0
 10
0.0
 20
0.0
 30
0.0
  3
BLKF054
  1

  0
LINE
  5
325
330
321
100
AcDbEntity
  8
1-1
  6
細い実線
 62
     7
100
AcDbLine
 10
810.464352
 20
162.910505
 30
0.0
 11
810.464352
 21
162.220321
 31
0.0
  0
LINE
  5
326
330
321
100
AcDbEntity
  8
1-1
  6
細い実線
 62
     7
100
AcDbLine
 10
810.464352
 20
162.220321
 30
0.0
 11
809.176451
 21
162.565413
 31
0.0
  0
LINE
  5
327
330
321
100
AcDbEntity
  8
1-1
  6
細い実線
 62
     7
100
AcDbLine
 10
809.176451
 20
162.565413
 30
0.0
 11
810.464352
 21
162.910505
 31
0.0
  0
LINE
  5
328
330
321
100
AcDbEntity
  8
1-1
  6
細い実線
 62
     7
100
AcDbLine
 10
809.176451
 20
162.565413
 30
0.0
 11
814.835576
 21
162.565413
 31
0.0
  0
LINE
  5
329
330
321
100
AcDbEntity
  8
1-1
  6
細い実線
 62
     7
100
AcDbLine
 10
814.835576
 20
162.565413
 30
0.0
 11
814.835576
 21
166.884071
 31
0.0
  0
ENDBLK
  5
323
330
321
100
AcDbEntity
  8
0
100
AcDbBlockEnd
  0
BLOCK
  5
337
330
336
100
AcDbEntity
  8
0
100
AcDbBlockBegin
  2
BLKF055
 70
     0
 71
     0
 10
0.0
 20
0.0
 30
0.0
  3
BLKF055
  1

  0
LINE
  5
33A
330
336
100
AcDbEntity
  8
1-1
  6
細い実線
 62
     7
100
AcDbLine
 10
828.771906
 20
128.52703
 30
0.0
 11
828.771906
 21
143.52703
 31
0.0
  0
LINE
  5
33B
330
336
100
AcDbEntity
  8
1-1
  6
細い実線
 62
     7
100
AcDbLine
 10
846.140417
 20
128.52703
 30
0.0
 11
846.140417
 21
143.52703
 31
0.0
  0
LINE
  5
33C
330
336
100
AcDbEntity
  8
1-1
  6
細い実線
 62
     7
100
AcDbLine
 10
846.140417
 20
142.860363
 30
0.0
 11
828.771906
 21
142.860363
 31
0.0
  0
LINE
  5
33D
330
336
100
AcDbEntity
  8
1-1
  6
細い実線
 62
     7
100
AcDbLine
 10
830.059807
 20
143.205455
 30
0.0
 11
830.059807
 21
142.515271
 31
0.0
  0
LINE
  5
33E
330
336
100
AcDbEntity
  8
1-1
  6
細い実線
 62
     7
100
AcDbLine
 10
830.059807
 20
142.515271
 30
0.0
 11
828.771906
 21
142.860363
 31
0.0
  0
LINE
  5
33F
330
336
100
AcDbEntity
  8
1-1
  6
細い実線
 62
     7
100
AcDbLine
 10
828.771906
 20
142.860363
 30
0.0
 11
830.059807
 21
143.205455
 31
0.0
  0
LINE
  5
340
330
336
100
AcDbEntity
  8
1-1
  6
細い実線
 62
     7
100
AcDbLine
 10
844.852516
 20
142.515271
 30
0.0
 11
844.852516
 21
143.205455
 31
0.0
  0
LINE
  5
341
330
336
100
AcDbEntity
  8
1-1
  6
細い実線
 62
     7
100
AcDbLine
 10
844.852516
 20
143.205455
 30
0.0
 11
846.140417
 21
142.860363
 31
0.0
  0
LINE
  5
342
330
336
100
AcDbEntity
  8
1-1
  6
細い実線
 62
     7
100
AcDbLine
 10
846.140417
 20
142.860363
 30
0.0
 11
844.852516
 21
142.515271
 31
0.0
  0
TEXT
  5
343
330
336
100
AcDbEntity
  8
1-1
  6
CONTINUOUS
 62
     7
100
AcDbText
 10
834.122786
 20
142.860368
 30
0.0
 40
2.0
  1
５２１．１
 41
0.666667
  7
FX_VECTOR
 72
     5
 11
840.789453
 21
142.860368
 31
0.0
100
AcDbText
  0
ENDBLK
  5
338
330
336
100
AcDbEntity
  8
0
100
AcDbBlockEnd
  0
BLOCK
  5
345
330
344
100
AcDbEntity
  8
0
100
AcDbBlockBegin
  2
BLKF056
 70
     0
 71
     0
 10
0.0
 20
0.0
 30
0.0
  3
BLKF056
  1

  0
LINE
  5
348
330
344
100
AcDbEntity
  8
1-1
  6
細い実線
 62
     7
100
AcDbLine
 10
824.748341
 20
114.555145
 30
0.0
 11
821.874862
 21
104.976883
 31
0.0
  0
LINE
  5
349
330
344
100
AcDbEntity
  8
1-1
  6
細い実線
 62
     7
100
AcDbLine
 10
826.983269
 20
113.884667
 30
0.0
 11
824.10979
 21
104.306404
 31
0.0
  0
LINE
  5
34A
330
344
100
AcDbEntity
  8
1-1
  6
細い実線
 62
     7
100
AcDbLine
 10
826.217008
 20
104.370259
 30
0.0
 11
820.150775
 21
106.190129
 31
0.0
  0
LINE
  5
34B
330
344
100
AcDbEntity
  8
1-1
  6
細い実線
 62
     7
100
AcDbLine
 10
820.73368
 20
105.654971
 30
0.0
 11
820.932003
 21
106.316047
 31
0.0
  0
LINE
  5
34C
330
344
100
AcDbEntity
  8
1-1
  6
細い実線
 62
     7
100
AcDbLine
 10
820.932003
 20
106.316047
 30
0.0
 11
822.066427
 21
105.615433
 31
0.0
  0
LINE
  5
34D
330
344
100
AcDbEntity
  8
1-1
  6
細い実線
 62
     7
100
AcDbLine
 10
822.066427
 20
105.615433
 30
0.0
 11
820.73368
 21
105.654971
 31
0.0
  0
LINE
  5
34E
330
344
100
AcDbEntity
  8
1-1
  6
細い実線
 62
     7
100
AcDbLine
 10
825.634102
 20
104.905418
 30
0.0
 11
825.435779
 21
104.244341
 31
0.0
  0
LINE
  5
34F
330
344
100
AcDbEntity
  8
1-1
  6
細い実線
 62
     7
100
AcDbLine
 10
825.435779
 20
104.244341
 30
0.0
 11
824.301355
 21
104.944955
 31
0.0
  0
LINE
  5
350
330
344
100
AcDbEntity
  8
1-1
  6
細い実線
 62
     7
100
AcDbLine
 10
824.301355
 20
104.944955
 30
0.0
 11
825.634102
 21
104.905418
 31
0.0
  0
TEXT
  5
351
330
344
100
AcDbEntity
  8
1-1
  6
CONTINUOUS
 62
     7
100
AcDbText
 10
821.140495
 20
103.109106
 30
0.0
 40
2.0
  1
７０
 50
343.300751
 41
0.666667
  7
FX_VECTOR
 72
     5
 11
823.694698
 21
102.342845
 31
0.0
100
AcDbText
  0
ENDBLK
  5
346
330
344
100
AcDbEntity
  8
0
100
AcDbBlockEnd
  0
BLOCK
  5
353
330
352
100
AcDbEntity
  8
0
100
AcDbBlockBegin
  2
BLKF057
 70
     0
 71
     0
 10
0.0
 20
0.0
 30
0.0
  3
BLKF057
  1

  0
LINE
  5
356
330
352
100
AcDbEntity
  8
1-1
  6
細い実線
 62
     7
100
AcDbLine
 10
838.477184
 20
110.436492
 30
0.0
 11
835.603705
 21
100.858229
 31
0.0
  0
LINE
  5
357
330
352
100
AcDbEntity
  8
1-1
  6
細い実線
 62
     7
100
AcDbLine
 10
835.795271
 20
101.49678
 30
0.0
 11
824.301355
 21
104.944955
 31
0.0
  0
LINE
  5
358
330
352
100
AcDbEntity
  8
1-1
  6
細い実線
 62
     7
100
AcDbLine
 10
825.634102
 20
104.905418
 30
0.0
 11
825.435779
 21
104.244341
 31
0.0
  0
LINE
  5
359
330
352
100
AcDbEntity
  8
1-1
  6
細い実線
 62
     7
100
AcDbLine
 10
825.435779
 20
104.244341
 30
0.0
 11
824.301355
 21
104.944955
 31
0.0
  0
LINE
  5
35A
330
352
100
AcDbEntity
  8
1-1
  6
細い実線
 62
     7
100
AcDbLine
 10
824.301355
 20
104.944955
 30
0.0
 11
825.634102
 21
104.905418
 31
0.0
  0
LINE
  5
35B
330
352
100
AcDbEntity
  8
1-1
  6
細い実線
 62
     7
100
AcDbLine
 10
834.462524
 20
101.536318
 30
0.0
 11
834.660847
 21
102.197394
 31
0.0
  0
LINE
  5
35C
330
352
100
AcDbEntity
  8
1-1
  6
細い実線
 62
     7
100
AcDbLine
 10
834.660847
 20
102.197394
 30
0.0
 11
835.795271
 21
101.49678
 31
0.0
  0
LINE
  5
35D
330
352
100
AcDbEntity
  8
1-1
  6
細い実線
 62
     7
100
AcDbLine
 10
835.795271
 20
101.49678
 30
0.0
 11
834.462524
 21
101.536318
 31
0.0
  0
TEXT
  5
35E
330
352
100
AcDbEntity
  8
1-1
  6
CONTINUOUS
 62
     7
100
AcDbText
 10
828.132617
 20
103.795565
 30
0.0
 40
2.0
  1
３６０
 50
343.300751
 41
0.666667
  7
FX_VECTOR
 72
     5
 11
831.963922
 21
102.646173
 31
0.0
100
AcDbText
  0
ENDBLK
  5
354
330
352
100
AcDbEntity
  8
0
100
AcDbBlockEnd
  0
BLOCK
  5
360
330
35F
100
AcDbEntity
  8
0
100
AcDbBlockBegin
  2
BLKF058
 70
     0
 71
     0
 10
0.0
 20
0.0
 30
0.0
  3
BLKF058
  1

  0
LINE
  5
363
330
35F
100
AcDbEntity
  8
1-1
  6
細い実線
 62
     7
100
AcDbLine
 10
840.712112
 20
109.766014
 30
0.0
 11
837.838633
 21
100.187751
 31
0.0
  0
LINE
  5
364
330
35F
100
AcDbEntity
  8
1-1
  6
細い実線
 62
     7
100
AcDbLine
 10
839.945851
 20
100.251606
 30
0.0
 11
833.879618
 21
102.071476
 31
0.0
  0
LINE
  5
365
330
35F
100
AcDbEntity
  8
1-1
  6
細い実線
 62
     7
100
AcDbLine
 10
834.462524
 20
101.536318
 30
0.0
 11
834.660847
 21
102.197394
 31
0.0
  0
LINE
  5
366
330
35F
100
AcDbEntity
  8
1-1
  6
細い実線
 62
     7
100
AcDbLine
 10
834.660847
 20
102.197394
 30
0.0
 11
835.795271
 21
101.49678
 31
0.0
  0
LINE
  5
367
330
35F
100
AcDbEntity
  8
1-1
  6
細い実線
 62
     7
100
AcDbLine
 10
835.795271
 20
101.49678
 30
0.0
 11
834.462524
 21
101.536318
 31
0.0
  0
LINE
  5
368
330
35F
100
AcDbEntity
  8
1-1
  6
細い実線
 62
     7
100
AcDbLine
 10
839.362946
 20
100.786765
 30
0.0
 11
839.164623
 21
100.125688
 31
0.0
  0
LINE
  5
369
330
35F
100
AcDbEntity
  8
1-1
  6
細い実線
 62
     7
100
AcDbLine
 10
839.164623
 20
100.125688
 30
0.0
 11
838.030199
 21
100.826302
 31
0.0
  0
LINE
  5
36A
330
35F
100
AcDbEntity
  8
1-1
  6
細い実線
 62
     7
100
AcDbLine
 10
838.030199
 20
100.826302
 30
0.0
 11
839.362946
 21
100.786765
 31
0.0
  0
TEXT
  5
36B
330
35F
100
AcDbEntity
  8
1-1
  6
CONTINUOUS
 62
     7
100
AcDbText
 10
834.869336
 20
98.990454
 30
0.0
 40
2.0
  1
７０
 50
343.300751
 41
0.666667
  7
FX_VECTOR
 72
     5
 11
837.423539
 21
98.224193
 31
0.0
100
AcDbText
  0
ENDBLK
  5
361
330
35F
100
AcDbEntity
  8
0
100
AcDbBlockEnd
  0
BLOCK
  5
36D
330
36C
100
AcDbEntity
  8
0
100
AcDbBlockBegin
  2
BLKF059
 70
     0
 71
     0
 10
0.0
 20
0.0
 30
0.0
  3
BLKF059
  1

  0
LINE
  5
370
330
36C
100
AcDbEntity
  8
1-1
  6
細い実線
 62
     7
100
AcDbLine
 10
824.748341
 20
114.555145
 30
0.0
 11
820.917036
 21
101.784128
 31
0.0
  0
LINE
  5
371
330
36C
100
AcDbEntity
  8
1-1
  6
細い実線
 62
     7
100
AcDbLine
 10
840.712112
 20
109.766014
 30
0.0
 11
836.880807
 21
96.994997
 31
0.0
  0
LINE
  5
372
330
36C
100
AcDbEntity
  8
1-1
  6
細い実線
 62
     7
100
AcDbLine
 10
837.072372
 20
97.633548
 30
0.0
 11
821.108601
 21
102.422679
 31
0.0
  0
LINE
  5
373
330
36C
100
AcDbEntity
  8
1-1
  6
細い実線
 62
     7
100
AcDbLine
 10
822.441348
 20
102.383142
 30
0.0
 11
822.243025
 21
101.722065
 31
0.0
  0
LINE
  5
374
330
36C
100
AcDbEntity
  8
1-1
  6
細い実線
 62
     7
100
AcDbLine
 10
822.243025
 20
101.722065
 30
0.0
 11
821.108601
 21
102.422679
 31
0.0
  0
LINE
  5
375
330
36C
100
AcDbEntity
  8
1-1
  6
細い実線
 62
     7
100
AcDbLine
 10
821.108601
 20
102.422679
 30
0.0
 11
822.441348
 21
102.383142
 31
0.0
  0
LINE
  5
376
330
36C
100
AcDbEntity
  8
1-1
  6
細い実線
 62
     7
100
AcDbLine
 10
835.739625
 20
97.673085
 30
0.0
 11
835.937948
 21
98.334162
 31
0.0
  0
LINE
  5
377
330
36C
100
AcDbEntity
  8
1-1
  6
細い実線
 62
     7
100
AcDbLine
 10
835.937948
 20
98.334162
 30
0.0
 11
837.072372
 21
97.633548
 31
0.0
  0
LINE
  5
378
330
36C
100
AcDbEntity
  8
1-1
  6
細い実線
 62
     7
100
AcDbLine
 10
837.072372
 20
97.633548
 30
0.0
 11
835.739625
 21
97.673085
 31
0.0
  0
TEXT
  5
379
330
36C
100
AcDbEntity
  8
1-1
  6
CONTINUOUS
 62
     7
100
AcDbText
 10
827.174805
 20
100.602791
 30
0.0
 40
2.0
  1
５００
 50
343.300751
 41
0.666667
  7
FX_VECTOR
 72
     5
 11
831.00611
 21
99.453399
 31
0.0
100
AcDbText
  0
ENDBLK
  5
36E
330
36C
100
AcDbEntity
  8
0
100
AcDbBlockEnd
  0
BLOCK
  5
37B
330
37A
100
AcDbEntity
  8
0
100
AcDbBlockBegin
  2
BLKF060
 70
     0
 71
     0
 10
0.0
 20
0.0
 30
0.0
  3
BLKF060
  1

  0
LINE
  5
37E
330
37A
100
AcDbEntity
  8
1-1
  6
細い実線
 62
     7
100
AcDbLine
 10
842.978968
 20
115.002131
 30
0.0
 11
849.364476
 21
113.086478
 31
0.0
  0
LINE
  5
37F
330
37A
100
AcDbEntity
  8
1-1
  6
細い実線
 62
     7
100
AcDbLine
 10
843.397538
 20
116.397365
 30
0.0
 11
849.783046
 21
114.481712
 31
0.0
  0
LINE
  5
380
330
37A
100
AcDbEntity
  8
1-1
  6
細い実線
 62
     7
100
AcDbLine
 10
849.719191
 20
116.58893
 30
0.0
 11
848.15123
 21
111.362391
 31
0.0
  0
LINE
  5
381
330
37A
100
AcDbEntity
  8
1-1
  6
細い実線
 62
     7
100
AcDbLine
 10
848.686388
 20
111.945297
 30
0.0
 11
848.025312
 21
112.14362
 31
0.0
  0
LINE
  5
382
330
37A
100
AcDbEntity
  8
1-1
  6
細い実線
 62
     7
100
AcDbLine
 10
848.025312
 20
112.14362
 30
0.0
 11
848.725925
 21
113.278044
 31
0.0
  0
LINE
  5
383
330
37A
100
AcDbEntity
  8
1-1
  6
細い実線
 62
     7
100
AcDbLine
 10
848.725925
 20
113.278044
 30
0.0
 11
848.686388
 21
111.945297
 31
0.0
  0
LINE
  5
384
330
37A
100
AcDbEntity
  8
1-1
  6
細い実線
 62
     7
100
AcDbLine
 10
849.184033
 20
116.006024
 30
0.0
 11
849.845109
 21
115.807701
 31
0.0
  0
LINE
  5
385
330
37A
100
AcDbEntity
  8
1-1
  6
細い実線
 62
     7
100
AcDbLine
 10
849.845109
 20
115.807701
 30
0.0
 11
849.144495
 21
114.673277
 31
0.0
  0
LINE
  5
386
330
37A
100
AcDbEntity
  8
1-1
  6
細い実線
 62
     7
100
AcDbLine
 10
849.144495
 20
114.673277
 30
0.0
 11
849.184033
 21
116.006024
 31
0.0
  0
TEXT
  5
387
330
37A
100
AcDbEntity
  8
1-1
  6
CONTINUOUS
 62
     7
100
AcDbText
 10
850.643294
 20
109.297453
 30
0.0
 40
2.0
  1
４３．７
 50
73.300758
 41
0.666667
  7
FX_VECTOR
 72
     5
 11
852.175816
 21
114.40586
 31
0.0
100
AcDbText
  0
ENDBLK
  5
37C
330
37A
100
AcDbEntity
  8
0
100
AcDbBlockEnd
  0
BLOCK
  5
389
330
388
100
AcDbEntity
  8
0
100
AcDbBlockBegin
  2
BLKF061
 70
     0
 71
     0
 10
0.0
 20
0.0
 30
0.0
  3
BLKF061
  1

  0
LINE
  5
38C
330
388
100
AcDbEntity
  8
1-1
  6
細い実線
 62
     7
100
AcDbLine
 10
844.834277
 20
121.186496
 30
0.0
 11
851.219786
 21
119.270843
 31
0.0
  0
LINE
  5
38D
330
388
100
AcDbEntity
  8
1-1
  6
細い実線
 62
     7
100
AcDbLine
 10
850.581235
 20
119.462409
 30
0.0
 11
849.144495
 21
114.673277
 31
0.0
  0
LINE
  5
38E
330
388
100
AcDbEntity
  8
1-1
  6
細い実線
 62
     7
100
AcDbLine
 10
849.184033
 20
116.006024
 30
0.0
 11
849.845109
 21
115.807701
 31
0.0
  0
LINE
  5
38F
330
388
100
AcDbEntity
  8
1-1
  6
細い実線
 62
     7
100
AcDbLine
 10
849.845109
 20
115.807701
 30
0.0
 11
849.144495
 21
114.673277
 31
0.0
  0
LINE
  5
390
330
388
100
AcDbEntity
  8
1-1
  6
細い実線
 62
     7
100
AcDbLine
 10
849.144495
 20
114.673277
 30
0.0
 11
849.184033
 21
116.006024
 31
0.0
  0
LINE
  5
391
330
388
100
AcDbEntity
  8
1-1
  6
細い実線
 62
     7
100
AcDbLine
 10
850.541698
 20
118.129662
 30
0.0
 11
849.880621
 21
118.327985
 31
0.0
  0
LINE
  5
392
330
388
100
AcDbEntity
  8
1-1
  6
細い実線
 62
     7
100
AcDbLine
 10
849.880621
 20
118.327985
 30
0.0
 11
850.581235
 21
119.462409
 31
0.0
  0
LINE
  5
393
330
388
100
AcDbEntity
  8
1-1
  6
細い実線
 62
     7
100
AcDbLine
 10
850.581235
 20
119.462409
 30
0.0
 11
850.541698
 21
118.129662
 31
0.0
  0
TEXT
  5
394
330
388
100
AcDbEntity
  8
1-1
  6
CONTINUOUS
 62
     7
100
AcDbText
 10
849.288151
 20
115.152173
 30
0.0
 40
2.0
  1
１５０
 50
73.300758
 41
0.666667
  7
FX_VECTOR
 72
     5
 11
850.437542
 21
118.983478
 31
0.0
100
AcDbText
  0
ENDBLK
  5
38A
330
388
100
AcDbEntity
  8
0
100
AcDbBlockEnd
  0
BLOCK
  5
396
330
395
100
AcDbEntity
  8
0
100
AcDbBlockBegin
  2
BLKF062
 70
     0
 71
     0
 10
0.0
 20
0.0
 30
0.0
  3
BLKF062
  1

  0
LINE
  5
399
330
395
100
AcDbEntity
  8
1-1
  6
細い実線
 62
     7
100
AcDbLine
 10
824.748341
 20
114.555145
 30
0.0
 11
822.832688
 21
108.169637
 31
0.0
  0
LINE
  5
39A
330
395
100
AcDbEntity
  8
1-1
  6
細い実線
 62
     7
100
AcDbLine
 10
826.025442
 20
114.172015
 30
0.0
 11
824.10979
 21
107.786506
 31
0.0
  0
LINE
  5
39B
330
395
100
AcDbEntity
  8
1-1
  6
細い実線
 62
     7
100
AcDbLine
 10
826.217008
 20
107.850361
 30
0.0
 11
821.108601
 21
109.382883
 31
0.0
  0
LINE
  5
39C
330
395
100
AcDbEntity
  8
1-1
  6
細い実線
 62
     7
100
AcDbLine
 10
821.691506
 20
108.847725
 30
0.0
 11
821.889829
 21
109.508802
 31
0.0
  0
LINE
  5
39D
330
395
100
AcDbEntity
  8
1-1
  6
細い実線
 62
     7
100
AcDbLine
 10
821.889829
 20
109.508802
 30
0.0
 11
823.024253
 21
108.808188
 31
0.0
  0
LINE
  5
39E
330
395
100
AcDbEntity
  8
1-1
  6
細い実線
 62
     7
100
AcDbLine
 10
823.024253
 20
108.808188
 30
0.0
 11
821.691506
 21
108.847725
 31
0.0
  0
LINE
  5
39F
330
395
100
AcDbEntity
  8
1-1
  6
細い実線
 62
     7
100
AcDbLine
 10
825.634102
 20
108.38552
 30
0.0
 11
825.435779
 21
107.724443
 31
0.0
  0
LINE
  5
3A0
330
395
100
AcDbEntity
  8
1-1
  6
細い実線
 62
     7
100
AcDbLine
 10
825.435779
 20
107.724443
 30
0.0
 11
824.301355
 21
108.425057
 31
0.0
  0
LINE
  5
3A1
330
395
100
AcDbEntity
  8
1-1
  6
細い実線
 62
     7
100
AcDbLine
 10
824.301355
 20
108.425057
 30
0.0
 11
825.634102
 21
108.38552
 31
0.0
  0
TEXT
  5
3A2
330
395
100
AcDbEntity
  8
1-1
  6
CONTINUOUS
 62
     7
100
AcDbText
 10
821.619401
 20
106.445532
 30
0.0
 40
2.0
  1
４０
 50
343.300751
 41
0.666667
  7
FX_VECTOR
 72
     5
 11
824.173604
 21
105.679271
 31
0.0
100
AcDbText
  0
ENDBLK
  5
397
330
395
100
AcDbEntity
  8
0
100
AcDbBlockEnd
  0
BLOCK
  5
3A4
330
3A3
100
AcDbEntity
  8
0
100
AcDbBlockBegin
  2
BLKF063
 70
     0
 71
     0
 10
0.0
 20
0.0
 30
0.0
  3
BLKF063
  1

  0
LINE
  5
3A7
330
3A3
100
AcDbEntity
  8
1-1
  6
細い実線
 62
     7
100
AcDbLine
 10
839.43501
 20
110.149144
 30
0.0
 11
837.519358
 21
103.763636
 31
0.0
  0
LINE
  5
3A8
330
3A3
100
AcDbEntity
  8
1-1
  6
細い実線
 62
     7
100
AcDbLine
 10
840.712112
 20
109.766014
 30
0.0
 11
838.79646
 21
103.380505
 31
0.0
  0
LINE
  5
3A9
330
3A3
100
AcDbEntity
  8
1-1
  6
細い実線
 62
     7
100
AcDbLine
 10
840.903677
 20
103.44436
 30
0.0
 11
835.795271
 21
104.976883
 31
0.0
  0
LINE
  5
3AA
330
3A3
100
AcDbEntity
  8
1-1
  6
細い実線
 62
     7
100
AcDbLine
 10
836.378176
 20
104.441724
 30
0.0
 11
836.576499
 21
105.102801
 31
0.0
  0
LINE
  5
3AB
330
3A3
100
AcDbEntity
  8
1-1
  6
細い実線
 62
     7
100
AcDbLine
 10
836.576499
 20
105.102801
 30
0.0
 11
837.710923
 21
104.402187
 31
0.0
  0
LINE
  5
3AC
330
3A3
100
AcDbEntity
  8
1-1
  6
細い実線
 62
     7
100
AcDbLine
 10
837.710923
 20
104.402187
 30
0.0
 11
836.378176
 21
104.441724
 31
0.0
  0
LINE
  5
3AD
330
3A3
100
AcDbEntity
  8
1-1
  6
細い実線
 62
     7
100
AcDbLine
 10
840.320772
 20
103.979519
 30
0.0
 11
840.122449
 21
103.318442
 31
0.0
  0
LINE
  5
3AE
330
3A3
100
AcDbEntity
  8
1-1
  6
細い実線
 62
     7
100
AcDbLine
 10
840.122449
 20
103.318442
 30
0.0
 11
838.988025
 21
104.019056
 31
0.0
  0
LINE
  5
3AF
330
3A3
100
AcDbEntity
  8
1-1
  6
細い実線
 62
     7
100
AcDbLine
 10
838.988025
 20
104.019056
 30
0.0
 11
840.320772
 21
103.979519
 31
0.0
  0
TEXT
  5
3B0
330
3A3
100
AcDbEntity
  8
1-1
  6
CONTINUOUS
 62
     7
100
AcDbText
 10
836.30612
 20
102.039543
 30
0.0
 40
2.0
  1
４０
 50
343.300751
 41
0.666667
  7
FX_VECTOR
 72
     5
 11
838.860323
 21
101.273281
 31
0.0
100
AcDbText
  0
ENDBLK
  5
3A5
330
3A3
100
AcDbEntity
  8
0
100
AcDbBlockEnd
  0
BLOCK
  5
3B2
330
3B1
100
AcDbEntity
  8
0
100
AcDbBlockBegin
  2
BLKF064
 70
     0
 71
     0
 10
0.0
 20
0.0
 30
0.0
  3
BLKF064
  1

  0
LINE
  5
3B5
330
3B1
100
AcDbEntity
  8
1-1
  6
細い実線
 62
     7
100
AcDbLine
 10
828.739284
 20
113.357862
 30
0.0
 11
827.781457
 21
110.165108
 31
0.0
  0
LINE
  5
3B6
330
3B1
100
AcDbEntity
  8
1-1
  6
細い実線
 62
     7
100
AcDbLine
 10
836.721169
 20
110.963297
 30
0.0
 11
835.763343
 21
107.770543
 31
0.0
  0
LINE
  5
3B7
330
3B1
100
AcDbEntity
  8
1-1
  6
細い実線
 62
     7
100
AcDbLine
 10
835.954908
 20
108.409093
 30
0.0
 11
827.973023
 21
110.803659
 31
0.0
  0
LINE
  5
3B8
330
3B1
100
AcDbEntity
  8
1-1
  6
細い実線
 62
     7
100
AcDbLine
 10
829.30577
 20
110.764122
 30
0.0
 11
829.107447
 21
110.103045
 31
0.0
  0
LINE
  5
3B9
330
3B1
100
AcDbEntity
  8
1-1
  6
細い実線
 62
     7
100
AcDbLine
 10
829.107447
 20
110.103045
 30
0.0
 11
827.973023
 21
110.803659
 31
0.0
  0
LINE
  5
3BA
330
3B1
100
AcDbEntity
  8
1-1
  6
細い実線
 62
     7
100
AcDbLine
 10
827.973023
 20
110.803659
 30
0.0
 11
829.30577
 21
110.764122
 31
0.0
  0
LINE
  5
3BB
330
3B1
100
AcDbEntity
  8
1-1
  6
細い実線
 62
     7
100
AcDbLine
 10
834.622161
 20
108.448631
 30
0.0
 11
834.820484
 21
109.109707
 31
0.0
  0
LINE
  5
3BC
330
3B1
100
AcDbEntity
  8
1-1
  6
細い実線
 62
     7
100
AcDbLine
 10
834.820484
 20
109.109707
 30
0.0
 11
835.954908
 21
108.409093
 31
0.0
  0
LINE
  5
3BD
330
3B1
100
AcDbEntity
  8
1-1
  6
細い実線
 62
     7
100
AcDbLine
 10
835.954908
 20
108.409093
 30
0.0
 11
834.622161
 21
108.448631
 31
0.0
  0
TEXT
  5
3BE
330
3B1
100
AcDbEntity
  8
1-1
  6
CONTINUOUS
 62
     7
100
AcDbText
 10
830.048307
 20
110.181047
 30
0.0
 40
2.0
  1
２５０
 50
343.300751
 41
0.666667
  7
FX_VECTOR
 72
     5
 11
833.879612
 21
109.031655
 31
0.0
100
AcDbText
  0
ENDBLK
  5
3B3
330
3B1
100
AcDbEntity
  8
0
100
AcDbBlockEnd
  0
BLOCK
  5
3C6
330
3C5
100
AcDbEntity
  8
0
100
AcDbBlockBegin
  2
BLKF065
 70
     0
 71
     0
 10
0.0
 20
0.0
 30
0.0
  3
BLKF065
  1

  0
LINE
  5
3C9
330
3C5
100
AcDbEntity
  8
1-1
  6
細い実線
 62
     7
100
AcDbLine
 10
824.273239
 20
115.193696
 30
0.0
 11
814.273239
 21
115.193696
 31
0.0
  0
LINE
  5
3CA
330
3C5
100
AcDbEntity
  8
1-1
  6
細い実線
 62
     7
100
AcDbLine
 10
826.273239
 20
121.860363
 30
0.0
 11
814.273239
 21
121.860363
 31
0.0
  0
LINE
  5
3CB
330
3C5
100
AcDbEntity
  8
1-1
  6
細い実線
 62
     7
100
AcDbLine
 10
814.939906
 20
121.860363
 30
0.0
 11
814.939906
 21
115.193696
 31
0.0
  0
LINE
  5
3CC
330
3C5
100
AcDbEntity
  8
1-1
  6
細い実線
 62
     7
100
AcDbLine
 10
814.594814
 20
116.481597
 30
0.0
 11
815.284998
 21
116.481597
 31
0.0
  0
LINE
  5
3CD
330
3C5
100
AcDbEntity
  8
1-1
  6
細い実線
 62
     7
100
AcDbLine
 10
815.284998
 20
116.481597
 30
0.0
 11
814.939906
 21
115.193696
 31
0.0
  0
LINE
  5
3CE
330
3C5
100
AcDbEntity
  8
1-1
  6
細い実線
 62
     7
100
AcDbLine
 10
814.939906
 20
115.193696
 30
0.0
 11
814.594814
 21
116.481597
 31
0.0
  0
LINE
  5
3CF
330
3C5
100
AcDbEntity
  8
1-1
  6
細い実線
 62
     7
100
AcDbLine
 10
815.284998
 20
120.572462
 30
0.0
 11
814.594814
 21
120.572462
 31
0.0
  0
LINE
  5
3D0
330
3C5
100
AcDbEntity
  8
1-1
  6
細い実線
 62
     7
100
AcDbLine
 10
814.594814
 20
120.572462
 30
0.0
 11
814.939906
 21
121.860363
 31
0.0
  0
LINE
  5
3D1
330
3C5
100
AcDbEntity
  8
1-1
  6
細い実線
 62
     7
100
AcDbLine
 10
814.939906
 20
121.860363
 30
0.0
 11
815.284998
 21
120.572462
 31
0.0
  0
TEXT
  5
3D2
330
3C5
100
AcDbEntity
  8
1-1
  6
CONTINUOUS
 62
     7
100
AcDbText
 10
814.939909
 20
116.52701
 30
0.0
 40
2.0
  1
２００
 50
90.0
 41
0.666667
  7
FX_VECTOR
 72
     5
 11
814.939909
 21
120.52701
 31
0.0
100
AcDbText
  0
ENDBLK
  5
3C7
330
3C5
100
AcDbEntity
  8
0
100
AcDbBlockEnd
  0
BLOCK
  5
3D4
330
3D3
100
AcDbEntity
  8
0
100
AcDbBlockBegin
  2
BLKF066
 70
     0
 71
     0
 10
0.0
 20
0.0
 30
0.0
  3
BLKF066
  1

  0
LINE
  5
3D7
330
3D3
100
AcDbEntity
  8
1-1
  6
細い実線
 62
     7
100
AcDbLine
 10
826.273239
 20
121.860363
 30
0.0
 11
814.273239
 21
121.860363
 31
0.0
  0
LINE
  5
3D8
330
3D3
100
AcDbEntity
  8
1-1
  6
細い実線
 62
     7
100
AcDbLine
 10
828.105239
 20
127.96703
 30
0.0
 11
814.273239
 21
127.96703
 31
0.0
  0
LINE
  5
3D9
330
3D3
100
AcDbEntity
  8
1-1
  6
細い実線
 62
     7
100
AcDbLine
 10
814.939906
 20
127.96703
 30
0.0
 11
814.939906
 21
121.860363
 31
0.0
  0
LINE
  5
3DA
330
3D3
100
AcDbEntity
  8
1-1
  6
細い実線
 62
     7
100
AcDbLine
 10
814.594814
 20
123.148264
 30
0.0
 11
815.284998
 21
123.148264
 31
0.0
  0
LINE
  5
3DB
330
3D3
100
AcDbEntity
  8
1-1
  6
細い実線
 62
     7
100
AcDbLine
 10
815.284998
 20
123.148264
 30
0.0
 11
814.939906
 21
121.860363
 31
0.0
  0
LINE
  5
3DC
330
3D3
100
AcDbEntity
  8
1-1
  6
細い実線
 62
     7
100
AcDbLine
 10
814.939906
 20
121.860363
 30
0.0
 11
814.594814
 21
123.148264
 31
0.0
  0
LINE
  5
3DD
330
3D3
100
AcDbEntity
  8
1-1
  6
細い実線
 62
     7
100
AcDbLine
 10
815.284998
 20
126.679128
 30
0.0
 11
814.594814
 21
126.679128
 31
0.0
  0
LINE
  5
3DE
330
3D3
100
AcDbEntity
  8
1-1
  6
細い実線
 62
     7
100
AcDbLine
 10
814.594814
 20
126.679128
 30
0.0
 11
814.939906
 21
127.96703
 31
0.0
  0
LINE
  5
3DF
330
3D3
100
AcDbEntity
  8
1-1
  6
細い実線
 62
     7
100
AcDbLine
 10
814.939906
 20
127.96703
 30
0.0
 11
815.284998
 21
126.679128
 31
0.0
  0
TEXT
  5
3E0
330
3D3
100
AcDbEntity
  8
1-1
  6
CONTINUOUS
 62
     7
100
AcDbText
 10
814.939909
 20
121.580363
 30
0.0
 40
2.0
  1
１８３．２
 50
90.0
 41
0.666667
  7
FX_VECTOR
 72
     5
 11
814.939909
 21
128.24703
 31
0.0
100
AcDbText
  0
ENDBLK
  5
3D5
330
3D3
100
AcDbEntity
  8
0
100
AcDbBlockEnd
  0
BLOCK
  5
3E2
330
3E1
100
AcDbEntity
  8
0
100
AcDbBlockBegin
  2
BLKF067
 70
     0
 71
     0
 10
0.0
 20
0.0
 30
0.0
  3
BLKF067
  1

  0
LINE
  5
3E5
330
3E1
100
AcDbEntity
  8
1-1
  6
細い実線
 62
     7
100
AcDbLine
 10
828.105239
 20
127.96703
 30
0.0
 11
814.273239
 21
127.96703
 31
0.0
  0
LINE
  5
3E6
330
3E1
100
AcDbEntity
  8
1-1
  6
細い実線
 62
     7
100
AcDbLine
 10
831.409337
 20
131.300363
 30
0.0
 11
814.273239
 21
131.300363
 31
0.0
  0
LINE
  5
3E7
330
3E1
100
AcDbEntity
  8
1-1
  6
細い実線
 62
     7
100
AcDbLine
 10
814.939906
 20
131.300363
 30
0.0
 11
814.939906
 21
127.96703
 31
0.0
  0
LINE
  5
3E8
330
3E1
100
AcDbEntity
  8
1-1
  6
細い実線
 62
     7
100
AcDbLine
 10
814.594814
 20
129.254931
 30
0.0
 11
815.284998
 21
129.254931
 31
0.0
  0
LINE
  5
3E9
330
3E1
100
AcDbEntity
  8
1-1
  6
細い実線
 62
     7
100
AcDbLine
 10
815.284998
 20
129.254931
 30
0.0
 11
814.939906
 21
127.96703
 31
0.0
  0
LINE
  5
3EA
330
3E1
100
AcDbEntity
  8
1-1
  6
細い実線
 62
     7
100
AcDbLine
 10
814.939906
 20
127.96703
 30
0.0
 11
814.594814
 21
129.254931
 31
0.0
  0
LINE
  5
3EB
330
3E1
100
AcDbEntity
  8
1-1
  6
細い実線
 62
     7
100
AcDbLine
 10
815.284998
 20
130.012462
 30
0.0
 11
814.594814
 21
130.012462
 31
0.0
  0
LINE
  5
3EC
330
3E1
100
AcDbEntity
  8
1-1
  6
細い実線
 62
     7
100
AcDbLine
 10
814.594814
 20
130.012462
 30
0.0
 11
814.939906
 21
131.300363
 31
0.0
  0
LINE
  5
3ED
330
3E1
100
AcDbEntity
  8
1-1
  6
細い実線
 62
     7
100
AcDbLine
 10
814.939906
 20
131.300363
 30
0.0
 11
815.284998
 21
130.012462
 31
0.0
  0
TEXT
  5
3EE
330
3E1
100
AcDbEntity
  8
1-1
  6
CONTINUOUS
 62
     7
100
AcDbText
 10
814.417122
 20
128.352938
 30
0.0
 40
2.0
  1
１００
 50
90.0
 41
0.666667
  7
FX_VECTOR
 72
     5
 11
814.417122
 21
132.352938
 31
0.0
100
AcDbText
  0
ENDBLK
  5
3E3
330
3E1
100
AcDbEntity
  8
0
100
AcDbBlockEnd
  0
BLOCK
  5
3F0
330
3EF
100
AcDbEntity
  8
0
100
AcDbBlockBegin
  2
BLKF068
 70
     0
 71
     0
 10
0.0
 20
0.0
 30
0.0
  3
BLKF068
  1

  0
LINE
  5
3F3
330
3EF
100
AcDbEntity
  8
1-1
  6
細い実線
 62
     7
100
AcDbLine
 10
824.273239
 20
115.193696
 30
0.0
 11
810.939906
 21
115.193696
 31
0.0
  0
LINE
  5
3F4
330
3EF
100
AcDbEntity
  8
1-1
  6
細い実線
 62
     7
100
AcDbLine
 10
828.105239
 20
127.96703
 30
0.0
 11
810.939906
 21
127.96703
 31
0.0
  0
LINE
  5
3F5
330
3EF
100
AcDbEntity
  8
1-1
  6
細い実線
 62
     7
100
AcDbLine
 10
811.606573
 20
127.96703
 30
0.0
 11
811.606573
 21
115.193696
 31
0.0
  0
LINE
  5
3F6
330
3EF
100
AcDbEntity
  8
1-1
  6
細い実線
 62
     7
100
AcDbLine
 10
811.261481
 20
116.481597
 30
0.0
 11
811.951665
 21
116.481597
 31
0.0
  0
LINE
  5
3F7
330
3EF
100
AcDbEntity
  8
1-1
  6
細い実線
 62
     7
100
AcDbLine
 10
811.951665
 20
116.481597
 30
0.0
 11
811.606573
 21
115.193696
 31
0.0
  0
LINE
  5
3F8
330
3EF
100
AcDbEntity
  8
1-1
  6
細い実線
 62
     7
100
AcDbLine
 10
811.606573
 20
115.193696
 30
0.0
 11
811.261481
 21
116.481597
 31
0.0
  0
LINE
  5
3F9
330
3EF
100
AcDbEntity
  8
1-1
  6
細い実線
 62
     7
100
AcDbLine
 10
811.951665
 20
126.679128
 30
0.0
 11
811.261481
 21
126.679128
 31
0.0
  0
LINE
  5
3FA
330
3EF
100
AcDbEntity
  8
1-1
  6
細い実線
 62
     7
100
AcDbLine
 10
811.261481
 20
126.679128
 30
0.0
 11
811.606573
 21
127.96703
 31
0.0
  0
LINE
  5
3FB
330
3EF
100
AcDbEntity
  8
1-1
  6
細い実線
 62
     7
100
AcDbLine
 10
811.606573
 20
127.96703
 30
0.0
 11
811.951665
 21
126.679128
 31
0.0
  0
TEXT
  5
3FC
330
3EF
100
AcDbEntity
  8
1-1
  6
CONTINUOUS
 62
     7
100
AcDbText
 10
811.606576
 20
118.24703
 30
0.0
 40
2.0
  1
３８３．２
 50
90.0
 41
0.666667
  7
FX_VECTOR
 72
     5
 11
811.606576
 21
124.913696
 31
0.0
100
AcDbText
  0
ENDBLK
  5
3F1
330
3EF
100
AcDbEntity
  8
0
100
AcDbBlockEnd
  0
BLOCK
  5
3FE
330
3FD
100
AcDbEntity
  8
0
100
AcDbBlockBegin
  2
BLKF069
 70
     0
 71
     0
 10
0.0
 20
0.0
 30
0.0
  3
BLKF069
  1

  0
LINE
  5
401
330
3FD
100
AcDbEntity
  8
1-1
  6
細い実線
 62
     7
100
AcDbLine
 10
837.109087
 20
131.300363
 30
0.0
 11
856.807084
 21
131.300363
 31
0.0
  0
LINE
  5
402
330
3FD
100
AcDbEntity
  8
1-1
  6
細い実線
 62
     7
100
AcDbLine
 10
846.807084
 20
127.860363
 30
0.0
 11
856.807084
 21
127.860363
 31
0.0
  0
LINE
  5
403
330
3FD
100
AcDbEntity
  8
1-1
  6
細い実線
 62
     7
100
AcDbLine
 10
856.140417
 20
127.860363
 30
0.0
 11
856.140417
 21
131.300363
 31
0.0
  0
LINE
  5
404
330
3FD
100
AcDbEntity
  8
1-1
  6
細い実線
 62
     7
100
AcDbLine
 10
856.485509
 20
130.012462
 30
0.0
 11
855.795325
 21
130.012462
 31
0.0
  0
LINE
  5
405
330
3FD
100
AcDbEntity
  8
1-1
  6
細い実線
 62
     7
100
AcDbLine
 10
855.795325
 20
130.012462
 30
0.0
 11
856.140417
 21
131.300363
 31
0.0
  0
LINE
  5
406
330
3FD
100
AcDbEntity
  8
1-1
  6
細い実線
 62
     7
100
AcDbLine
 10
856.140417
 20
131.300363
 30
0.0
 11
856.485509
 21
130.012462
 31
0.0
  0
LINE
  5
407
330
3FD
100
AcDbEntity
  8
1-1
  6
細い実線
 62
     7
100
AcDbLine
 10
855.795325
 20
129.148264
 30
0.0
 11
856.485509
 21
129.148264
 31
0.0
  0
LINE
  5
408
330
3FD
100
AcDbEntity
  8
1-1
  6
細い実線
 62
     7
100
AcDbLine
 10
856.485509
 20
129.148264
 30
0.0
 11
856.140417
 21
127.860363
 31
0.0
  0
LINE
  5
409
330
3FD
100
AcDbEntity
  8
1-1
  6
細い実線
 62
     7
100
AcDbLine
 10
856.140417
 20
127.860363
 30
0.0
 11
855.795325
 21
129.148264
 31
0.0
  0
TEXT
  5
40A
330
3FD
100
AcDbEntity
  8
1-1
  6
CONTINUOUS
 62
     7
100
AcDbText
 10
859.196615
 20
127.693774
 30
0.0
 40
2.0
  1
１０３．２
 50
90.0
 41
0.666667
  7
FX_VECTOR
 72
     5
 11
859.196615
 21
134.360441
 31
0.0
100
AcDbText
  0
ENDBLK
  5
3FF
330
3FD
100
AcDbEntity
  8
0
100
AcDbBlockEnd
  0
BLOCK
  5
40C
330
40B
100
AcDbEntity
  8
0
100
AcDbBlockBegin
  2
BLKF070
 70
     0
 71
     0
 10
0.0
 20
0.0
 30
0.0
  3
BLKF070
  1

  0
LINE
  5
40F
330
40B
100
AcDbEntity
  8
1-1
  6
細い実線
 62
     7
100
AcDbLine
 10
846.807084
 20
127.860363
 30
0.0
 11
856.807084
 21
127.860363
 31
0.0
  0
LINE
  5
410
330
40B
100
AcDbEntity
  8
1-1
  6
細い実線
 62
     7
100
AcDbLine
 10
845.007084
 20
121.860363
 30
0.0
 11
856.807084
 21
121.860363
 31
0.0
  0
LINE
  5
411
330
40B
100
AcDbEntity
  8
1-1
  6
細い実線
 62
     7
100
AcDbLine
 10
856.140417
 20
121.860363
 30
0.0
 11
856.140417
 21
127.860363
 31
0.0
  0
LINE
  5
412
330
40B
100
AcDbEntity
  8
1-1
  6
細い実線
 62
     7
100
AcDbLine
 10
856.485509
 20
126.572462
 30
0.0
 11
855.795325
 21
126.572462
 31
0.0
  0
LINE
  5
413
330
40B
100
AcDbEntity
  8
1-1
  6
細い実線
 62
     7
100
AcDbLine
 10
855.795325
 20
126.572462
 30
0.0
 11
856.140417
 21
127.860363
 31
0.0
  0
LINE
  5
414
330
40B
100
AcDbEntity
  8
1-1
  6
細い実線
 62
     7
100
AcDbLine
 10
856.140417
 20
127.860363
 30
0.0
 11
856.485509
 21
126.572462
 31
0.0
  0
LINE
  5
415
330
40B
100
AcDbEntity
  8
1-1
  6
細い実線
 62
     7
100
AcDbLine
 10
855.795325
 20
123.148264
 30
0.0
 11
856.485509
 21
123.148264
 31
0.0
  0
LINE
  5
416
330
40B
100
AcDbEntity
  8
1-1
  6
細い実線
 62
     7
100
AcDbLine
 10
856.485509
 20
123.148264
 30
0.0
 11
856.140417
 21
121.860363
 31
0.0
  0
LINE
  5
417
330
40B
100
AcDbEntity
  8
1-1
  6
細い実線
 62
     7
100
AcDbLine
 10
856.140417
 20
121.860363
 30
0.0
 11
855.795325
 21
123.148264
 31
0.0
  0
TEXT
  5
418
330
40B
100
AcDbEntity
  8
1-1
  6
CONTINUOUS
 62
     7
100
AcDbText
 10
856.14043
 20
122.860343
 30
0.0
 40
2.0
  1
１８０
 50
90.0
 41
0.666667
  7
FX_VECTOR
 72
     5
 11
856.14043
 21
126.860343
 31
0.0
100
AcDbText
  0
ENDBLK
  5
40D
330
40B
100
AcDbEntity
  8
0
100
AcDbBlockEnd
  0
BLOCK
  5
41A
330
419
100
AcDbEntity
  8
0
100
AcDbBlockBegin
  2
BLKF071
 70
     0
 71
     0
 10
0.0
 20
0.0
 30
0.0
  3
BLKF071
  1

  0
LINE
  5
41D
330
419
100
AcDbEntity
  8
1-1
  6
細い実線
 62
     7
100
AcDbLine
 10
845.007084
 20
121.860363
 30
0.0
 11
856.807084
 21
121.860363
 31
0.0
  0
LINE
  5
41E
330
419
100
AcDbEntity
  8
1-1
  6
細い実線
 62
     7
100
AcDbLine
 10
843.007084
 20
115.193696
 30
0.0
 11
856.807084
 21
115.193696
 31
0.0
  0
LINE
  5
41F
330
419
100
AcDbEntity
  8
1-1
  6
細い実線
 62
     7
100
AcDbLine
 10
856.140417
 20
115.193696
 30
0.0
 11
856.140417
 21
121.860363
 31
0.0
  0
LINE
  5
420
330
419
100
AcDbEntity
  8
1-1
  6
細い実線
 62
     7
100
AcDbLine
 10
856.485509
 20
120.572462
 30
0.0
 11
855.795325
 21
120.572462
 31
0.0
  0
LINE
  5
421
330
419
100
AcDbEntity
  8
1-1
  6
細い実線
 62
     7
100
AcDbLine
 10
855.795325
 20
120.572462
 30
0.0
 11
856.140417
 21
121.860363
 31
0.0
  0
LINE
  5
422
330
419
100
AcDbEntity
  8
1-1
  6
細い実線
 62
     7
100
AcDbLine
 10
856.140417
 20
121.860363
 30
0.0
 11
856.485509
 21
120.572462
 31
0.0
  0
LINE
  5
423
330
419
100
AcDbEntity
  8
1-1
  6
細い実線
 62
     7
100
AcDbLine
 10
855.795325
 20
116.481597
 30
0.0
 11
856.485509
 21
116.481597
 31
0.0
  0
LINE
  5
424
330
419
100
AcDbEntity
  8
1-1
  6
細い実線
 62
     7
100
AcDbLine
 10
856.485509
 20
116.481597
 30
0.0
 11
856.140417
 21
115.193696
 31
0.0
  0
LINE
  5
425
330
419
100
AcDbEntity
  8
1-1
  6
細い実線
 62
     7
100
AcDbLine
 10
856.140417
 20
115.193696
 30
0.0
 11
855.795325
 21
116.481597
 31
0.0
  0
TEXT
  5
426
330
419
100
AcDbEntity
  8
1-1
  6
CONTINUOUS
 62
     7
100
AcDbText
 10
856.14043
 20
116.52701
 30
0.0
 40
2.0
  1
２００
 50
90.0
 41
0.666667
  7
FX_VECTOR
 72
     5
 11
856.14043
 21
120.52701
 31
0.0
100
AcDbText
  0
ENDBLK
  5
41B
330
419
100
AcDbEntity
  8
0
100
AcDbBlockEnd
  0
BLOCK
  5
428
330
427
100
AcDbEntity
  8
0
100
AcDbBlockBegin
  2
BLKF072
 70
     0
 71
     0
 10
0.0
 20
0.0
 30
0.0
  3
BLKF072
  1

  0
LINE
  5
42B
330
427
100
AcDbEntity
  8
1-1
  6
細い実線
 62
     7
100
AcDbLine
 10
846.807084
 20
127.860363
 30
0.0
 11
860.140417
 21
127.860363
 31
0.0
  0
LINE
  5
42C
330
427
100
AcDbEntity
  8
1-1
  6
細い実線
 62
     7
100
AcDbLine
 10
843.007084
 20
115.193696
 30
0.0
 11
860.140417
 21
115.193696
 31
0.0
  0
LINE
  5
42D
330
427
100
AcDbEntity
  8
1-1
  6
細い実線
 62
     7
100
AcDbLine
 10
859.47375
 20
115.193696
 30
0.0
 11
859.47375
 21
127.860363
 31
0.0
  0
LINE
  5
42E
330
427
100
AcDbEntity
  8
1-1
  6
細い実線
 62
     7
100
AcDbLine
 10
859.818842
 20
126.572462
 30
0.0
 11
859.128658
 21
126.572462
 31
0.0
  0
LINE
  5
42F
330
427
100
AcDbEntity
  8
1-1
  6
細い実線
 62
     7
100
AcDbLine
 10
859.128658
 20
126.572462
 30
0.0
 11
859.47375
 21
127.860363
 31
0.0
  0
LINE
  5
430
330
427
100
AcDbEntity
  8
1-1
  6
細い実線
 62
     7
100
AcDbLine
 10
859.47375
 20
127.860363
 30
0.0
 11
859.818842
 21
126.572462
 31
0.0
  0
LINE
  5
431
330
427
100
AcDbEntity
  8
1-1
  6
細い実線
 62
     7
100
AcDbLine
 10
859.128658
 20
116.481597
 30
0.0
 11
859.818842
 21
116.481597
 31
0.0
  0
LINE
  5
432
330
427
100
AcDbEntity
  8
1-1
  6
細い実線
 62
     7
100
AcDbLine
 10
859.818842
 20
116.481597
 30
0.0
 11
859.47375
 21
115.193696
 31
0.0
  0
LINE
  5
433
330
427
100
AcDbEntity
  8
1-1
  6
細い実線
 62
     7
100
AcDbLine
 10
859.47375
 20
115.193696
 30
0.0
 11
859.128658
 21
116.481597
 31
0.0
  0
TEXT
  5
434
330
427
100
AcDbEntity
  8
1-1
  6
CONTINUOUS
 62
     7
100
AcDbText
 10
859.473763
 20
119.52701
 30
0.0
 40
2.0
  1
３８０
 50
90.0
 41
0.666667
  7
FX_VECTOR
 72
     5
 11
859.473763
 21
123.52701
 31
0.0
100
AcDbText
  0
ENDBLK
  5
429
330
427
100
AcDbEntity
  8
0
100
AcDbBlockEnd
  0
BLOCK
  5
447
330
446
100
AcDbEntity
  8
0
100
AcDbBlockBegin
  2
BLKF073
 70
     0
 71
     0
 10
0.0
 20
0.0
 30
0.0
  3
BLKF073
  1

  0
LINE
  5
44A
330
446
100
AcDbEntity
  8
1-1
  6
細い実線
 62
     7
100
AcDbLine
 10
832.079087
 20
133.52703
 30
0.0
 11
832.079087
 21
136.860363
 31
0.0
  0
LINE
  5
44B
330
446
100
AcDbEntity
  8
1-1
  6
細い実線
 62
     7
100
AcDbLine
 10
836.476016
 20
131.860363
 30
0.0
 11
836.476016
 21
136.860363
 31
0.0
  0
LINE
  5
44C
330
446
100
AcDbEntity
  8
1-1
  6
細い実線
 62
     7
100
AcDbLine
 10
836.476016
 20
136.193696
 30
0.0
 11
832.079087
 21
136.193696
 31
0.0
  0
LINE
  5
44D
330
446
100
AcDbEntity
  8
1-1
  6
細い実線
 62
     7
100
AcDbLine
 10
833.366989
 20
136.538788
 30
0.0
 11
833.366989
 21
135.848604
 31
0.0
  0
LINE
  5
44E
330
446
100
AcDbEntity
  8
1-1
  6
細い実線
 62
     7
100
AcDbLine
 10
833.366989
 20
135.848604
 30
0.0
 11
832.079087
 21
136.193696
 31
0.0
  0
LINE
  5
44F
330
446
100
AcDbEntity
  8
1-1
  6
細い実線
 62
     7
100
AcDbLine
 10
832.079087
 20
136.193696
 30
0.0
 11
833.366989
 21
136.538788
 31
0.0
  0
LINE
  5
450
330
446
100
AcDbEntity
  8
1-1
  6
細い実線
 62
     7
100
AcDbLine
 10
835.188115
 20
135.848604
 30
0.0
 11
835.188115
 21
136.538788
 31
0.0
  0
LINE
  5
451
330
446
100
AcDbEntity
  8
1-1
  6
細い実線
 62
     7
100
AcDbLine
 10
835.188115
 20
136.538788
 30
0.0
 11
836.476016
 21
136.193696
 31
0.0
  0
LINE
  5
452
330
446
100
AcDbEntity
  8
1-1
  6
細い実線
 62
     7
100
AcDbLine
 10
836.476016
 20
136.193696
 30
0.0
 11
835.188115
 21
135.848604
 31
0.0
  0
TEXT
  5
453
330
446
100
AcDbEntity
  8
1-1
  6
CONTINUOUS
 62
     7
100
AcDbText
 10
830.944271
 20
136.860335
 30
0.0
 40
2.0
  1
１３１．９
 41
0.666667
  7
FX_VECTOR
 72
     5
 11
837.610937
 21
136.860335
 31
0.0
100
AcDbText
  0
ENDBLK
  5
448
330
446
100
AcDbEntity
  8
0
100
AcDbBlockEnd
  0
BLOCK
  5
465
330
464
100
AcDbEntity
  8
0
100
AcDbBlockBegin
  2
BLKF074
 70
     0
 71
     0
 10
0.0
 20
0.0
 30
0.0
  3
BLKF074
  1

  0
LINE
  5
468
330
464
100
AcDbEntity
  8
1-1
  6
細い実線
 62
     7
100
AcDbLine
 10
718.640432
 20
131.948868
 30
0.0
 11
718.967648
 21
131.341181
 31
0.0
  0
LINE
  5
469
330
464
100
AcDbEntity
  8
1-1
  6
細い実線
 62
     7
100
AcDbLine
 10
718.967648
 20
131.341181
 30
0.0
 11
717.670081
 21
131.034431
 31
0.0
  0
LINE
  5
46A
330
464
100
AcDbEntity
  8
1-1
  6
細い実線
 62
     7
100
AcDbLine
 10
717.670081
 20
131.034431
 30
0.0
 11
718.640432
 21
131.948868
 31
0.0
  0
TEXT
  5
46B
330
464
100
AcDbEntity
  8
1-1
  6
CONTINUOUS
 62
     7
100
AcDbText
 10
720.451302
 20
132.532007
 30
0.0
 40
2.0
  1
　転倒防止（突起部）　
 41
0.666667
  7
FX_VECTOR
 72
     5
 11
735.117969
 21
132.532007
 31
0.0
100
AcDbText
  0
LINE
  5
46C
330
464
100
AcDbEntity
  8
1-1
  6
細い実線
 62
     7
100
AcDbLine
 10
717.670081
 20
131.034431
 30
0.0
 11
720.451271
 21
132.531995
 31
0.0
  0
LINE
  5
46D
330
464
100
AcDbEntity
  8
1-1
  6
細い実線
 62
     7
100
AcDbLine
 10
720.451271
 20
132.531995
 30
0.0
 11
735.117938
 21
132.531995
 31
0.0
  0
ENDBLK
  5
466
330
464
100
AcDbEntity
  8
0
100
AcDbBlockEnd
  0
BLOCK
  5
46F
330
46E
100
AcDbEntity
  8
0
100
AcDbBlockBegin
  2
BLKF075
 70
     0
 71
     0
 10
0.0
 20
0.0
 30
0.0
  3
BLKF075
  1

  0
LINE
  5
472
330
46E
100
AcDbEntity
  8
1-1
  6
細い実線
 62
     7
100
AcDbLine
 10
701.767592
 20
131.207285
 30
0.0
 11
699.851939
 21
137.592793
 31
0.0
  0
LINE
  5
473
330
46E
100
AcDbEntity
  8
1-1
  6
細い実線
 62
     7
100
AcDbLine
 10
704.162158
 20
131.925654
 30
0.0
 11
702.246505
 21
138.311163
 31
0.0
  0
LINE
  5
474
330
46E
100
AcDbEntity
  8
1-1
  6
細い実線
 62
     7
100
AcDbLine
 10
704.353723
 20
138.247308
 30
0.0
 11
698.127852
 21
136.379547
 31
0.0
  0
LINE
  5
475
330
46E
100
AcDbEntity
  8
1-1
  6
細い実線
 62
     7
100
AcDbLine
 10
698.90908
 20
136.253628
 30
0.0
 11
698.710757
 21
136.914705
 31
0.0
  0
LINE
  5
476
330
46E
100
AcDbEntity
  8
1-1
  6
細い実線
 62
     7
100
AcDbLine
 10
698.710757
 20
136.914705
 30
0.0
 11
700.043504
 21
136.954242
 31
0.0
  0
LINE
  5
477
330
46E
100
AcDbEntity
  8
1-1
  6
細い実線
 62
     7
100
AcDbLine
 10
700.043504
 20
136.954242
 30
0.0
 11
698.90908
 21
136.253628
 31
0.0
  0
LINE
  5
478
330
46E
100
AcDbEntity
  8
1-1
  6
細い実線
 62
     7
100
AcDbLine
 10
703.572494
 20
138.373226
 30
0.0
 11
703.770817
 21
137.712149
 31
0.0
  0
LINE
  5
479
330
46E
100
AcDbEntity
  8
1-1
  6
細い実線
 62
     7
100
AcDbLine
 10
703.770817
 20
137.712149
 30
0.0
 11
702.43807
 21
137.672612
 31
0.0
  0
LINE
  5
47A
330
46E
100
AcDbEntity
  8
1-1
  6
細い実線
 62
     7
100
AcDbLine
 10
702.43807
 20
137.672612
 30
0.0
 11
703.572494
 21
138.373226
 31
0.0
  0
TEXT
  5
47B
330
46E
100
AcDbEntity
  8
1-1
  6
CONTINUOUS
 62
     7
100
AcDbText
 10
699.772135
 20
137.568864
 30
0.0
 40
2.0
  1
７５
 50
16.699244
 41
0.666667
  7
FX_VECTOR
 72
     5
 11
702.326339
 21
138.335125
 31
0.0
100
AcDbText
  0
ENDBLK
  5
470
330
46E
100
AcDbEntity
  8
0
100
AcDbBlockEnd
  0
BLOCK
  5
47D
330
47C
100
AcDbEntity
  8
0
100
AcDbBlockBegin
  2
BLKF076
 70
     0
 71
     0
 10
0.0
 20
0.0
 30
0.0
  3
BLKF076
  1

  0
LINE
  5
480
330
47C
100
AcDbEntity
  8
1-1
  6
細い実線
 62
     7
100
AcDbLine
 10
715.336798
 20
135.278046
 30
0.0
 11
713.421145
 21
141.663555
 31
0.0
  0
LINE
  5
481
330
47C
100
AcDbEntity
  8
1-1
  6
細い実線
 62
     7
100
AcDbLine
 10
713.61271
 20
141.025004
 30
0.0
 11
702.43807
 21
137.672612
 31
0.0
  0
LINE
  5
482
330
47C
100
AcDbEntity
  8
1-1
  6
細い実線
 62
     7
100
AcDbLine
 10
703.572494
 20
138.373226
 30
0.0
 11
703.770817
 21
137.712149
 31
0.0
  0
LINE
  5
483
330
47C
100
AcDbEntity
  8
1-1
  6
細い実線
 62
     7
100
AcDbLine
 10
703.770817
 20
137.712149
 30
0.0
 11
702.43807
 21
137.672612
 31
0.0
  0
LINE
  5
484
330
47C
100
AcDbEntity
  8
1-1
  6
細い実線
 62
     7
100
AcDbLine
 10
702.43807
 20
137.672612
 30
0.0
 11
703.572494
 21
138.373226
 31
0.0
  0
LINE
  5
485
330
47C
100
AcDbEntity
  8
1-1
  6
細い実線
 62
     7
100
AcDbLine
 10
712.478286
 20
140.32439
 30
0.0
 11
712.279963
 21
140.985467
 31
0.0
  0
LINE
  5
486
330
47C
100
AcDbEntity
  8
1-1
  6
細い実線
 62
     7
100
AcDbLine
 10
712.279963
 20
140.985467
 30
0.0
 11
713.61271
 21
141.025004
 31
0.0
  0
LINE
  5
487
330
47C
100
AcDbEntity
  8
1-1
  6
細い実線
 62
     7
100
AcDbLine
 10
713.61271
 20
141.025004
 30
0.0
 11
712.478286
 21
140.32439
 31
0.0
  0
TEXT
  5
488
330
47C
100
AcDbEntity
  8
1-1
  6
CONTINUOUS
 62
     7
100
AcDbText
 10
706.109766
 20
138.774137
 30
0.0
 40
2.0
  1
３５０
 50
16.699244
 41
0.666667
  7
FX_VECTOR
 72
     5
 11
709.941071
 21
139.923529
 31
0.0
100
AcDbText
  0
ENDBLK
  5
47E
330
47C
100
AcDbEntity
  8
0
100
AcDbBlockEnd
  0
BLOCK
  5
48A
330
489
100
AcDbEntity
  8
0
100
AcDbBlockBegin
  2
BLKF077
 70
     0
 71
     0
 10
0.0
 20
0.0
 30
0.0
  3
BLKF077
  1

  0
LINE
  5
48D
330
489
100
AcDbEntity
  8
1-1
  6
細い実線
 62
     7
100
AcDbLine
 10
717.731363
 20
135.996416
 30
0.0
 11
715.815711
 21
142.381925
 31
0.0
  0
LINE
  5
48E
330
489
100
AcDbEntity
  8
1-1
  6
細い実線
 62
     7
100
AcDbLine
 10
717.922928
 20
142.31807
 30
0.0
 11
711.697058
 21
140.450308
 31
0.0
  0
LINE
  5
48F
330
489
100
AcDbEntity
  8
1-1
  6
細い実線
 62
     7
100
AcDbLine
 10
712.478286
 20
140.32439
 30
0.0
 11
712.279963
 21
140.985467
 31
0.0
  0
LINE
  5
490
330
489
100
AcDbEntity
  8
1-1
  6
細い実線
 62
     7
100
AcDbLine
 10
712.279963
 20
140.985467
 30
0.0
 11
713.61271
 21
141.025004
 31
0.0
  0
LINE
  5
491
330
489
100
AcDbEntity
  8
1-1
  6
細い実線
 62
     7
100
AcDbLine
 10
713.61271
 20
141.025004
 30
0.0
 11
712.478286
 21
140.32439
 31
0.0
  0
LINE
  5
492
330
489
100
AcDbEntity
  8
1-1
  6
細い実線
 62
     7
100
AcDbLine
 10
717.1417
 20
142.443988
 30
0.0
 11
717.340023
 21
141.782911
 31
0.0
  0
LINE
  5
493
330
489
100
AcDbEntity
  8
1-1
  6
細い実線
 62
     7
100
AcDbLine
 10
717.340023
 20
141.782911
 30
0.0
 11
716.007276
 21
141.743374
 31
0.0
  0
LINE
  5
494
330
489
100
AcDbEntity
  8
1-1
  6
細い実線
 62
     7
100
AcDbLine
 10
716.007276
 20
141.743374
 30
0.0
 11
717.1417
 21
142.443988
 31
0.0
  0
TEXT
  5
495
330
489
100
AcDbEntity
  8
1-1
  6
CONTINUOUS
 62
     7
100
AcDbText
 10
713.341341
 20
141.639632
 30
0.0
 40
2.0
  1
７５
 50
16.699244
 41
0.666667
  7
FX_VECTOR
 72
     5
 11
715.895545
 21
142.405893
 31
0.0
100
AcDbText
  0
ENDBLK
  5
48B
330
489
100
AcDbEntity
  8
0
100
AcDbBlockEnd
  0
BLOCK
  5
497
330
496
100
AcDbEntity
  8
0
100
AcDbBlockBegin
  2
BLKF078
 70
     0
 71
     0
 10
0.0
 20
0.0
 30
0.0
  3
BLKF078
  1

  0
LINE
  5
49A
330
496
100
AcDbEntity
  8
1-1
  6
細い実線
 62
     7
100
AcDbLine
 10
704.162158
 20
131.925654
 30
0.0
 11
703.204331
 21
135.118409
 31
0.0
  0
LINE
  5
49B
330
496
100
AcDbEntity
  8
1-1
  6
細い実線
 62
     7
100
AcDbLine
 10
704.800708
 20
132.11722
 30
0.0
 11
703.842882
 21
135.309974
 31
0.0
  0
LINE
  5
49C
330
496
100
AcDbEntity
  8
1-1
  6
細い実線
 62
     7
100
AcDbLine
 10
705.9501
 20
135.246119
 30
0.0
 11
701.480244
 21
133.905162
 31
0.0
  0
LINE
  5
49D
330
496
100
AcDbEntity
  8
1-1
  6
細い実線
 62
     7
100
AcDbLine
 10
702.261472
 20
133.779244
 30
0.0
 11
702.063149
 21
134.44032
 31
0.0
  0
LINE
  5
49E
330
496
100
AcDbEntity
  8
1-1
  6
細い実線
 62
     7
100
AcDbLine
 10
702.063149
 20
134.44032
 30
0.0
 11
703.395896
 21
134.479858
 31
0.0
  0
LINE
  5
49F
330
496
100
AcDbEntity
  8
1-1
  6
細い実線
 62
     7
100
AcDbLine
 10
703.395896
 20
134.479858
 30
0.0
 11
702.261472
 21
133.779244
 31
0.0
  0
LINE
  5
4A0
330
496
100
AcDbEntity
  8
1-1
  6
細い実線
 62
     7
100
AcDbLine
 10
705.168871
 20
135.372037
 30
0.0
 11
705.367194
 21
134.71096
 31
0.0
  0
LINE
  5
4A1
330
496
100
AcDbEntity
  8
1-1
  6
細い実線
 62
     7
100
AcDbLine
 10
705.367194
 20
134.71096
 30
0.0
 11
704.034447
 21
134.671423
 31
0.0
  0
LINE
  5
4A2
330
496
100
AcDbEntity
  8
1-1
  6
細い実線
 62
     7
100
AcDbLine
 10
704.034447
 20
134.671423
 30
0.0
 11
705.168871
 21
135.372037
 31
0.0
  0
TEXT
  5
4A3
330
496
100
AcDbEntity
  8
1-1
  6
CONTINUOUS
 62
     7
100
AcDbText
 10
702.246549
 20
134.831063
 30
0.0
 40
2.0
  1
２０
 50
16.699244
 41
0.666667
  7
FX_VECTOR
 72
     5
 11
704.800753
 21
135.597324
 31
0.0
100
AcDbText
  0
ENDBLK
  5
498
330
496
100
AcDbEntity
  8
0
100
AcDbBlockEnd
  0
BLOCK
  5
4A5
330
4A4
100
AcDbEntity
  8
0
100
AcDbBlockBegin
  2
BLKF079
 70
     0
 71
     0
 10
0.0
 20
0.0
 30
0.0
  3
BLKF079
  1

  0
LINE
  5
4A8
330
4A4
100
AcDbEntity
  8
1-1
  6
細い実線
 62
     7
100
AcDbLine
 10
714.698247
 20
135.086481
 30
0.0
 11
713.74042
 21
138.279235
 31
0.0
  0
LINE
  5
4A9
330
4A4
100
AcDbEntity
  8
1-1
  6
細い実線
 62
     7
100
AcDbLine
 10
713.931986
 20
137.640685
 30
0.0
 11
704.034447
 21
134.671423
 31
0.0
  0
LINE
  5
4AA
330
4A4
100
AcDbEntity
  8
1-1
  6
細い実線
 62
     7
100
AcDbLine
 10
705.168871
 20
135.372037
 30
0.0
 11
705.367194
 21
134.71096
 31
0.0
  0
LINE
  5
4AB
330
4A4
100
AcDbEntity
  8
1-1
  6
細い実線
 62
     7
100
AcDbLine
 10
705.367194
 20
134.71096
 30
0.0
 11
704.034447
 21
134.671423
 31
0.0
  0
LINE
  5
4AC
330
4A4
100
AcDbEntity
  8
1-1
  6
細い実線
 62
     7
100
AcDbLine
 10
704.034447
 20
134.671423
 30
0.0
 11
705.168871
 21
135.372037
 31
0.0
  0
LINE
  5
4AD
330
4A4
100
AcDbEntity
  8
1-1
  6
細い実線
 62
     7
100
AcDbLine
 10
712.797562
 20
136.940071
 30
0.0
 11
712.599239
 21
137.601147
 31
0.0
  0
LINE
  5
4AE
330
4A4
100
AcDbEntity
  8
1-1
  6
細い実線
 62
     7
100
AcDbLine
 10
712.599239
 20
137.601147
 30
0.0
 11
713.931986
 21
137.640685
 31
0.0
  0
LINE
  5
4AF
330
4A4
100
AcDbEntity
  8
1-1
  6
細い実線
 62
     7
100
AcDbLine
 10
713.931986
 20
137.640685
 30
0.0
 11
712.797562
 21
136.940071
 31
0.0
  0
TEXT
  5
4B0
330
4A4
100
AcDbEntity
  8
1-1
  6
CONTINUOUS
 62
     7
100
AcDbText
 10
707.067578
 20
135.581356
 30
0.0
 40
2.0
  1
３１０
 50
16.699244
 41
0.666667
  7
FX_VECTOR
 72
     5
 11
710.898883
 21
136.730747
 31
0.0
100
AcDbText
  0
ENDBLK
  5
4A6
330
4A4
100
AcDbEntity
  8
0
100
AcDbBlockEnd
  0
BLOCK
  5
4B2
330
4B1
100
AcDbEntity
  8
0
100
AcDbBlockBegin
  2
BLKF080
 70
     0
 71
     0
 10
0.0
 20
0.0
 30
0.0
  3
BLKF080
  1

  0
LINE
  5
4B5
330
4B1
100
AcDbEntity
  8
1-1
  6
細い実線
 62
     7
100
AcDbLine
 10
715.336798
 20
135.278046
 30
0.0
 11
714.378971
 21
138.470801
 31
0.0
  0
LINE
  5
4B6
330
4B1
100
AcDbEntity
  8
1-1
  6
細い実線
 62
     7
100
AcDbLine
 10
716.486189
 20
138.406946
 30
0.0
 11
712.016333
 21
137.065989
 31
0.0
  0
LINE
  5
4B7
330
4B1
100
AcDbEntity
  8
1-1
  6
細い実線
 62
     7
100
AcDbLine
 10
712.797562
 20
136.940071
 30
0.0
 11
712.599239
 21
137.601147
 31
0.0
  0
LINE
  5
4B8
330
4B1
100
AcDbEntity
  8
1-1
  6
細い実線
 62
     7
100
AcDbLine
 10
712.599239
 20
137.601147
 30
0.0
 11
713.931986
 21
137.640685
 31
0.0
  0
LINE
  5
4B9
330
4B1
100
AcDbEntity
  8
1-1
  6
細い実線
 62
     7
100
AcDbLine
 10
713.931986
 20
137.640685
 30
0.0
 11
712.797562
 21
136.940071
 31
0.0
  0
LINE
  5
4BA
330
4B1
100
AcDbEntity
  8
1-1
  6
細い実線
 62
     7
100
AcDbLine
 10
715.704961
 20
138.532864
 30
0.0
 11
715.903283
 21
137.871787
 31
0.0
  0
LINE
  5
4BB
330
4B1
100
AcDbEntity
  8
1-1
  6
細い実線
 62
     7
100
AcDbLine
 10
715.903283
 20
137.871787
 30
0.0
 11
714.570536
 21
137.83225
 31
0.0
  0
LINE
  5
4BC
330
4B1
100
AcDbEntity
  8
1-1
  6
細い実線
 62
     7
100
AcDbLine
 10
714.570536
 20
137.83225
 30
0.0
 11
715.704961
 21
138.532864
 31
0.0
  0
TEXT
  5
4BD
330
4B1
100
AcDbEntity
  8
1-1
  6
CONTINUOUS
 62
     7
100
AcDbText
 10
712.782617
 20
137.991911
 30
0.0
 40
2.0
  1
２０
 50
16.699244
 41
0.666667
  7
FX_VECTOR
 72
     5
 11
715.336821
 21
138.758172
 31
0.0
100
AcDbText
  0
ENDBLK
  5
4B3
330
4B1
100
AcDbEntity
  8
0
100
AcDbBlockEnd
  0
BLOCK
  5
4BF
330
4BE
100
AcDbEntity
  8
0
100
AcDbBlockBegin
  2
BLKF081
 70
     0
 71
     0
 10
0.0
 20
0.0
 30
0.0
  3
BLKF081
  1

  0
LINE
  5
4C2
330
4BE
100
AcDbEntity
  8
1-1
  6
細い実線
 62
     7
100
AcDbLine
 10
705.801895
 20
115.439538
 30
0.0
 11
696.223632
 21
112.566059
 31
0.0
  0
LINE
  5
4C3
330
4BE
100
AcDbEntity
  8
1-1
  6
細い実線
 62
     7
100
AcDbLine
 10
703.79046
 20
122.144322
 30
0.0
 11
694.212197
 21
119.270843
 31
0.0
  0
LINE
  5
4C4
330
4BE
100
AcDbEntity
  8
1-1
  6
細い実線
 62
     7
100
AcDbLine
 10
694.850748
 20
119.462409
 30
0.0
 11
696.862183
 21
112.757625
 31
0.0
  0
LINE
  5
4C5
330
4BE
100
AcDbEntity
  8
1-1
  6
細い実線
 62
     7
100
AcDbLine
 10
696.161569
 20
113.892049
 30
0.0
 11
696.822646
 21
114.090372
 31
0.0
  0
LINE
  5
4C6
330
4BE
100
AcDbEntity
  8
1-1
  6
細い実線
 62
     7
100
AcDbLine
 10
696.822646
 20
114.090372
 30
0.0
 11
696.862183
 21
112.757625
 31
0.0
  0
LINE
  5
4C7
330
4BE
100
AcDbEntity
  8
1-1
  6
細い実線
 62
     7
100
AcDbLine
 10
696.862183
 20
112.757625
 30
0.0
 11
696.161569
 21
113.892049
 31
0.0
  0
LINE
  5
4C8
330
4BE
100
AcDbEntity
  8
1-1
  6
細い実線
 62
     7
100
AcDbLine
 10
695.551362
 20
118.327985
 30
0.0
 11
694.890285
 21
118.129662
 31
0.0
  0
LINE
  5
4C9
330
4BE
100
AcDbEntity
  8
1-1
  6
細い実線
 62
     7
100
AcDbLine
 10
694.890285
 20
118.129662
 30
0.0
 11
694.850748
 21
119.462409
 31
0.0
  0
LINE
  5
4CA
330
4BE
100
AcDbEntity
  8
1-1
  6
細い実線
 62
     7
100
AcDbLine
 10
694.850748
 20
119.462409
 30
0.0
 11
695.551362
 21
118.327985
 31
0.0
  0
TEXT
  5
4CB
330
4BE
100
AcDbEntity
  8
1-1
  6
CONTINUOUS
 62
     7
100
AcDbText
 10
695.281836
 20
118.025643
 30
0.0
 40
2.0
  1
２１０
 50
286.699249
 41
0.666667
  7
FX_VECTOR
 72
     5
 11
696.431228
 21
114.194338
 31
0.0
100
AcDbText
  0
ENDBLK
  5
4C0
330
4BE
100
AcDbEntity
  8
0
100
AcDbBlockEnd
  0
BLOCK
  5
4CD
330
4CC
100
AcDbEntity
  8
0
100
AcDbBlockBegin
  2
BLKF082
 70
     0
 71
     0
 10
0.0
 20
0.0
 30
0.0
  3
BLKF082
  1

  0
LINE
  5
4D0
330
4CC
100
AcDbEntity
  8
1-1
  6
細い実線
 62
     7
100
AcDbLine
 10
705.801895
 20
115.439538
 30
0.0
 11
701.012764
 21
114.002799
 31
0.0
  0
LINE
  5
4D1
330
4CC
100
AcDbEntity
  8
1-1
  6
細い実線
 62
     7
100
AcDbLine
 10
705.514547
 20
116.397365
 30
0.0
 11
700.725416
 21
114.960625
 31
0.0
  0
LINE
  5
4D2
330
4CC
100
AcDbEntity
  8
1-1
  6
細い実線
 62
     7
100
AcDbLine
 10
700.789271
 20
117.067843
 30
0.0
 11
702.22601
 21
112.278712
 31
0.0
  0
LINE
  5
4D3
330
4CC
100
AcDbEntity
  8
1-1
  6
細い実線
 62
     7
100
AcDbLine
 10
702.351929
 20
113.05994
 30
0.0
 11
701.690852
 21
112.861617
 31
0.0
  0
LINE
  5
4D4
330
4CC
100
AcDbEntity
  8
1-1
  6
細い実線
 62
     7
100
AcDbLine
 10
701.690852
 20
112.861617
 30
0.0
 11
701.651315
 21
114.194364
 31
0.0
  0
LINE
  5
4D5
330
4CC
100
AcDbEntity
  8
1-1
  6
細い実線
 62
     7
100
AcDbLine
 10
701.651315
 20
114.194364
 30
0.0
 11
702.351929
 21
113.05994
 31
0.0
  0
LINE
  5
4D6
330
4CC
100
AcDbEntity
  8
1-1
  6
細い実線
 62
     7
100
AcDbLine
 10
700.663353
 20
116.286614
 30
0.0
 11
701.324429
 21
116.484937
 31
0.0
  0
LINE
  5
4D7
330
4CC
100
AcDbEntity
  8
1-1
  6
細い実線
 62
     7
100
AcDbLine
 10
701.324429
 20
116.484937
 30
0.0
 11
701.363967
 21
115.15219
 31
0.0
  0
LINE
  5
4D8
330
4CC
100
AcDbEntity
  8
1-1
  6
細い実線
 62
     7
100
AcDbLine
 10
701.363967
 20
115.15219
 30
0.0
 11
700.663353
 21
116.286614
 31
0.0
  0
TEXT
  5
4D9
330
4CC
100
AcDbEntity
  8
1-1
  6
CONTINUOUS
 62
     7
100
AcDbText
 10
702.107096
 20
112.675155
 30
0.0
 40
2.0
  1
３０
 50
286.699249
 41
0.666667
  7
FX_VECTOR
 72
     5
 11
702.873358
 21
110.120951
 31
0.0
100
AcDbText
  0
ENDBLK
  5
4CE
330
4CC
100
AcDbEntity
  8
0
100
AcDbBlockEnd
  0
BLOCK
  5
4DB
330
4DA
100
AcDbEntity
  8
0
100
AcDbBlockBegin
  2
BLKF083
 70
     0
 71
     0
 10
0.0
 20
0.0
 30
0.0
  3
BLKF083
  1

  0
LINE
  5
4DE
330
4DA
100
AcDbEntity
  8
1-1
  6
細い実線
 62
     7
100
AcDbLine
 10
705.514547
 20
116.397365
 30
0.0
 11
700.725416
 21
114.960625
 31
0.0
  0
LINE
  5
4DF
330
4DA
100
AcDbEntity
  8
1-1
  6
細い実線
 62
     7
100
AcDbLine
 10
704.077808
 20
121.186496
 30
0.0
 11
699.288677
 21
119.749757
 31
0.0
  0
LINE
  5
4E0
330
4DA
100
AcDbEntity
  8
1-1
  6
細い実線
 62
     7
100
AcDbLine
 10
699.927227
 20
119.941322
 30
0.0
 11
701.363967
 21
115.15219
 31
0.0
  0
LINE
  5
4E1
330
4DA
100
AcDbEntity
  8
1-1
  6
細い実線
 62
     7
100
AcDbLine
 10
700.663353
 20
116.286614
 30
0.0
 11
701.324429
 21
116.484937
 31
0.0
  0
LINE
  5
4E2
330
4DA
100
AcDbEntity
  8
1-1
  6
細い実線
 62
     7
100
AcDbLine
 10
701.324429
 20
116.484937
 30
0.0
 11
701.363967
 21
115.15219
 31
0.0
  0
LINE
  5
4E3
330
4DA
100
AcDbEntity
  8
1-1
  6
細い実線
 62
     7
100
AcDbLine
 10
701.363967
 20
115.15219
 30
0.0
 11
700.663353
 21
116.286614
 31
0.0
  0
LINE
  5
4E4
330
4DA
100
AcDbEntity
  8
1-1
  6
細い実線
 62
     7
100
AcDbLine
 10
700.627841
 20
118.806898
 30
0.0
 11
699.966765
 21
118.608575
 31
0.0
  0
LINE
  5
4E5
330
4DA
100
AcDbEntity
  8
1-1
  6
細い実線
 62
     7
100
AcDbLine
 10
699.966765
 20
118.608575
 30
0.0
 11
699.927227
 21
119.941322
 31
0.0
  0
LINE
  5
4E6
330
4DA
100
AcDbEntity
  8
1-1
  6
細い実線
 62
     7
100
AcDbLine
 10
699.927227
 20
119.941322
 30
0.0
 11
700.627841
 21
118.806898
 31
0.0
  0
TEXT
  5
4E7
330
4DA
100
AcDbEntity
  8
1-1
  6
CONTINUOUS
 62
     7
100
AcDbText
 10
700.070964
 20
119.462394
 30
0.0
 40
2.0
  1
１５０
 50
286.699249
 41
0.666667
  7
FX_VECTOR
 72
     5
 11
701.220355
 21
115.631089
 31
0.0
100
AcDbText
  0
ENDBLK
  5
4DC
330
4DA
100
AcDbEntity
  8
0
100
AcDbBlockEnd
  0
BLOCK
  5
4E9
330
4E8
100
AcDbEntity
  8
0
100
AcDbBlockBegin
  2
BLKF084
 70
     0
 71
     0
 10
0.0
 20
0.0
 30
0.0
  3
BLKF084
  1

  0
LINE
  5
4EC
330
4E8
100
AcDbEntity
  8
1-1
  6
細い実線
 62
     7
100
AcDbLine
 10
703.79046
 20
122.144322
 30
0.0
 11
699.001329
 21
120.707583
 31
0.0
  0
LINE
  5
4ED
330
4E8
100
AcDbEntity
  8
1-1
  6
細い実線
 62
     7
100
AcDbLine
 10
699.065184
 20
122.814801
 30
0.0
 11
700.501923
 21
118.025669
 31
0.0
  0
LINE
  5
4EE
330
4E8
100
AcDbEntity
  8
1-1
  6
細い実線
 62
     7
100
AcDbLine
 10
700.627841
 20
118.806898
 30
0.0
 11
699.966765
 21
118.608575
 31
0.0
  0
LINE
  5
4EF
330
4E8
100
AcDbEntity
  8
1-1
  6
細い実線
 62
     7
100
AcDbLine
 10
699.966765
 20
118.608575
 30
0.0
 11
699.927227
 21
119.941322
 31
0.0
  0
LINE
  5
4F0
330
4E8
100
AcDbEntity
  8
1-1
  6
細い実線
 62
     7
100
AcDbLine
 10
699.927227
 20
119.941322
 30
0.0
 11
700.627841
 21
118.806898
 31
0.0
  0
LINE
  5
4F1
330
4E8
100
AcDbEntity
  8
1-1
  6
細い実線
 62
     7
100
AcDbLine
 10
698.939266
 20
122.033572
 30
0.0
 11
699.600342
 21
122.231895
 31
0.0
  0
LINE
  5
4F2
330
4E8
100
AcDbEntity
  8
1-1
  6
細い実線
 62
     7
100
AcDbLine
 10
699.600342
 20
122.231895
 30
0.0
 11
699.639879
 21
120.899148
 31
0.0
  0
LINE
  5
4F3
330
4E8
100
AcDbEntity
  8
1-1
  6
細い実線
 62
     7
100
AcDbLine
 10
699.639879
 20
120.899148
 30
0.0
 11
698.939266
 21
122.033572
 31
0.0
  0
TEXT
  5
4F4
330
4E8
100
AcDbEntity
  8
1-1
  6
CONTINUOUS
 62
     7
100
AcDbText
 10
696.846224
 20
120.931079
 30
0.0
 40
2.0
  1
３０
 50
286.699249
 41
0.666667
  7
FX_VECTOR
 72
     5
 11
697.612485
 21
118.376876
 31
0.0
100
AcDbText
  0
ENDBLK
  5
4EA
330
4E8
100
AcDbEntity
  8
0
100
AcDbBlockEnd
  0
BLOCK
  5
4F6
330
4F5
100
AcDbEntity
  8
0
100
AcDbBlockBegin
  2
BLKF085
 70
     0
 71
     0
 10
0.0
 20
0.0
 30
0.0
  3
BLKF085
  1

  0
LINE
  5
4F9
330
4F5
100
AcDbEntity
  8
1-1
  6
細い実線
 62
     7
100
AcDbLine
 10
705.933117
 20
115.002131
 30
0.0
 11
696.354855
 21
112.128652
 31
0.0
  0
LINE
  5
4FA
330
4F5
100
AcDbEntity
  8
1-1
  6
細い実線
 62
     7
100
AcDbLine
 10
705.801895
 20
115.439538
 30
0.0
 11
696.223632
 21
112.566059
 31
0.0
  0
LINE
  5
4FB
330
4F5
100
AcDbEntity
  8
1-1
  6
細い実線
 62
     7
100
AcDbLine
 10
696.287487
 20
114.673277
 30
0.0
 11
697.568101
 21
110.404565
 31
0.0
  0
LINE
  5
4FC
330
4F5
100
AcDbEntity
  8
1-1
  6
細い実線
 62
     7
100
AcDbLine
 10
697.694019
 20
111.185793
 30
0.0
 11
697.032943
 21
110.98747
 31
0.0
  0
LINE
  5
4FD
330
4F5
100
AcDbEntity
  8
1-1
  6
細い実線
 62
     7
100
AcDbLine
 10
697.032943
 20
110.98747
 30
0.0
 11
696.993405
 21
112.320217
 31
0.0
  0
LINE
  5
4FE
330
4F5
100
AcDbEntity
  8
1-1
  6
細い実線
 62
     7
100
AcDbLine
 10
696.993405
 20
112.320217
 30
0.0
 11
697.694019
 21
111.185793
 31
0.0
  0
LINE
  5
4FF
330
4F5
100
AcDbEntity
  8
1-1
  6
細い実線
 62
     7
100
AcDbLine
 10
696.161569
 20
113.892049
 30
0.0
 11
696.822646
 21
114.090372
 31
0.0
  0
LINE
  5
500
330
4F5
100
AcDbEntity
  8
1-1
  6
細い実線
 62
     7
100
AcDbLine
 10
696.822646
 20
114.090372
 30
0.0
 11
696.862183
 21
112.757625
 31
0.0
  0
LINE
  5
501
330
4F5
100
AcDbEntity
  8
1-1
  6
細い実線
 62
     7
100
AcDbLine
 10
696.862183
 20
112.757625
 30
0.0
 11
696.161569
 21
113.892049
 31
0.0
  0
TEXT
  5
502
330
4F5
100
AcDbEntity
  8
1-1
  6
CONTINUOUS
 62
     7
100
AcDbText
 10
693.424674
 20
113.322095
 30
0.0
 40
2.0
  1
１３．７
 50
286.699249
 41
0.666667
  7
FX_VECTOR
 72
     5
 11
694.957197
 21
108.213688
 31
0.0
100
AcDbText
  0
ENDBLK
  5
4F7
330
4F5
100
AcDbEntity
  8
0
100
AcDbBlockEnd
  0
BLOCK
  5
504
330
503
100
AcDbEntity
  8
0
100
AcDbBlockBegin
  2
BLKF086
 70
     0
 71
     0
 10
0.0
 20
0.0
 30
0.0
  3
BLKF086
  1

  0
LINE
  5
507
330
503
100
AcDbEntity
  8
1-1
  6
細い実線
 62
     7
100
AcDbLine
 10
724.61073
 20
115.385261
 30
0.0
 11
730.996239
 21
117.300914
 31
0.0
  0
LINE
  5
508
330
503
100
AcDbEntity
  8
1-1
  6
細い実線
 62
     7
100
AcDbLine
 10
720.77873
 20
128.158595
 30
0.0
 11
727.164239
 21
130.074247
 31
0.0
  0
LINE
  5
509
330
503
100
AcDbEntity
  8
1-1
  6
細い実線
 62
     7
100
AcDbLine
 10
726.525688
 20
129.882682
 30
0.0
 11
730.357688
 21
117.109349
 31
0.0
  0
LINE
  5
50A
330
503
100
AcDbEntity
  8
1-1
  6
細い実線
 62
     7
100
AcDbLine
 10
729.657074
 20
118.243773
 30
0.0
 11
730.31815
 21
118.442096
 31
0.0
  0
LINE
  5
50B
330
503
100
AcDbEntity
  8
1-1
  6
細い実線
 62
     7
100
AcDbLine
 10
730.31815
 20
118.442096
 30
0.0
 11
730.357688
 21
117.109349
 31
0.0
  0
LINE
  5
50C
330
503
100
AcDbEntity
  8
1-1
  6
細い実線
 62
     7
100
AcDbLine
 10
730.357688
 20
117.109349
 30
0.0
 11
729.657074
 21
118.243773
 31
0.0
  0
LINE
  5
50D
330
503
100
AcDbEntity
  8
1-1
  6
細い実線
 62
     7
100
AcDbLine
 10
727.226302
 20
128.748258
 30
0.0
 11
726.565225
 21
128.549935
 31
0.0
  0
LINE
  5
50E
330
503
100
AcDbEntity
  8
1-1
  6
細い実線
 62
     7
100
AcDbLine
 10
726.565225
 20
128.549935
 30
0.0
 11
726.525688
 21
129.882682
 31
0.0
  0
LINE
  5
50F
330
503
100
AcDbEntity
  8
1-1
  6
細い実線
 62
     7
100
AcDbLine
 10
726.525688
 20
129.882682
 30
0.0
 11
727.226302
 21
128.748258
 31
0.0
  0
TEXT
  5
510
330
503
100
AcDbEntity
  8
1-1
  6
CONTINUOUS
 62
     7
100
AcDbText
 10
727.866992
 20
125.411646
 30
0.0
 40
2.0
  1
４００
 50
286.699249
 41
0.666667
  7
FX_VECTOR
 72
     5
 11
729.016384
 21
121.58034
 31
0.0
100
AcDbText
  0
ENDBLK
  5
505
330
503
100
AcDbEntity
  8
0
100
AcDbBlockEnd
  0
BLOCK
  5
512
330
511
100
AcDbEntity
  8
0
100
AcDbBlockBegin
  2
BLKF087
 70
     0
 71
     0
 10
0.0
 20
0.0
 30
0.0
  3
BLKF087
  1

  0
LINE
  5
515
330
511
100
AcDbEntity
  8
1-1
  6
細い実線
 62
     7
100
AcDbLine
 10
708.801215
 20
107.761873
 30
0.0
 11
712.632521
 21
94.990855
 31
0.0
  0
LINE
  5
516
330
511
100
AcDbEntity
  8
1-1
  6
細い実線
 62
     7
100
AcDbLine
 10
724.764987
 20
112.551004
 30
0.0
 11
728.596292
 21
99.779987
 31
0.0
  0
LINE
  5
517
330
511
100
AcDbEntity
  8
1-1
  6
細い実線
 62
     7
100
AcDbLine
 10
728.404727
 20
100.418538
 30
0.0
 11
712.440955
 21
95.629406
 31
0.0
  0
LINE
  5
518
330
511
100
AcDbEntity
  8
1-1
  6
細い実線
 62
     7
100
AcDbLine
 10
713.575379
 20
96.33002
 30
0.0
 11
713.773702
 21
95.668944
 31
0.0
  0
LINE
  5
519
330
511
100
AcDbEntity
  8
1-1
  6
細い実線
 62
     7
100
AcDbLine
 10
713.773702
 20
95.668944
 30
0.0
 11
712.440955
 21
95.629406
 31
0.0
  0
LINE
  5
51A
330
511
100
AcDbEntity
  8
1-1
  6
細い実線
 62
     7
100
AcDbLine
 10
712.440955
 20
95.629406
 30
0.0
 11
713.575379
 21
96.33002
 31
0.0
  0
LINE
  5
51B
330
511
100
AcDbEntity
  8
1-1
  6
細い実線
 62
     7
100
AcDbLine
 10
727.270303
 20
99.717924
 30
0.0
 11
727.07198
 21
100.379
 31
0.0
  0
LINE
  5
51C
330
511
100
AcDbEntity
  8
1-1
  6
細い実線
 62
     7
100
AcDbLine
 10
727.07198
 20
100.379
 30
0.0
 11
728.404727
 21
100.418538
 31
0.0
  0
LINE
  5
51D
330
511
100
AcDbEntity
  8
1-1
  6
細い実線
 62
     7
100
AcDbLine
 10
728.404727
 20
100.418538
 30
0.0
 11
727.270303
 21
99.717924
 31
0.0
  0
TEXT
  5
51E
330
511
100
AcDbEntity
  8
1-1
  6
CONTINUOUS
 62
     7
100
AcDbText
 10
718.507227
 20
97.449276
 30
0.0
 40
2.0
  1
５００
 50
16.699244
 41
0.666667
  7
FX_VECTOR
 72
     5
 11
722.338532
 21
98.598667
 31
0.0
100
AcDbText
  0
ENDBLK
  5
513
330
511
100
AcDbEntity
  8
0
100
AcDbBlockEnd
  0
BLOCK
  5
520
330
51F
100
AcDbEntity
  8
0
100
AcDbBlockBegin
  2
BLKF088
 70
     0
 71
     0
 10
0.0
 20
0.0
 30
0.0
  3
BLKF088
  1

  0
LINE
  5
523
330
51F
100
AcDbEntity
  8
1-1
  6
細い実線
 62
     7
100
AcDbLine
 10
725.882451
 20
112.886243
 30
0.0
 11
729.713756
 21
100.115226
 31
0.0
  0
LINE
  5
524
330
51F
100
AcDbEntity
  8
1-1
  6
細い実線
 62
     7
100
AcDbLine
 10
731.437843
 20
101.328473
 30
0.0
 11
726.489074
 21
99.843842
 31
0.0
  0
LINE
  5
525
330
51F
100
AcDbEntity
  8
1-1
  6
細い実線
 62
     7
100
AcDbLine
 10
727.270303
 20
99.717924
 30
0.0
 11
727.07198
 21
100.379
 31
0.0
  0
LINE
  5
526
330
51F
100
AcDbEntity
  8
1-1
  6
細い実線
 62
     7
100
AcDbLine
 10
727.07198
 20
100.379
 30
0.0
 11
728.404727
 21
100.418538
 31
0.0
  0
LINE
  5
527
330
51F
100
AcDbEntity
  8
1-1
  6
細い実線
 62
     7
100
AcDbLine
 10
728.404727
 20
100.418538
 30
0.0
 11
727.270303
 21
99.717924
 31
0.0
  0
LINE
  5
528
330
51F
100
AcDbEntity
  8
1-1
  6
細い実線
 62
     7
100
AcDbLine
 10
730.656615
 20
101.454391
 30
0.0
 11
730.854938
 21
100.793314
 31
0.0
  0
LINE
  5
529
330
51F
100
AcDbEntity
  8
1-1
  6
細い実線
 62
     7
100
AcDbLine
 10
730.854938
 20
100.793314
 30
0.0
 11
729.522191
 21
100.753777
 31
0.0
  0
LINE
  5
52A
330
51F
100
AcDbEntity
  8
1-1
  6
細い実線
 62
     7
100
AcDbLine
 10
729.522191
 20
100.753777
 30
0.0
 11
730.656615
 21
101.454391
 31
0.0
  0
TEXT
  5
52B
330
51F
100
AcDbEntity
  8
1-1
  6
CONTINUOUS
 62
     7
100
AcDbText
 10
728.452669
 20
97.64882
 30
0.0
 40
2.0
  1
３５
 50
16.699244
 41
0.666667
  7
FX_VECTOR
 72
     5
 11
731.006873
 21
98.415081
 31
0.0
100
AcDbText
  0
ENDBLK
  5
521
330
51F
100
AcDbEntity
  8
0
100
AcDbBlockEnd
  0
BLOCK
  5
52D
330
52C
100
AcDbEntity
  8
0
100
AcDbBlockBegin
  2
BLKF089
 70
     0
 71
     0
 10
0.0
 20
0.0
 30
0.0
  3
BLKF089
  1

  0
LINE
  5
530
330
52C
100
AcDbEntity
  8
1-1
  6
細い実線
 62
     7
100
AcDbLine
 10
710.237955
 20
108.192894
 30
0.0
 11
712.153607
 21
101.807386
 31
0.0
  0
LINE
  5
531
330
52C
100
AcDbEntity
  8
1-1
  6
細い実線
 62
     7
100
AcDbLine
 10
713.877695
 20
103.020633
 30
0.0
 11
708.60965
 21
101.440219
 31
0.0
  0
LINE
  5
532
330
52C
100
AcDbEntity
  8
1-1
  6
細い実線
 62
     7
100
AcDbLine
 10
709.390879
 20
101.314301
 30
0.0
 11
709.192556
 21
101.975377
 31
0.0
  0
LINE
  5
533
330
52C
100
AcDbEntity
  8
1-1
  6
細い実線
 62
     7
100
AcDbLine
 10
709.192556
 20
101.975377
 30
0.0
 11
710.525303
 21
102.014915
 31
0.0
  0
LINE
  5
534
330
52C
100
AcDbEntity
  8
1-1
  6
細い実線
 62
     7
100
AcDbLine
 10
710.525303
 20
102.014915
 30
0.0
 11
709.390879
 21
101.314301
 31
0.0
  0
LINE
  5
535
330
52C
100
AcDbEntity
  8
1-1
  6
細い実線
 62
     7
100
AcDbLine
 10
713.096466
 20
103.146551
 30
0.0
 11
713.294789
 21
102.485474
 31
0.0
  0
LINE
  5
536
330
52C
100
AcDbEntity
  8
1-1
  6
細い実線
 62
     7
100
AcDbLine
 10
713.294789
 20
102.485474
 30
0.0
 11
711.962042
 21
102.445937
 31
0.0
  0
LINE
  5
537
330
52C
100
AcDbEntity
  8
1-1
  6
細い実線
 62
     7
100
AcDbLine
 10
711.962042
 20
102.445937
 30
0.0
 11
713.096466
 21
103.146551
 31
0.0
  0
TEXT
  5
538
330
52C
100
AcDbEntity
  8
1-1
  6
CONTINUOUS
 62
     7
100
AcDbText
 10
711.646289
 20
98.927726
 30
0.0
 40
2.0
  1
４５
 50
16.699244
 41
0.666667
  7
FX_VECTOR
 72
     5
 11
714.200492
 21
99.693987
 31
0.0
100
AcDbText
  0
ENDBLK
  5
52E
330
52C
100
AcDbEntity
  8
0
100
AcDbBlockEnd
  0
BLOCK
  5
53A
330
539
100
AcDbEntity
  8
0
100
AcDbBlockBegin
  2
BLKF090
 70
     0
 71
     0
 10
0.0
 20
0.0
 30
0.0
  3
BLKF090
  1

  0
LINE
  5
53D
330
539
100
AcDbEntity
  8
1-1
  6
細い実線
 62
     7
100
AcDbLine
 10
723.328247
 20
112.119982
 30
0.0
 11
725.2439
 21
105.734474
 31
0.0
  0
LINE
  5
53E
330
539
100
AcDbEntity
  8
1-1
  6
細い実線
 62
     7
100
AcDbLine
 10
725.052335
 20
106.373025
 30
0.0
 11
711.962042
 21
102.445937
 31
0.0
  0
LINE
  5
53F
330
539
100
AcDbEntity
  8
1-1
  6
細い実線
 62
     7
100
AcDbLine
 10
713.096466
 20
103.146551
 30
0.0
 11
713.294789
 21
102.485474
 31
0.0
  0
LINE
  5
540
330
539
100
AcDbEntity
  8
1-1
  6
細い実線
 62
     7
100
AcDbLine
 10
713.294789
 20
102.485474
 30
0.0
 11
711.962042
 21
102.445937
 31
0.0
  0
LINE
  5
541
330
539
100
AcDbEntity
  8
1-1
  6
細い実線
 62
     7
100
AcDbLine
 10
711.962042
 20
102.445937
 30
0.0
 11
713.096466
 21
103.146551
 31
0.0
  0
LINE
  5
542
330
539
100
AcDbEntity
  8
1-1
  6
細い実線
 62
     7
100
AcDbLine
 10
723.917911
 20
105.672411
 30
0.0
 11
723.719588
 21
106.333487
 31
0.0
  0
LINE
  5
543
330
539
100
AcDbEntity
  8
1-1
  6
細い実線
 62
     7
100
AcDbLine
 10
723.719588
 20
106.333487
 30
0.0
 11
725.052335
 21
106.373025
 31
0.0
  0
LINE
  5
544
330
539
100
AcDbEntity
  8
1-1
  6
細い実線
 62
     7
100
AcDbLine
 10
725.052335
 20
106.373025
 30
0.0
 11
723.917911
 21
105.672411
 31
0.0
  0
TEXT
  5
545
330
539
100
AcDbEntity
  8
1-1
  6
CONTINUOUS
 62
     7
100
AcDbText
 10
716.591536
 20
103.83479
 30
0.0
 40
2.0
  1
４１０
 50
16.699244
 41
0.666667
  7
FX_VECTOR
 72
     5
 11
720.422842
 21
104.984182
 31
0.0
100
AcDbText
  0
ENDBLK
  5
53B
330
539
100
AcDbEntity
  8
0
100
AcDbBlockEnd
  0
BLOCK
  5
547
330
546
100
AcDbEntity
  8
0
100
AcDbBlockBegin
  2
BLKF091
 70
     0
 71
     0
 10
0.0
 20
0.0
 30
0.0
  3
BLKF091
  1

  0
LINE
  5
54A
330
546
100
AcDbEntity
  8
1-1
  6
細い実線
 62
     7
100
AcDbLine
 10
728.404727
 20
107.378742
 30
0.0
 11
723.136682
 21
105.798329
 31
0.0
  0
LINE
  5
54B
330
546
100
AcDbEntity
  8
1-1
  6
細い実線
 62
     7
100
AcDbLine
 10
723.917911
 20
105.672411
 30
0.0
 11
723.719588
 21
106.333487
 31
0.0
  0
LINE
  5
54C
330
546
100
AcDbEntity
  8
1-1
  6
細い実線
 62
     7
100
AcDbLine
 10
723.719588
 20
106.333487
 30
0.0
 11
725.052335
 21
106.373025
 31
0.0
  0
LINE
  5
54D
330
546
100
AcDbEntity
  8
1-1
  6
細い実線
 62
     7
100
AcDbLine
 10
725.052335
 20
106.373025
 30
0.0
 11
723.917911
 21
105.672411
 31
0.0
  0
LINE
  5
54E
330
546
100
AcDbEntity
  8
1-1
  6
細い実線
 62
     7
100
AcDbLine
 10
727.623498
 20
107.50466
 30
0.0
 11
727.821821
 21
106.843584
 31
0.0
  0
LINE
  5
54F
330
546
100
AcDbEntity
  8
1-1
  6
細い実線
 62
     7
100
AcDbLine
 10
727.821821
 20
106.843584
 30
0.0
 11
726.489074
 21
106.804046
 31
0.0
  0
LINE
  5
550
330
546
100
AcDbEntity
  8
1-1
  6
細い実線
 62
     7
100
AcDbLine
 10
726.489074
 20
106.804046
 30
0.0
 11
727.623498
 21
107.50466
 31
0.0
  0
TEXT
  5
551
330
546
100
AcDbEntity
  8
1-1
  6
CONTINUOUS
 62
     7
100
AcDbText
 10
724.711849
 20
103.011808
 30
0.0
 40
2.0
  1
４５
 50
16.699244
 41
0.666667
  7
FX_VECTOR
 72
     5
 11
727.266052
 21
103.778069
 31
0.0
100
AcDbText
  0
ENDBLK
  5
548
330
546
100
AcDbEntity
  8
0
100
AcDbBlockEnd
  0
BLOCK
  5
562
330
561
100
AcDbEntity
  8
0
100
AcDbBlockBegin
  2
BLKF092
 70
     0
 71
     0
 10
0.0
 20
0.0
 30
0.0
  3
BLKF092
  1

  0
LINE
  5
565
330
561
100
AcDbEntity
  8
1-1
  6
細い実線
 62
     7
100
AcDbLine
 10
705.905002
 20
115.193696
 30
0.0
 11
692.105002
 21
115.193696
 31
0.0
  0
LINE
  5
566
330
561
100
AcDbEntity
  8
1-1
  6
細い実線
 62
     7
100
AcDbLine
 10
702.105002
 20
127.860363
 30
0.0
 11
692.105002
 21
127.860363
 31
0.0
  0
LINE
  5
567
330
561
100
AcDbEntity
  8
1-1
  6
細い実線
 62
     7
100
AcDbLine
 10
692.771668
 20
127.860363
 30
0.0
 11
692.771668
 21
115.193696
 31
0.0
  0
LINE
  5
568
330
561
100
AcDbEntity
  8
1-1
  6
細い実線
 62
     7
100
AcDbLine
 10
692.426576
 20
116.481597
 30
0.0
 11
693.11676
 21
116.481597
 31
0.0
  0
LINE
  5
569
330
561
100
AcDbEntity
  8
1-1
  6
細い実線
 62
     7
100
AcDbLine
 10
693.11676
 20
116.481597
 30
0.0
 11
692.771668
 21
115.193696
 31
0.0
  0
LINE
  5
56A
330
561
100
AcDbEntity
  8
1-1
  6
細い実線
 62
     7
100
AcDbLine
 10
692.771668
 20
115.193696
 30
0.0
 11
692.426576
 21
116.481597
 31
0.0
  0
LINE
  5
56B
330
561
100
AcDbEntity
  8
1-1
  6
細い実線
 62
     7
100
AcDbLine
 10
693.11676
 20
126.572462
 30
0.0
 11
692.426576
 21
126.572462
 31
0.0
  0
LINE
  5
56C
330
561
100
AcDbEntity
  8
1-1
  6
細い実線
 62
     7
100
AcDbLine
 10
692.426576
 20
126.572462
 30
0.0
 11
692.771668
 21
127.860363
 31
0.0
  0
LINE
  5
56D
330
561
100
AcDbEntity
  8
1-1
  6
細い実線
 62
     7
100
AcDbLine
 10
692.771668
 20
127.860363
 30
0.0
 11
693.11676
 21
126.572462
 31
0.0
  0
TEXT
  5
56E
330
561
100
AcDbEntity
  8
1-1
  6
CONTINUOUS
 62
     7
100
AcDbText
 10
692.77168
 20
119.52701
 30
0.0
 40
2.0
  1
３８０
 50
90.0
 41
0.666667
  7
FX_VECTOR
 72
     5
 11
692.77168
 21
123.52701
 31
0.0
100
AcDbText
  0
ENDBLK
  5
563
330
561
100
AcDbEntity
  8
0
100
AcDbBlockEnd
  0
BLOCK
  5
570
330
56F
100
AcDbEntity
  8
0
100
AcDbBlockBegin
  2
BLKF093
 70
     0
 71
     0
 10
0.0
 20
0.0
 30
0.0
  3
BLKF093
  1

  0
LINE
  5
573
330
56F
100
AcDbEntity
  8
1-1
  6
細い実線
 62
     7
100
AcDbLine
 10
702.105002
 20
127.860363
 30
0.0
 11
692.105002
 21
127.860363
 31
0.0
  0
LINE
  5
574
330
56F
100
AcDbEntity
  8
1-1
  6
細い実線
 62
     7
100
AcDbLine
 10
711.802998
 20
131.300363
 30
0.0
 11
692.105002
 21
131.300363
 31
0.0
  0
LINE
  5
575
330
56F
100
AcDbEntity
  8
1-1
  6
細い実線
 62
     7
100
AcDbLine
 10
692.771668
 20
131.300363
 30
0.0
 11
692.771668
 21
127.860363
 31
0.0
  0
LINE
  5
576
330
56F
100
AcDbEntity
  8
1-1
  6
細い実線
 62
     7
100
AcDbLine
 10
692.426576
 20
129.148264
 30
0.0
 11
693.11676
 21
129.148264
 31
0.0
  0
LINE
  5
577
330
56F
100
AcDbEntity
  8
1-1
  6
細い実線
 62
     7
100
AcDbLine
 10
693.11676
 20
129.148264
 30
0.0
 11
692.771668
 21
127.860363
 31
0.0
  0
LINE
  5
578
330
56F
100
AcDbEntity
  8
1-1
  6
細い実線
 62
     7
100
AcDbLine
 10
692.771668
 20
127.860363
 30
0.0
 11
692.426576
 21
129.148264
 31
0.0
  0
LINE
  5
579
330
56F
100
AcDbEntity
  8
1-1
  6
細い実線
 62
     7
100
AcDbLine
 10
693.11676
 20
130.012462
 30
0.0
 11
692.426576
 21
130.012462
 31
0.0
  0
LINE
  5
57A
330
56F
100
AcDbEntity
  8
1-1
  6
細い実線
 62
     7
100
AcDbLine
 10
692.426576
 20
130.012462
 30
0.0
 11
692.771668
 21
131.300363
 31
0.0
  0
LINE
  5
57B
330
56F
100
AcDbEntity
  8
1-1
  6
細い実線
 62
     7
100
AcDbLine
 10
692.771668
 20
131.300363
 30
0.0
 11
693.11676
 21
130.012462
 31
0.0
  0
TEXT
  5
57C
330
56F
100
AcDbEntity
  8
1-1
  6
CONTINUOUS
 62
     7
100
AcDbText
 10
692.105013
 20
126.24703
 30
0.0
 40
2.0
  1
１０３．２
 50
90.0
 41
0.666667
  7
FX_VECTOR
 72
     5
 11
692.105013
 21
132.913696
 31
0.0
100
AcDbText
  0
ENDBLK
  5
571
330
56F
100
AcDbEntity
  8
0
100
AcDbBlockEnd
  0
BLOCK
  5
57E
330
57D
100
AcDbEntity
  8
0
100
AcDbBlockBegin
  2
BLKF094
 70
     0
 71
     0
 10
0.0
 20
0.0
 30
0.0
  3
BLKF094
  1

  0
LINE
  5
581
330
57D
100
AcDbEntity
  8
1-1
  6
細い実線
 62
     7
100
AcDbLine
 10
701.767592
 20
131.207285
 30
0.0
 11
698.894113
 21
140.785547
 31
0.0
  0
LINE
  5
582
330
57D
100
AcDbEntity
  8
1-1
  6
細い実線
 62
     7
100
AcDbLine
 10
717.731363
 20
135.996416
 30
0.0
 11
714.857884
 21
145.574679
 31
0.0
  0
LINE
  5
583
330
57D
100
AcDbEntity
  8
1-1
  6
細い実線
 62
     7
100
AcDbLine
 10
715.04945
 20
144.936128
 30
0.0
 11
699.085678
 21
140.146997
 31
0.0
  0
LINE
  5
584
330
57D
100
AcDbEntity
  8
1-1
  6
細い実線
 62
     7
100
AcDbLine
 10
700.220102
 20
140.847611
 30
0.0
 11
700.418425
 21
140.186534
 31
0.0
  0
LINE
  5
585
330
57D
100
AcDbEntity
  8
1-1
  6
細い実線
 62
     7
100
AcDbLine
 10
700.418425
 20
140.186534
 30
0.0
 11
699.085678
 21
140.146997
 31
0.0
  0
LINE
  5
586
330
57D
100
AcDbEntity
  8
1-1
  6
細い実線
 62
     7
100
AcDbLine
 10
699.085678
 20
140.146997
 30
0.0
 11
700.220102
 21
140.847611
 31
0.0
  0
LINE
  5
587
330
57D
100
AcDbEntity
  8
1-1
  6
細い実線
 62
     7
100
AcDbLine
 10
713.915026
 20
144.235514
 30
0.0
 11
713.716703
 21
144.896591
 31
0.0
  0
LINE
  5
588
330
57D
100
AcDbEntity
  8
1-1
  6
細い実線
 62
     7
100
AcDbLine
 10
713.716703
 20
144.896591
 30
0.0
 11
715.04945
 21
144.936128
 31
0.0
  0
LINE
  5
589
330
57D
100
AcDbEntity
  8
1-1
  6
細い実線
 62
     7
100
AcDbLine
 10
715.04945
 20
144.936128
 30
0.0
 11
713.915026
 21
144.235514
 31
0.0
  0
TEXT
  5
58A
330
57D
100
AcDbEntity
  8
1-1
  6
CONTINUOUS
 62
     7
100
AcDbText
 10
705.151953
 20
141.966878
 30
0.0
 40
2.0
  1
５００
 50
16.699244
 41
0.666667
  7
FX_VECTOR
 72
     5
 11
708.983258
 21
143.11627
 31
0.0
100
AcDbText
  0
ENDBLK
  5
57F
330
57D
100
AcDbEntity
  8
0
100
AcDbBlockEnd
  0
ENDSEC
  0
SECTION
  2
ENTITIES
  0
LINE
  5
A7
330
1F
100
AcDbEntity
  8
GR1-1
  6
極太の実線
 62
     3
100
AcDbLine
 10
915.845963
 20
234.360363
 30
0.0
 11
638.845974
 21
234.360363
 31
0.0
  0
LINE
  5
A8
330
1F
100
AcDbEntity
  8
GR1-1
  6
極太の実線
 62
     3
100
AcDbLine
 10
638.845974
 20
234.360363
 30
0.0
 11
638.845958
 21
44.360363
 31
0.0
  0
LINE
  5
A9
330
1F
100
AcDbEntity
  8
GR1-1
  6
極太の実線
 62
     3
100
AcDbLine
 10
638.845958
 20
44.360363
 30
0.0
 11
915.845958
 21
44.360363
 31
0.0
  0
LINE
  5
AA
330
1F
100
AcDbEntity
  8
GR1-1
  6
極太の実線
 62
     3
100
AcDbLine
 10
915.845958
 20
44.360363
 30
0.0
 11
915.845963
 21
234.360363
 31
0.0
  0
LINE
  5
AB
330
1F
100
AcDbEntity
  8
GR1-1
  6
極太の実線
 62
     3
100
AcDbLine
 10
914.845963
 20
233.360363
 30
0.0
 11
639.845974
 21
233.360363
 31
0.0
  0
LINE
  5
AC
330
1F
100
AcDbEntity
  8
GR1-1
  6
極太の実線
 62
     3
100
AcDbLine
 10
639.845974
 20
233.360363
 30
0.0
 11
639.845958
 21
45.360363
 31
0.0
  0
LINE
  5
AD
330
1F
100
AcDbEntity
  8
GR1-1
  6
極太の実線
 62
     3
100
AcDbLine
 10
639.845958
 20
45.360363
 30
0.0
 11
914.845958
 21
45.360363
 31
0.0
  0
LINE
  5
AE
330
1F
100
AcDbEntity
  8
GR1-1
  6
極太の実線
 62
     3
100
AcDbLine
 10
914.845958
 20
45.360363
 30
0.0
 11
914.845963
 21
233.360363
 31
0.0
  0
LINE
  5
B0
330
1F
100
AcDbEntity
  8
GR1-1
  6
太い実線
 62
     4
100
AcDbLine
 10
836.793212
 20
66.861168
 30
0.0
 11
911.793237
 21
66.861168
 31
0.0
  0
LINE
  5
B1
330
1F
100
AcDbEntity
  8
GR1-1
  6
太い実線
 62
     4
100
AcDbLine
 10
911.793237
 20
60.861168
 30
0.0
 11
836.793212
 21
60.861168
 31
0.0
  0
LINE
  5
B2
330
1F
100
AcDbEntity
  8
GR1-1
  6
太い実線
 62
     4
100
AcDbLine
 10
836.793212
 20
54.861172
 30
0.0
 11
911.793237
 21
54.861172
 31
0.0
  0
LINE
  5
B3
330
1F
100
AcDbEntity
  8
GR1-1
  6
太い実線
 62
     4
100
AcDbLine
 10
836.793212
 20
48.86117
 30
0.0
 11
836.793212
 21
66.861168
 31
0.0
  0
LINE
  5
B4
330
1F
100
AcDbEntity
  8
GR1-1
  6
太い実線
 62
     4
100
AcDbLine
 10
851.793212
 20
66.861168
 30
0.0
 11
851.793212
 21
54.861172
 31
0.0
  0
LINE
  5
B5
330
1F
100
AcDbEntity
  8
GR1-1
  6
太い実線
 62
     4
100
AcDbLine
 10
874.293224
 20
54.861172
 30
0.0
 11
874.293224
 21
60.861168
 31
0.0
  0
TEXT
  5
B7
330
1F
100
AcDbEntity
  8
GR1-1
  6
細い実線
 62
     7
100
AcDbText
 10
841.743229
 20
61.932613
 30
0.0
 40
3.5
  1
図名
 41
0.728571
  7
STYLE1
 72
     5
 11
846.843229
 21
61.932613
 31
0.0
100
AcDbText
  0
TEXT
  5
B8
330
1F
100
AcDbEntity
  8
GR1-1
  6
細い実線
 62
     7
100
AcDbText
 10
841.743229
 20
55.901058
 30
0.0
 40
3.5
  1
尺度
 41
0.728571
  7
STYLE1
 72
     5
 11
846.843229
 21
55.901058
 31
0.0
100
AcDbText
  0
TEXT
  5
B9
330
1F
100
AcDbEntity
  8
GR1-1
  6
細い実線
 62
     7
100
AcDbText
 10
876.443229
 20
55.901058
 30
0.0
 40
3.5
  1
参考重量
 41
0.764286
  7
STYLE1
 72
     5
 11
887.143229
 21
55.901058
 31
0.0
100
AcDbText
  0
TEXT
  5
BA
330
1F
100
AcDbEntity
  8
GR1-1
  6
細い実線
 62
     7
100
AcDbText
 10
854.943229
 20
49.869503
 30
0.0
 40
3.5
  1
小倉セメント製品工業株式会社
 41
0.789796
  7
STYLE1
 72
     5
 11
893.643229
 21
49.869503
 31
0.0
100
AcDbText
  0
LINE
  5
BB
330
1F
100
AcDbEntity
  8
GR1-1
  6
太い実線
 62
     4
100
AcDbLine
 10
889.293273
 20
60.861168
 30
0.0
 11
889.293273
 21
54.861172
 31
0.0
  0
TEXT
  5
BC
330
1F
100
AcDbEntity
  8
GR1-1
  6
細い実線
 62
     7
100
AcDbText
 10
858.443229
 20
56.064075
 30
0.0
 40
3.5
  1
1/30
 41
0.657143
  7
STYLE1
 72
     5
 11
867.643229
 21
56.064075
 31
0.0
100
AcDbText
  0
TEXT
  5
BD
330
1F
100
AcDbEntity
  8
GR1-1
  6
細い実線
 62
     7
100
AcDbText
 10
892.451823
 20
55.901058
 30
0.0
 40
3.5
  1
235　ｋｇ
 41
0.657143
  7
STYLE1
 72
     5
 11
906.251823
 21
55.901058
 31
0.0
100
AcDbText
  0
TEXT
  5
BE
330
1F
100
AcDbEntity
  8
GR1-1
  6
細い実線
 62
     7
100
AcDbText
 10
858.793229
 20
61.85887
 30
0.0
 40
3.5
  1
KP大型ブロック　500C　（低擁壁用）
 41
0.657143
  7
STYLE1
 72
     5
 11
904.793229
 21
61.85887
 31
0.0
100
AcDbText
  0
LINE
  5
BF
330
1F
100
AcDbEntity
  8
GR1-1
  6
太い実線
 62
     4
100
AcDbLine
 10
911.793237
 20
66.861168
 30
0.0
 11
911.793237
 21
48.86117
 31
0.0
  0
LINE
  5
C0
330
1F
100
AcDbEntity
  8
GR1-1
  6
太い実線
 62
     4
100
AcDbLine
 10
836.793212
 20
48.86117
 30
0.0
 11
911.793237
 21
48.86117
 31
0.0
  0
LINE
  5
C1
330
1F
100
AcDbEntity
  8
GR1-1
  6
細い実線
 62
     7
100
AcDbLine
 10
822.145684
 20
204.25905
 30
0.0
 11
807.732903
 21
204.25905
 31
0.0
  0
TEXT
  5
C2
330
1F
100
AcDbEntity
  8
GR1-1
  6
細い実線
 62
     7
100
AcDbText
 10
808.706185
 20
204.259049
 30
0.0
 40
3.0
  1
平　面　図
 41
0.851556
  7
STYLE1
 72
     5
 11
821.479518
 21
204.259049
 31
0.0
100
AcDbText
  0
LINE
  5
C3
330
1F
100
AcDbEntity
  8
GR1-1
  6
細い実線
 62
     7
100
AcDbLine
 10
847.925158
 20
148.212251
 30
0.0
 11
829.285326
 21
148.212251
 31
0.0
  0
TEXT
  5
C4
330
1F
100
AcDbEntity
  8
GR1-1
  6
細い実線
 62
     7
100
AcDbText
 10
830.11862
 20
148.212256
 30
0.0
 40
3.0
  1
Ａ－Ａ断面図
 41
0.933333
  7
STYLE1
 72
     5
 11
846.91862
 21
148.212256
 31
0.0
100
AcDbText
  0
LINE
  5
C5
330
1F
100
AcDbEntity
  8
GR1-1
  6
細い実線
 62
     7
100
AcDbLine
 10
785.260349
 20
147.950055
 30
0.0
 11
771.13725
 21
147.950055
 31
0.0
  0
TEXT
  5
C6
330
1F
100
AcDbEntity
  8
GR1-1
  6
細い実線
 62
     7
100
AcDbText
 10
772.110547
 20
147.950049
 30
0.0
 40
3.0
  1
正　面　図
 41
0.851556
  7
STYLE1
 72
     5
 11
784.88388
 21
147.950049
 31
0.0
100
AcDbText
  0
LINE
  5
C7
330
1F
100
AcDbEntity
  8
GR1-1
  6
細い実線
 62
     7
100
AcDbLine
 10
718.924798
 20
151.096405
 30
0.0
 11
705.426618
 21
151.096405
 31
0.0
  0
TEXT
  5
C8
330
1F
100
AcDbEntity
  8
GR1-1
  6
細い実線
 62
     7
100
AcDbText
 10
706.39987
 20
151.096403
 30
0.0
 40
3.0
  1
側　面　図
 41
0.851556
  7
STYLE1
 72
     5
 11
719.173203
 21
151.096403
 31
0.0
100
AcDbText
  0
LINE
  5
C9
330
1F
100
AcDbEntity
  8
GR1-1
  6
細い実線
 62
     7
100
AcDbLine
 10
759.304501
 20
205.021345
 30
0.0
 11
739.759425
 21
205.021345
 31
0.0
  0
TEXT
  5
CA
330
1F
100
AcDbEntity
  8
GR1-1
  6
細い実線
 62
     7
100
AcDbText
 10
740.732682
 20
205.021338
 30
0.0
 40
3.0
  1
正面図（模様部）
 41
0.851556
  7
STYLE1
 72
     5
 11
761.170015
 21
205.021338
 31
0.0
100
AcDbText
  0
LINE
  5
CB
330
1F
100
AcDbEntity
  8
GR1-1
  6
極太の実線
 62
     3
100
AcDbLine
 10
725.650078
 20
181.285419
 30
0.0
 11
746.483411
 21
181.285419
 31
0.0
  0
LINE
  5
CC
330
1F
100
AcDbEntity
  8
GR1-1
  6
極太の実線
 62
     3
100
AcDbLine
 10
725.650078
 20
168.512085
 30
0.0
 11
746.935254
 21
168.512085
 31
0.0
  0
LINE
  5
CD
330
1F
100
AcDbEntity
  8
GR1-1
  6
極太の実線
 62
     3
100
AcDbLine
 10
767.316745
 20
181.285419
 30
0.0
 11
746.483411
 21
181.285419
 31
0.0
  0
LINE
  5
CE
330
1F
100
AcDbEntity
  8
GR1-1
  6
極太の実線
 62
     3
100
AcDbLine
 10
767.316745
 20
168.512085
 30
0.0
 11
746.935254
 21
168.512085
 31
0.0
  0
LINE
  5
CF
330
1F
100
AcDbEntity
  8
GR1-1
  6
極太の実線
 62
     3
100
AcDbLine
 10
725.650078
 20
168.512085
 30
0.0
 11
725.650078
 21
181.285419
 31
0.0
  0
LINE
  5
D0
330
1F
100
AcDbEntity
  8
GR1-1
  6
極太の実線
 62
     3
100
AcDbLine
 10
767.316745
 20
168.512085
 30
0.0
 11
767.316745
 21
181.285419
 31
0.0
  0
INSERT
  5
D4
330
1F
100
AcDbEntity
  8
0
100
AcDbBlockReference
  2
BLKF021
 10
0.0
 20
0.0
 30
0.0
  0
INSERT
  5
E2
330
1F
100
AcDbEntity
  8
0
100
AcDbBlockReference
  2
BLKF022
 10
0.0
 20
0.0
 30
0.0
  0
INSERT
  5
F0
330
1F
100
AcDbEntity
  8
0
100
AcDbBlockReference
  2
BLKF023
 10
0.0
 20
0.0
 30
0.0
  0
INSERT
  5
FE
330
1F
100
AcDbEntity
  8
0
100
AcDbBlockReference
  2
BLKF024
 10
0.0
 20
0.0
 30
0.0
  0
INSERT
  5
10B
330
1F
100
AcDbEntity
  8
0
100
AcDbBlockReference
  2
BLKF025
 10
0.0
 20
0.0
 30
0.0
  0
INSERT
  5
118
330
1F
100
AcDbEntity
  8
0
100
AcDbBlockReference
  2
BLKF026
 10
0.0
 20
0.0
 30
0.0
  0
INSERT
  5
125
330
1F
100
AcDbEntity
  8
0
100
AcDbBlockReference
  2
BLKF027
 10
0.0
 20
0.0
 30
0.0
  0
LINE
  5
12F
330
1F
100
AcDbEntity
  8
GR1-1
  6
極太の実線
 62
     3
100
AcDbLine
 10
739.900078
 20
181.285419
 30
0.0
 11
736.233411
 21
181.285419
 31
0.0
  0
LINE
  5
130
330
1F
100
AcDbEntity
  8
GR1-1
  6
極太の実線
 62
     3
100
AcDbLine
 10
736.233411
 20
181.285419
 30
0.0
 11
736.677856
 21
184.618752
 31
0.0
  0
LINE
  5
131
330
1F
100
AcDbEntity
  8
GR1-1
  6
極太の実線
 62
     3
100
AcDbLine
 10
739.455634
 20
184.618752
 30
0.0
 11
739.900078
 21
181.285419
 31
0.0
  0
LINE
  5
132
330
1F
100
AcDbEntity
  8
GR1-1
  6
極太の実線
 62
     3
100
AcDbLine
 10
739.455634
 20
184.618752
 30
0.0
 11
736.677856
 21
184.618752
 31
0.0
  0
LINE
  5
133
330
1F
100
AcDbEntity
  8
GR1-1
  6
極太の実線
 62
     3
100
AcDbLine
 10
756.733411
 20
181.285419
 30
0.0
 11
753.066745
 21
181.285419
 31
0.0
  0
LINE
  5
134
330
1F
100
AcDbEntity
  8
GR1-1
  6
極太の実線
 62
     3
100
AcDbLine
 10
753.066745
 20
181.285419
 30
0.0
 11
753.511189
 21
184.618752
 31
0.0
  0
LINE
  5
135
330
1F
100
AcDbEntity
  8
GR1-1
  6
極太の実線
 62
     3
100
AcDbLine
 10
756.288967
 20
184.618752
 30
0.0
 11
756.733411
 21
181.285419
 31
0.0
  0
LINE
  5
136
330
1F
100
AcDbEntity
  8
GR1-1
  6
極太の実線
 62
     3
100
AcDbLine
 10
756.288967
 20
184.618752
 30
0.0
 11
753.511189
 21
184.618752
 31
0.0
  0
INSERT
  5
13A
330
1F
100
AcDbEntity
  8
0
100
AcDbBlockReference
  2
BLKF028
 10
0.0
 20
0.0
 30
0.0
  0
LINE
  5
144
330
1F
100
AcDbEntity
  8
GR1-1
  6
細い実線
 62
     7
100
AcDbLine
 10
754.4943
 20
180.002888
 30
0.0
 11
755.865352
 21
176.448307
 31
0.0
  0
LINE
  5
145
330
1F
100
AcDbEntity
  8
GR1-1
  6
細い実線
 62
     7
100
AcDbLine
 10
762.942267
 20
173.504781
 30
0.0
 11
758.008519
 21
171.654626
 31
0.0
  0
LINE
  5
146
330
1F
100
AcDbEntity
  8
GR1-1
  6
細い実線
 62
     7
100
AcDbLine
 10
759.611987
 20
170.976236
 30
0.0
 11
757.885175
 21
170.051158
 31
0.0
  0
LINE
  5
147
330
1F
100
AcDbEntity
  8
GR1-1
  6
細い実線
 62
     7
100
AcDbLine
 10
758.008519
 20
171.654626
 30
0.0
 11
757.905471
 21
174.230816
 31
0.0
  0
LINE
  5
148
330
1F
100
AcDbEntity
  8
GR1-1
  6
細い実線
 62
     7
100
AcDbLine
 10
755.865352
 20
176.448307
 30
0.0
 11
757.905471
 21
174.230816
 31
0.0
  0
LINE
  5
149
330
1F
100
AcDbEntity
  8
GR1-1
  6
細い実線
 62
     7
100
AcDbLine
 10
741.412113
 20
175.666422
 30
0.0
 11
736.236595
 21
171.317315
 31
0.0
  0
LINE
  5
14A
330
1F
100
AcDbEntity
  8
GR1-1
  6
細い実線
 62
     7
100
AcDbLine
 10
741.607663
 20
171.345675
 30
0.0
 11
740.997746
 21
173.456467
 31
0.0
  0
LINE
  5
14B
330
1F
100
AcDbEntity
  8
GR1-1
  6
細い実線
 62
     7
100
AcDbLine
 10
740.997746
 20
173.456467
 30
0.0
 11
744.588924
 21
176.840461
 31
0.0
  0
LINE
  5
14C
330
1F
100
AcDbEntity
  8
GR1-1
  6
細い実線
 62
     7
100
AcDbLine
 10
736.236595
 20
171.317315
 30
0.0
 11
730.655097
 21
171.820153
 31
0.0
  0
LINE
  5
14D
330
1F
100
AcDbEntity
  8
GR1-1
  6
細い実線
 62
     7
100
AcDbLine
 10
767.316745
 20
172.055485
 30
0.0
 11
765.546692
 21
174.167469
 31
0.0
  0
LINE
  5
14E
330
1F
100
AcDbEntity
  8
GR1-1
  6
細い実線
 62
     7
100
AcDbLine
 10
762.05432
 20
170.817642
 30
0.0
 11
759.611987
 21
170.976236
 31
0.0
  0
LINE
  5
14F
330
1F
100
AcDbEntity
  8
GR1-1
  6
細い実線
 62
     7
100
AcDbLine
 10
762.05432
 20
170.817642
 30
0.0
 11
765.546692
 21
174.167469
 31
0.0
  0
LINE
  5
150
330
1F
100
AcDbEntity
  8
GR1-1
  6
細い実線
 62
     7
100
AcDbLine
 10
767.316745
 20
174.211025
 30
0.0
 11
766.087957
 21
175.118907
 31
0.0
  0
LINE
  5
151
330
1F
100
AcDbEntity
  8
GR1-1
  6
細い実線
 62
     7
100
AcDbLine
 10
766.087957
 20
175.118907
 30
0.0
 11
766.2437
 21
175.936556
 31
0.0
  0
LINE
  5
152
330
1F
100
AcDbEntity
  8
GR1-1
  6
細い実線
 62
     7
100
AcDbLine
 10
732.169151
 20
169.259797
 30
0.0
 11
730.127296
 21
171.127348
 31
0.0
  0
LINE
  5
153
330
1F
100
AcDbEntity
  8
GR1-1
  6
細い実線
 62
     7
100
AcDbLine
 10
744.588924
 20
176.840461
 30
0.0
 11
751.868191
 21
178.533595
 31
0.0
  0
LINE
  5
154
330
1F
100
AcDbEntity
  8
GR1-1
  6
細い実線
 62
     7
100
AcDbLine
 10
753.926168
 20
178.282622
 30
0.0
 11
755.662233
 21
174.620237
 31
0.0
  0
LINE
  5
155
330
1F
100
AcDbEntity
  8
GR1-1
  6
細い実線
 62
     7
100
AcDbLine
 10
751.868191
 20
178.533595
 30
0.0
 11
753.926168
 21
178.282622
 31
0.0
  0
LINE
  5
156
330
1F
100
AcDbEntity
  8
GR1-1
  6
細い実線
 62
     7
100
AcDbLine
 10
729.788249
 20
174.532598
 30
0.0
 11
730.655097
 21
171.820153
 31
0.0
  0
LINE
  5
157
330
1F
100
AcDbEntity
  8
GR1-1
  6
細い実線
 62
     7
100
AcDbLine
 10
730.127296
 20
171.127348
 30
0.0
 11
727.652754
 21
175.349111
 31
0.0
  0
LINE
  5
158
330
1F
100
AcDbEntity
  8
GR1-1
  6
細い実線
 62
     7
100
AcDbLine
 10
727.652754
 20
175.349111
 30
0.0
 11
728.986066
 21
180.30141
 31
0.0
  0
LINE
  5
159
330
1F
100
AcDbEntity
  8
GR1-1
  6
細い実線
 62
     7
100
AcDbLine
 10
741.607663
 20
171.345675
 30
0.0
 11
746.369734
 21
169.256671
 31
0.0
  0
LINE
  5
15A
330
1F
100
AcDbEntity
  8
GR1-1
  6
細い実線
 62
     7
100
AcDbLine
 10
743.668962
 20
178.677969
 30
0.0
 11
744.045814
 21
177.484605
 31
0.0
  0
LINE
  5
15B
330
1F
100
AcDbEntity
  8
GR1-1
  6
細い実線
 62
     7
100
AcDbLine
 10
734.379409
 20
170.604166
 30
0.0
 11
733.815005
 21
169.3953
 31
0.0
  0
LINE
  5
15C
330
1F
100
AcDbEntity
  8
GR1-1
  6
細い実線
 62
     7
100
AcDbLine
 10
734.379409
 20
170.604166
 30
0.0
 11
740.54154
 21
170.304387
 31
0.0
  0
LINE
  5
15D
330
1F
100
AcDbEntity
  8
GR1-1
  6
細い実線
 62
     7
100
AcDbLine
 10
752.987301
 20
179.612546
 30
0.0
 11
747.947086
 21
179.17761
 31
0.0
  0
LINE
  5
15E
330
1F
100
AcDbEntity
  8
GR1-1
  6
細い実線
 62
     7
100
AcDbLine
 10
744.045814
 20
177.484605
 30
0.0
 11
747.947086
 21
179.17761
 31
0.0
  0
LINE
  5
15F
330
1F
100
AcDbEntity
  8
GR1-1
  6
細い実線
 62
     7
100
AcDbLine
 10
732.169151
 20
168.520786
 30
0.0
 11
732.169151
 21
169.259797
 31
0.0
  0
LINE
  5
160
330
1F
100
AcDbEntity
  8
GR1-1
  6
細い実線
 62
     7
100
AcDbLine
 10
733.815005
 20
169.3953
 30
0.0
 11
733.757471
 21
168.520786
 31
0.0
  0
LINE
  5
161
330
1F
100
AcDbEntity
  8
GR1-1
  6
細い実線
 62
     7
100
AcDbLine
 10
740.54154
 20
170.304387
 30
0.0
 11
744.060536
 21
168.520786
 31
0.0
  0
LINE
  5
162
330
1F
100
AcDbEntity
  8
GR1-1
  6
細い実線
 62
     7
100
AcDbLine
 10
746.369734
 20
169.256671
 30
0.0
 11
746.790239
 21
168.520786
 31
0.0
  0
LINE
  5
163
330
1F
100
AcDbEntity
  8
GR1-1
  6
細い実線
 62
     7
100
AcDbLine
 10
755.662233
 20
174.620237
 30
0.0
 11
756.252503
 21
168.520786
 31
0.0
  0
LINE
  5
164
330
1F
100
AcDbEntity
  8
GR1-1
  6
細い実線
 62
     7
100
AcDbLine
 10
757.885175
 20
170.051158
 30
0.0
 11
757.885175
 21
168.520786
 31
0.0
  0
LINE
  5
165
330
1F
100
AcDbEntity
  8
GR1-1
  6
細い実線
 62
     7
100
AcDbLine
 10
766.43701
 20
181.285419
 30
0.0
 11
766.298064
 21
180.976071
 31
0.0
  0
LINE
  5
166
330
1F
100
AcDbEntity
  8
GR1-1
  6
細い実線
 62
     7
100
AcDbLine
 10
766.298064
 20
180.976071
 30
0.0
 11
762.942267
 21
173.504781
 31
0.0
  0
LINE
  5
167
330
1F
100
AcDbEntity
  8
GR1-1
  6
細い実線
 62
     7
100
AcDbLine
 10
766.2437
 20
175.936556
 30
0.0
 11
767.316745
 21
178.829371
 31
0.0
  0
LINE
  5
168
330
1F
100
AcDbEntity
  8
GR1-1
  6
細い実線
 62
     7
100
AcDbLine
 10
753.458187
 20
180.945617
 30
0.0
 11
752.994228
 21
181.285419
 31
0.0
  0
LINE
  5
169
330
1F
100
AcDbEntity
  8
GR1-1
  6
細い実線
 62
     7
100
AcDbLine
 10
752.987301
 20
179.612546
 30
0.0
 11
753.480491
 21
180.976071
 31
0.0
  0
LINE
  5
16A
330
1F
100
AcDbEntity
  8
GR1-1
  6
細い実線
 62
     7
100
AcDbLine
 10
755.833427
 20
181.285419
 30
0.0
 11
754.4943
 21
180.002888
 31
0.0
  0
LINE
  5
16B
330
1F
100
AcDbEntity
  8
GR1-1
  6
細い実線
 62
     7
100
AcDbLine
 10
744.372559
 20
181.285419
 30
0.0
 11
743.668962
 21
178.677969
 31
0.0
  0
LINE
  5
16C
330
1F
100
AcDbEntity
  8
GR1-1
  6
細い実線
 62
     7
100
AcDbLine
 10
743.24209
 20
181.285419
 30
0.0
 11
741.412113
 21
175.666422
 31
0.0
  0
LINE
  5
16D
330
1F
100
AcDbEntity
  8
GR1-1
  6
細い実線
 62
     7
100
AcDbLine
 10
730.15623
 20
181.285419
 30
0.0
 11
729.788249
 21
174.532598
 31
0.0
  0
LINE
  5
16E
330
1F
100
AcDbEntity
  8
GR1-1
  6
細い実線
 62
     7
100
AcDbLine
 10
728.986066
 20
180.30141
 30
0.0
 11
728.388269
 21
180.976071
 31
0.0
  0
LINE
  5
16F
330
1F
100
AcDbEntity
  8
GR1-1
  6
細い実線
 62
     7
100
AcDbLine
 10
728.388269
 20
180.976071
 30
0.0
 11
725.650078
 21
180.499624
 31
0.0
  0
LINE
  5
171
330
1F
100
AcDbEntity
  8
GR1-1
  6
細い点線
 62
     7
100
AcDbLine
 10
768.095961
 20
115.193696
 30
0.0
 11
768.262627
 21
115.593696
 31
0.0
  0
LINE
  5
172
330
1F
100
AcDbEntity
  8
GR1-1
  6
細い点線
 62
     7
100
AcDbLine
 10
768.262627
 20
115.593696
 30
0.0
 11
769.595961
 21
115.593696
 31
0.0
  0
LINE
  5
173
330
1F
100
AcDbEntity
  8
GR1-1
  6
細い点線
 62
     7
100
AcDbLine
 10
769.595961
 20
115.593696
 30
0.0
 11
769.762627
 21
115.193696
 31
0.0
  0
LINE
  5
174
330
1F
100
AcDbEntity
  8
GR1-1
  6
細い点線
 62
     7
100
AcDbLine
 10
786.595961
 20
115.193696
 30
0.0
 11
786.429294
 21
115.593696
 31
0.0
  0
LINE
  5
175
330
1F
100
AcDbEntity
  8
GR1-1
  6
細い点線
 62
     7
100
AcDbLine
 10
786.429294
 20
115.593696
 30
0.0
 11
785.095961
 21
115.593696
 31
0.0
  0
LINE
  5
176
330
1F
100
AcDbEntity
  8
GR1-1
  6
細い点線
 62
     7
100
AcDbLine
 10
785.095961
 20
115.593696
 30
0.0
 11
784.929294
 21
115.193696
 31
0.0
  0
LINE
  5
177
330
1F
100
AcDbEntity
  8
GR1-1
  6
極太の実線
 62
     3
100
AcDbLine
 10
798.179294
 20
115.193696
 30
0.0
 11
777.345961
 21
115.193696
 31
0.0
  0
LINE
  5
178
330
1F
100
AcDbEntity
  8
GR1-1
  6
極太の実線
 62
     3
100
AcDbLine
 10
798.179294
 20
115.193696
 30
0.0
 11
798.179294
 21
127.860363
 31
0.0
  0
LINE
  5
179
330
1F
100
AcDbEntity
  8
GR1-1
  6
極太の実線
 62
     3
100
AcDbLine
 10
798.179294
 20
127.860363
 30
0.0
 11
777.345961
 21
127.860363
 31
0.0
  0
LINE
  5
17A
330
1F
100
AcDbEntity
  8
GR1-1
  6
極太の実線
 62
     3
100
AcDbLine
 10
756.512627
 20
127.860363
 30
0.0
 11
777.345961
 21
127.860363
 31
0.0
  0
LINE
  5
17B
330
1F
100
AcDbEntity
  8
GR1-1
  6
極太の実線
 62
     3
100
AcDbLine
 10
756.512627
 20
115.193696
 30
0.0
 11
777.345961
 21
115.193696
 31
0.0
  0
LINE
  5
17C
330
1F
100
AcDbEntity
  8
GR1-1
  6
極太の実線
 62
     3
100
AcDbLine
 10
756.512627
 20
115.193696
 30
0.0
 11
756.512627
 21
127.860363
 31
0.0
  0
INSERT
  5
180
330
1F
100
AcDbEntity
  8
0
100
AcDbBlockReference
  2
BLKF029
 10
0.0
 20
0.0
 30
0.0
  0
INSERT
  5
18E
330
1F
100
AcDbEntity
  8
0
100
AcDbBlockReference
  2
BLKF030
 10
0.0
 20
0.0
 30
0.0
  0
INSERT
  5
19B
330
1F
100
AcDbEntity
  8
0
100
AcDbBlockReference
  2
BLKF031
 10
0.0
 20
0.0
 30
0.0
  0
INSERT
  5
1A9
330
1F
100
AcDbEntity
  8
0
100
AcDbBlockReference
  2
BLKF032
 10
0.0
 20
0.0
 30
0.0
  0
INSERT
  5
1B7
330
1F
100
AcDbEntity
  8
0
100
AcDbBlockReference
  2
BLKF033
 10
0.0
 20
0.0
 30
0.0
  0
INSERT
  5
1C5
330
1F
100
AcDbEntity
  8
0
100
AcDbBlockReference
  2
BLKF034
 10
0.0
 20
0.0
 30
0.0
  0
INSERT
  5
1D2
330
1F
100
AcDbEntity
  8
0
100
AcDbBlockReference
  2
BLKF035
 10
0.0
 20
0.0
 30
0.0
  0
INSERT
  5
1DF
330
1F
100
AcDbEntity
  8
0
100
AcDbBlockReference
  2
BLKF036
 10
0.0
 20
0.0
 30
0.0
  0
INSERT
  5
1EC
330
1F
100
AcDbEntity
  8
0
100
AcDbBlockReference
  2
BLKF037
 10
0.0
 20
0.0
 30
0.0
  0
INSERT
  5
1F9
330
1F
100
AcDbEntity
  8
0
100
AcDbBlockReference
  2
BLKF038
 10
0.0
 20
0.0
 30
0.0
  0
INSERT
  5
207
330
1F
100
AcDbEntity
  8
0
100
AcDbBlockReference
  2
BLKF039
 10
0.0
 20
0.0
 30
0.0
  0
INSERT
  5
215
330
1F
100
AcDbEntity
  8
0
100
AcDbBlockReference
  2
BLKF040
 10
0.0
 20
0.0
 30
0.0
  0
LINE
  5
21F
330
1F
100
AcDbEntity
  8
GR1-1
  6
極太の実線
 62
     3
100
AcDbLine
 10
770.762627
 20
127.860363
 30
0.0
 11
770.313541
 21
131.300363
 31
0.0
  0
LINE
  5
220
330
1F
100
AcDbEntity
  8
GR1-1
  6
極太の実線
 62
     3
100
AcDbLine
 10
767.540405
 20
131.300363
 30
0.0
 11
767.081739
 21
127.860363
 31
0.0
  0
LINE
  5
221
330
1F
100
AcDbEntity
  8
GR1-1
  6
極太の実線
 62
     3
100
AcDbLine
 10
783.929294
 20
127.860363
 30
0.0
 11
784.37838
 21
131.300363
 31
0.0
  0
LINE
  5
222
330
1F
100
AcDbEntity
  8
GR1-1
  6
極太の実線
 62
     3
100
AcDbLine
 10
787.151516
 20
131.300363
 30
0.0
 11
787.610183
 21
127.860363
 31
0.0
  0
LINE
  5
223
330
1F
100
AcDbEntity
  8
GR1-1
  6
極太の実線
 62
     3
100
AcDbLine
 10
767.540405
 20
131.300363
 30
0.0
 11
770.313541
 21
131.300363
 31
0.0
  0
LINE
  5
224
330
1F
100
AcDbEntity
  8
GR1-1
  6
極太の実線
 62
     3
100
AcDbLine
 10
784.37838
 20
131.300363
 30
0.0
 11
787.151516
 21
131.300363
 31
0.0
  0
INSERT
  5
228
330
1F
100
AcDbEntity
  8
0
100
AcDbBlockReference
  2
BLKF041
 10
0.0
 20
0.0
 30
0.0
  0
LINE
  5
234
330
1F
100
AcDbEntity
  8
1-1
  6
極太の実線
 62
     3
100
AcDbLine
 10
835.668909
 20
168.512085
 30
0.0
 11
814.835576
 21
168.512085
 31
0.0
  0
LINE
  5
235
330
1F
100
AcDbEntity
  8
1-1
  6
極太の実線
 62
     3
100
AcDbLine
 10
794.002242
 20
168.512085
 30
0.0
 11
814.835576
 21
168.512085
 31
0.0
  0
LINE
  5
236
330
1F
100
AcDbEntity
  8
1-1
  6
極太の実線
 62
     3
100
AcDbLine
 10
803.918909
 20
174.954162
 30
0.0
 11
794.002242
 21
173.910131
 31
0.0
  0
LINE
  5
237
330
1F
100
AcDbEntity
  8
1-1
  6
極太の実線
 62
     3
100
AcDbLine
 10
804.585576
 20
175.650182
 30
0.0
 11
803.918909
 21
174.954162
 31
0.0
  0
LINE
  5
238
330
1F
100
AcDbEntity
  8
1-1
  6
極太の実線
 62
     3
100
AcDbLine
 10
835.668909
 20
173.910131
 30
0.0
 11
825.752242
 21
174.954162
 31
0.0
  0
LINE
  5
239
330
1F
100
AcDbEntity
  8
1-1
  6
極太の実線
 62
     3
100
AcDbLine
 10
825.752242
 20
174.954162
 30
0.0
 11
825.085576
 21
175.650182
 31
0.0
  0
LINE
  5
23A
330
1F
100
AcDbEntity
  8
1-1
  6
極太の実線
 62
     3
100
AcDbLine
 10
835.668909
 20
168.512085
 30
0.0
 11
835.668909
 21
173.910131
 31
0.0
  0
LINE
  5
23B
330
1F
100
AcDbEntity
  8
1-1
  6
極太の実線
 62
     3
100
AcDbLine
 10
794.002242
 20
168.512085
 30
0.0
 11
794.002242
 21
173.910131
 31
0.0
  0
LINE
  5
23C
330
1F
100
AcDbEntity
  8
1-1
  6
極太の実線
 62
     3
100
AcDbLine
 10
794.002242
 20
172.344085
 30
0.0
 11
835.668909
 21
172.344085
 31
0.0
  0
LINE
  5
23D
330
1F
100
AcDbEntity
  8
1-1
  6
細い実線
 62
     7
100
AcDbLine
 10
794.002242
 20
189.712596
 30
0.0
 11
835.668909
 21
189.712596
 31
0.0
  0
LINE
  5
23E
330
1F
100
AcDbEntity
  8
1-1
  6
極太の実線
 62
     3
100
AcDbLine
 10
794.002242
 20
184.34655
 30
0.0
 11
794.002242
 21
189.712596
 31
0.0
  0
LINE
  5
23F
330
1F
100
AcDbEntity
  8
1-1
  6
極太の実線
 62
     3
100
AcDbLine
 10
835.668909
 20
184.34655
 30
0.0
 11
835.668909
 21
189.712596
 31
0.0
  0
LINE
  5
240
330
1F
100
AcDbEntity
  8
1-1
  6
極太の実線
 62
     3
100
AcDbLine
 10
804.585576
 20
186.406499
 30
0.0
 11
803.918909
 21
187.10252
 31
0.0
  0
LINE
  5
241
330
1F
100
AcDbEntity
  8
1-1
  6
極太の実線
 62
     3
100
AcDbLine
 10
804.585576
 20
175.650182
 30
0.0
 11
804.585576
 21
186.406499
 31
0.0
  0
LINE
  5
242
330
1F
100
AcDbEntity
  8
1-1
  6
極太の実線
 62
     3
100
AcDbLine
 10
803.918909
 20
187.10252
 30
0.0
 11
794.002242
 21
188.14655
 31
0.0
  0
LINE
  5
243
330
1F
100
AcDbEntity
  8
1-1
  6
極太の実線
 62
     3
100
AcDbLine
 10
825.752242
 20
187.10252
 30
0.0
 11
825.085576
 21
186.406499
 31
0.0
  0
LINE
  5
244
330
1F
100
AcDbEntity
  8
1-1
  6
極太の実線
 62
     3
100
AcDbLine
 10
825.085576
 20
175.650182
 30
0.0
 11
825.085576
 21
186.406499
 31
0.0
  0
LINE
  5
245
330
1F
100
AcDbEntity
  8
1-1
  6
極太の実線
 62
     3
100
AcDbLine
 10
835.668909
 20
188.14655
 30
0.0
 11
825.752242
 21
187.10252
 31
0.0
  0
LINE
  5
246
330
1F
100
AcDbEntity
  8
1-1
  6
極太の実線
 62
     3
100
AcDbLine
 10
819.41544
 20
188.320555
 30
0.0
 11
810.255712
 21
188.320555
 31
0.0
  0
LINE
  5
247
330
1F
100
AcDbEntity
  8
1-1
  6
極太の実線
 62
     3
100
AcDbLine
 10
810.243578
 20
173.736126
 30
0.0
 11
819.427574
 21
173.736126
 31
0.0
  0
LINE
  5
248
330
1F
100
AcDbEntity
  8
1-1
  6
極太の実線
 62
     3
100
AcDbLine
 10
808.252242
 20
175.751764
 30
0.0
 11
808.252242
 21
186.317086
 31
0.0
  0
LINE
  5
249
330
1F
100
AcDbEntity
  8
1-1
  6
極太の実線
 62
     3
100
AcDbLine
 10
824.641131
 20
180.048196
 30
0.0
 11
825.085576
 21
181.159307
 31
0.0
  0
LINE
  5
24A
330
1F
100
AcDbEntity
  8
1-1
  6
極太の実線
 62
     3
100
AcDbLine
 10
821.863354
 20
180.048196
 30
0.0
 11
821.418909
 21
181.159307
 31
0.0
  0
LINE
  5
24B
330
1F
100
AcDbEntity
  8
1-1
  6
極太の実線
 62
     3
100
AcDbLine
 10
825.085576
 20
181.159307
 30
0.0
 11
825.085576
 21
181.194863
 31
0.0
  0
LINE
  5
24C
330
1F
100
AcDbEntity
  8
1-1
  6
極太の実線
 62
     3
100
AcDbLine
 10
825.085576
 20
181.194863
 30
0.0
 11
821.418909
 21
181.194863
 31
0.0
  0
LINE
  5
24D
330
1F
100
AcDbEntity
  8
1-1
  6
極太の実線
 62
     3
100
AcDbLine
 10
821.418909
 20
181.194863
 30
0.0
 11
821.418909
 21
181.159307
 31
0.0
  0
LINE
  5
24E
330
1F
100
AcDbEntity
  8
1-1
  6
極太の実線
 62
     3
100
AcDbLine
 10
825.085576
 20
180.146599
 30
0.0
 11
825.085576
 21
175.650182
 31
0.0
  0
LINE
  5
24F
330
1F
100
AcDbEntity
  8
1-1
  6
極太の実線
 62
     3
100
AcDbLine
 10
821.418909
 20
175.651267
 30
0.0
 11
821.418909
 21
181.159307
 31
0.0
  0
LINE
  5
250
330
1F
100
AcDbEntity
  8
1-1
  6
極太の実線
 62
     3
100
AcDbLine
 10
825.085576
 20
181.159307
 30
0.0
 11
825.085576
 21
175.955875
 31
0.0
  0
LINE
  5
251
330
1F
100
AcDbEntity
  8
1-1
  6
極太の実線
 62
     3
100
AcDbLine
 10
821.418909
 20
175.651267
 30
0.0
 11
825.085576
 21
175.955875
 31
0.0
  0
LINE
  5
252
330
1F
100
AcDbEntity
  8
1-1
  6
極太の実線
 62
     3
100
AcDbLine
 10
808.252242
 20
175.651267
 30
0.0
 11
804.585576
 21
175.955875
 31
0.0
  0
LINE
  5
253
330
1F
100
AcDbEntity
  8
1-1
  6
極太の実線
 62
     3
100
AcDbLine
 10
805.03002
 20
180.048196
 30
0.0
 11
804.585576
 21
181.159307
 31
0.0
  0
LINE
  5
254
330
1F
100
AcDbEntity
  8
1-1
  6
極太の実線
 62
     3
100
AcDbLine
 10
807.807798
 20
180.048196
 30
0.0
 11
808.252242
 21
181.159307
 31
0.0
  0
LINE
  5
255
330
1F
100
AcDbEntity
  8
1-1
  6
極太の実線
 62
     3
100
AcDbLine
 10
804.585576
 20
181.507317
 30
0.0
 11
804.585576
 21
181.542873
 31
0.0
  0
LINE
  5
256
330
1F
100
AcDbEntity
  8
1-1
  6
極太の実線
 62
     3
100
AcDbLine
 10
804.585576
 20
181.194863
 30
0.0
 11
808.252242
 21
181.194863
 31
0.0
  0
LINE
  5
257
330
1F
100
AcDbEntity
  8
1-1
  6
極太の実線
 62
     3
100
AcDbLine
 10
808.252242
 20
181.194863
 30
0.0
 11
808.252242
 21
181.159307
 31
0.0
  0
LINE
  5
258
330
1F
100
AcDbEntity
  8
1-1
  6
極太の実線
 62
     3
100
AcDbLine
 10
808.252242
 20
175.651267
 30
0.0
 11
808.252242
 21
181.159307
 31
0.0
  0
LINE
  5
259
330
1F
100
AcDbEntity
  8
1-1
  6
極太の実線
 62
     3
100
AcDbLine
 10
804.585576
 20
181.159307
 30
0.0
 11
804.585576
 21
175.955875
 31
0.0
  0
LINE
  5
25A
330
1F
100
AcDbEntity
  8
1-1
  6
極太の実線
 62
     3
100
AcDbLine
 10
809.252242
 20
184.520555
 30
0.0
 11
809.252242
 21
183.556059
 31
0.0
  0
LINE
  5
25B
330
1F
100
AcDbEntity
  8
1-1
  6
極太の実線
 62
     3
100
AcDbLine
 10
794.002242
 20
184.34655
 30
0.0
 11
803.918909
 21
183.296354
 31
0.0
  0
LINE
  5
25C
330
1F
100
AcDbEntity
  8
1-1
  6
極太の実線
 62
     3
100
AcDbLine
 10
803.918909
 20
183.296354
 30
0.0
 11
803.918909
 21
187.10252
 31
0.0
  0
LINE
  5
25D
330
1F
100
AcDbEntity
  8
1-1
  6
極太の実線
 62
     3
100
AcDbLine
 10
803.918909
 20
183.296354
 30
0.0
 11
804.585576
 21
182.600334
 31
0.0
  0
LINE
  5
25E
330
1F
100
AcDbEntity
  8
1-1
  6
極太の実線
 62
     3
100
AcDbLine
 10
825.752242
 20
183.296354
 30
0.0
 11
825.752242
 21
187.10252
 31
0.0
  0
INSERT
  5
262
330
1F
100
AcDbEntity
  8
0
100
AcDbBlockReference
  2
BLKF042
 10
0.0
 20
0.0
 30
0.0
  0
INSERT
  5
270
330
1F
100
AcDbEntity
  8
0
100
AcDbBlockReference
  2
BLKF043
 10
0.0
 20
0.0
 30
0.0
  0
INSERT
  5
27E
330
1F
100
AcDbEntity
  8
0
100
AcDbBlockReference
  2
BLKF044
 10
0.0
 20
0.0
 30
0.0
  0
INSERT
  5
28B
330
1F
100
AcDbEntity
  8
0
100
AcDbBlockReference
  2
BLKF045
 10
0.0
 20
0.0
 30
0.0
  0
INSERT
  5
298
330
1F
100
AcDbEntity
  8
0
100
AcDbBlockReference
  2
BLKF046
 10
0.0
 20
0.0
 30
0.0
  0
INSERT
  5
2A5
330
1F
100
AcDbEntity
  8
0
100
AcDbBlockReference
  2
BLKF047
 10
0.0
 20
0.0
 30
0.0
  0
INSERT
  5
2B2
330
1F
100
AcDbEntity
  8
0
100
AcDbBlockReference
  2
BLKF048
 10
0.0
 20
0.0
 30
0.0
  0
INSERT
  5
2C0
330
1F
100
AcDbEntity
  8
0
100
AcDbBlockReference
  2
BLKF049
 10
0.0
 20
0.0
 30
0.0
  0
INSERT
  5
2CD
330
1F
100
AcDbEntity
  8
0
100
AcDbBlockReference
  2
BLKF050
 10
0.0
 20
0.0
 30
0.0
  0
INSERT
  5
2DB
330
1F
100
AcDbEntity
  8
0
100
AcDbBlockReference
  2
BLKF051
 10
0.0
 20
0.0
 30
0.0
  0
INSERT
  5
2E8
330
1F
100
AcDbEntity
  8
0
100
AcDbBlockReference
  2
BLKF052
 10
0.0
 20
0.0
 30
0.0
  0
LINE
  5
2F2
330
1F
100
AcDbEntity
  8
1-1
  6
極太の実線
 62
     3
100
AcDbLine
 10
821.863354
 20
175.688189
 30
0.0
 11
821.863354
 21
180.048196
 31
0.0
  0
LINE
  5
2F3
330
1F
100
AcDbEntity
  8
1-1
  6
極太の実線
 62
     3
100
AcDbLine
 10
821.863354
 20
180.048196
 30
0.0
 11
824.641131
 21
180.048196
 31
0.0
  0
LINE
  5
2F4
330
1F
100
AcDbEntity
  8
1-1
  6
極太の実線
 62
     3
100
AcDbLine
 10
824.641131
 20
180.048196
 30
0.0
 11
824.641131
 21
175.918953
 31
0.0
  0
LINE
  5
2F5
330
1F
100
AcDbEntity
  8
1-1
  6
極太の実線
 62
     3
100
AcDbLine
 10
805.03002
 20
175.918953
 30
0.0
 11
805.03002
 21
180.048196
 31
0.0
  0
LINE
  5
2F6
330
1F
100
AcDbEntity
  8
1-1
  6
極太の実線
 62
     3
100
AcDbLine
 10
805.03002
 20
180.048196
 30
0.0
 11
807.807798
 21
180.048196
 31
0.0
  0
LINE
  5
2F7
330
1F
100
AcDbEntity
  8
1-1
  6
極太の実線
 62
     3
100
AcDbLine
 10
807.807798
 20
180.048196
 30
0.0
 11
807.807798
 21
175.688189
 31
0.0
  0
LINE
  5
2F8
330
1F
100
AcDbEntity
  8
1-1
  6
極太の実線
 62
     3
100
AcDbLine
 10
808.252242
 20
186.317086
 30
0.0
 11
810.255712
 21
188.320555
 31
0.0
  0
LINE
  5
2F9
330
1F
100
AcDbEntity
  8
1-1
  6
極太の実線
 62
     3
100
AcDbLine
 10
808.252242
 20
186.317086
 30
0.0
 11
809.252242
 21
184.520555
 31
0.0
  0
LINE
  5
2FA
330
1F
100
AcDbEntity
  8
1-1
  6
極太の実線
 62
     3
100
AcDbLine
 10
808.252242
 20
175.751764
 30
0.0
 11
810.243578
 21
173.736126
 31
0.0
  0
LINE
  5
2FB
330
1F
100
AcDbEntity
  8
1-1
  6
極太の実線
 62
     3
100
AcDbLine
 10
825.085576
 20
181.507317
 30
0.0
 11
825.085576
 21
181.509539
 31
0.0
  0
LINE
  5
2FC
330
1F
100
AcDbEntity
  8
1-1
  6
極太の実線
 62
     3
100
AcDbLine
 10
835.668909
 20
184.34655
 30
0.0
 11
825.752242
 21
183.296354
 31
0.0
  0
LINE
  5
2FD
330
1F
100
AcDbEntity
  8
1-1
  6
極太の実線
 62
     3
100
AcDbLine
 10
825.752242
 20
183.296354
 30
0.0
 11
825.085576
 21
182.600334
 31
0.0
  0
LINE
  5
2FE
330
1F
100
AcDbEntity
  8
1-1
  6
極太の実線
 62
     3
100
AcDbLine
 10
810.195051
 20
185.476525
 30
0.0
 11
819.4761
 21
185.476525
 31
0.0
  0
LINE
  5
2FF
330
1F
100
AcDbEntity
  8
1-1
  6
極太の実線
 62
     3
100
AcDbLine
 10
810.255712
 20
184.533716
 30
0.0
 11
819.41544
 21
184.533716
 31
0.0
  0
LINE
  5
300
330
1F
100
AcDbEntity
  8
1-1
  6
極太の実線
 62
     3
100
AcDbLine
 10
809.252242
 20
184.520555
 30
0.0
 11
810.195051
 21
185.476525
 31
0.0
  0
LINE
  5
301
330
1F
100
AcDbEntity
  8
1-1
  6
極太の実線
 62
     3
100
AcDbLine
 10
810.255712
 20
188.320555
 30
0.0
 11
810.195051
 21
185.476525
 31
0.0
  0
LINE
  5
302
330
1F
100
AcDbEntity
  8
1-1
  6
極太の実線
 62
     3
100
AcDbLine
 10
810.195051
 20
185.476525
 30
0.0
 11
810.255712
 21
184.533716
 31
0.0
  0
LINE
  5
303
330
1F
100
AcDbEntity
  8
1-1
  6
極太の実線
 62
     3
100
AcDbLine
 10
808.64112
 20
175.795077
 30
0.0
 11
808.72827
 21
183.776963
 31
0.0
  0
LINE
  5
304
330
1F
100
AcDbEntity
  8
1-1
  6
極太の実線
 62
     3
100
AcDbLine
 10
808.72827
 20
183.776963
 30
0.0
 11
809.252242
 21
183.556059
 31
0.0
  0
LINE
  5
305
330
1F
100
AcDbEntity
  8
1-1
  6
極太の実線
 62
     3
100
AcDbLine
 10
808.719763
 20
182.997767
 30
0.0
 11
810.255712
 21
184.533716
 31
0.0
  0
LINE
  5
306
330
1F
100
AcDbEntity
  8
1-1
  6
極太の実線
 62
     3
100
AcDbLine
 10
808.72827
 20
183.335155
 30
0.0
 11
809.252242
 21
183.556059
 31
0.0
  0
LINE
  5
307
330
1F
100
AcDbEntity
  8
1-1
  6
極太の実線
 62
     3
100
AcDbLine
 10
808.64112
 20
175.795077
 30
0.0
 11
809.252242
 21
175.537431
 31
0.0
  0
LINE
  5
308
330
1F
100
AcDbEntity
  8
1-1
  6
極太の実線
 62
     3
100
AcDbLine
 10
809.252242
 20
175.537431
 30
0.0
 11
809.252242
 21
174.739561
 31
0.0
  0
LINE
  5
309
330
1F
100
AcDbEntity
  8
1-1
  6
極太の実線
 62
     3
100
AcDbLine
 10
820.418909
 20
184.520555
 30
0.0
 11
820.41891
 21
183.556059
 31
0.0
  0
LINE
  5
30A
330
1F
100
AcDbEntity
  8
1-1
  6
極太の実線
 62
     3
100
AcDbLine
 10
821.418909
 20
186.317086
 30
0.0
 11
819.41544
 21
188.320555
 31
0.0
  0
LINE
  5
30B
330
1F
100
AcDbEntity
  8
1-1
  6
極太の実線
 62
     3
100
AcDbLine
 10
821.418909
 20
186.317086
 30
0.0
 11
820.418909
 21
184.520555
 31
0.0
  0
LINE
  5
30C
330
1F
100
AcDbEntity
  8
1-1
  6
極太の実線
 62
     3
100
AcDbLine
 10
820.418909
 20
184.520555
 30
0.0
 11
819.4761
 21
185.476525
 31
0.0
  0
LINE
  5
30D
330
1F
100
AcDbEntity
  8
1-1
  6
極太の実線
 62
     3
100
AcDbLine
 10
819.41544
 20
188.320555
 30
0.0
 11
819.4761
 21
185.476525
 31
0.0
  0
LINE
  5
30E
330
1F
100
AcDbEntity
  8
1-1
  6
極太の実線
 62
     3
100
AcDbLine
 10
819.4761
 20
185.476525
 30
0.0
 11
819.41544
 21
184.533716
 31
0.0
  0
LINE
  5
30F
330
1F
100
AcDbEntity
  8
1-1
  6
極太の実線
 62
     3
100
AcDbLine
 10
820.942881
 20
183.776963
 30
0.0
 11
820.41891
 21
183.556059
 31
0.0
  0
LINE
  5
310
330
1F
100
AcDbEntity
  8
1-1
  6
極太の実線
 62
     3
100
AcDbLine
 10
820.942881
 20
183.335155
 30
0.0
 11
820.41891
 21
183.556059
 31
0.0
  0
LINE
  5
311
330
1F
100
AcDbEntity
  8
1-1
  6
極太の実線
 62
     3
100
AcDbLine
 10
821.030032
 20
175.795077
 30
0.0
 11
820.942881
 21
183.776963
 31
0.0
  0
LINE
  5
312
330
1F
100
AcDbEntity
  8
1-1
  6
極太の実線
 62
     3
100
AcDbLine
 10
821.418909
 20
175.751764
 30
0.0
 11
821.418909
 21
186.317086
 31
0.0
  0
LINE
  5
313
330
1F
100
AcDbEntity
  8
1-1
  6
極太の実線
 62
     3
100
AcDbLine
 10
821.030032
 20
175.795077
 30
0.0
 11
820.418909
 21
175.537431
 31
0.0
  0
LINE
  5
314
330
1F
100
AcDbEntity
  8
1-1
  6
極太の実線
 62
     3
100
AcDbLine
 10
820.418909
 20
175.537431
 30
0.0
 11
820.41891
 21
174.739561
 31
0.0
  0
LINE
  5
315
330
1F
100
AcDbEntity
  8
1-1
  6
極太の実線
 62
     3
100
AcDbLine
 10
821.418909
 20
175.751764
 30
0.0
 11
819.427574
 21
173.736126
 31
0.0
  0
LINE
  5
316
330
1F
100
AcDbEntity
  8
1-1
  6
極太の実線
 62
     3
100
AcDbLine
 10
820.951389
 20
182.997767
 30
0.0
 11
819.41544
 21
184.533716
 31
0.0
  0
INSERT
  5
31A
330
1F
100
AcDbEntity
  8
0
100
AcDbBlockReference
  2
BLKF053
 10
0.0
 20
0.0
 30
0.0
  0
TEXT
  5
320
330
1F
100
AcDbEntity
  8
1-1
  6
CONTINUOUS
 62
     7
100
AcDbText
 10
810.884635
 20
193.980713
 30
0.0
 40
2.0
  1
Ａ
 41
0.666667
  7
FX_VECTOR
 72
     5
 11
812.217969
 21
193.980713
 31
0.0
100
AcDbText
  0
INSERT
  5
324
330
1F
100
AcDbEntity
  8
0
100
AcDbBlockReference
  2
BLKF054
 10
0.0
 20
0.0
 30
0.0
  0
TEXT
  5
32A
330
1F
100
AcDbEntity
  8
1-1
  6
CONTINUOUS
 62
     7
100
AcDbText
 10
811.230859
 20
162.992904
 30
0.0
 40
2.0
  1
Ａ
 41
0.666667
  7
FX_VECTOR
 72
     5
 11
812.564193
 21
162.992904
 31
0.0
100
AcDbText
  0
LINE
  5
32B
330
1F
100
AcDbEntity
  8
1-1
  6
極太の実線
 62
     3
100
AcDbLine
 10
824.939906
 20
115.193696
 30
0.0
 11
842.340417
 21
115.193696
 31
0.0
  0
LINE
  5
32C
330
1F
100
AcDbEntity
  8
1-1
  6
極太の実線
 62
     3
100
AcDbLine
 10
842.340417
 20
115.193696
 30
0.0
 11
846.140417
 21
127.860363
 31
0.0
  0
LINE
  5
32D
330
1F
100
AcDbEntity
  8
1-1
  6
極太の実線
 62
     3
100
AcDbLine
 10
828.771906
 20
127.96703
 30
0.0
 11
824.939906
 21
115.193696
 31
0.0
  0
LINE
  5
32E
330
1F
100
AcDbEntity
  8
1-1
  6
極太の実線
 62
     3
100
AcDbLine
 10
844.748376
 20
127.860363
 30
0.0
 11
841.904345
 21
121.860363
 31
0.0
  0
LINE
  5
32F
330
1F
100
AcDbEntity
  8
1-1
  6
極太の実線
 62
     3
100
AcDbLine
 10
841.904345
 20
121.860363
 30
0.0
 11
840.948376
 21
115.193696
 31
0.0
  0
LINE
  5
330
330
1F
100
AcDbEntity
  8
1-1
  6
極太の実線
 62
     3
100
AcDbLine
 10
826.331947
 20
115.193696
 30
0.0
 11
829.375978
 21
121.860363
 31
0.0
  0
LINE
  5
331
330
1F
100
AcDbEntity
  8
1-1
  6
極太の実線
 62
     3
100
AcDbLine
 10
829.375978
 20
121.860363
 30
0.0
 11
830.163947
 21
127.96703
 31
0.0
  0
LINE
  5
332
330
1F
100
AcDbEntity
  8
1-1
  6
極太の実線
 62
     3
100
AcDbLine
 10
840.204783
 20
122.575344
 30
0.0
 11
832.222898
 21
124.96991
 31
0.0
  0
LINE
  5
333
330
1F
100
AcDbEntity
  8
1-1
  6
極太の実線
 62
     3
100
AcDbLine
 10
832.222898
 20
124.96991
 30
0.0
 11
830.786158
 21
120.180778
 31
0.0
  0
LINE
  5
334
330
1F
100
AcDbEntity
  8
1-1
  6
極太の実線
 62
     3
100
AcDbLine
 10
830.786158
 20
120.180778
 30
0.0
 11
838.768044
 21
117.786213
 31
0.0
  0
LINE
  5
335
330
1F
100
AcDbEntity
  8
1-1
  6
極太の実線
 62
     3
100
AcDbLine
 10
838.768044
 20
117.786213
 30
0.0
 11
840.204783
 21
122.575344
 31
0.0
  0
INSERT
  5
339
330
1F
100
AcDbEntity
  8
0
100
AcDbBlockReference
  2
BLKF055
 10
0.0
 20
0.0
 30
0.0
  0
INSERT
  5
347
330
1F
100
AcDbEntity
  8
0
100
AcDbBlockReference
  2
BLKF056
 10
0.0
 20
0.0
 30
0.0
  0
INSERT
  5
355
330
1F
100
AcDbEntity
  8
0
100
AcDbBlockReference
  2
BLKF057
 10
0.0
 20
0.0
 30
0.0
  0
INSERT
  5
362
330
1F
100
AcDbEntity
  8
0
100
AcDbBlockReference
  2
BLKF058
 10
0.0
 20
0.0
 30
0.0
  0
INSERT
  5
36F
330
1F
100
AcDbEntity
  8
0
100
AcDbBlockReference
  2
BLKF059
 10
0.0
 20
0.0
 30
0.0
  0
INSERT
  5
37D
330
1F
100
AcDbEntity
  8
0
100
AcDbBlockReference
  2
BLKF060
 10
0.0
 20
0.0
 30
0.0
  0
INSERT
  5
38B
330
1F
100
AcDbEntity
  8
0
100
AcDbBlockReference
  2
BLKF061
 10
0.0
 20
0.0
 30
0.0
  0
INSERT
  5
398
330
1F
100
AcDbEntity
  8
0
100
AcDbBlockReference
  2
BLKF062
 10
0.0
 20
0.0
 30
0.0
  0
INSERT
  5
3A6
330
1F
100
AcDbEntity
  8
0
100
AcDbBlockReference
  2
BLKF063
 10
0.0
 20
0.0
 30
0.0
  0
INSERT
  5
3B4
330
1F
100
AcDbEntity
  8
0
100
AcDbBlockReference
  2
BLKF064
 10
0.0
 20
0.0
 30
0.0
  0
LINE
  5
3BF
330
1F
100
AcDbEntity
  8
1-1
  6
極太の実線
 62
     3
100
AcDbLine
 10
838.944907
 20
115.193696
 30
0.0
 11
840.961536
 21
121.860363
 31
0.0
  0
LINE
  5
3C0
330
1F
100
AcDbEntity
  8
1-1
  6
極太の実線
 62
     3
100
AcDbLine
 10
840.961536
 20
121.860363
 30
0.0
 11
841.904345
 21
121.860363
 31
0.0
  0
LINE
  5
3C1
330
1F
100
AcDbEntity
  8
1-1
  6
極太の実線
 62
     3
100
AcDbLine
 10
842.744907
 20
127.860363
 30
0.0
 11
840.961536
 21
121.860363
 31
0.0
  0
LINE
  5
3C2
330
1F
100
AcDbEntity
  8
1-1
  6
極太の実線
 62
     3
100
AcDbLine
 10
832.167416
 20
127.96703
 30
0.0
 11
830.318787
 21
121.860363
 31
0.0
  0
LINE
  5
3C3
330
1F
100
AcDbEntity
  8
1-1
  6
極太の実線
 62
     3
100
AcDbLine
 10
830.318787
 20
121.860363
 30
0.0
 11
829.375978
 21
121.860363
 31
0.0
  0
LINE
  5
3C4
330
1F
100
AcDbEntity
  8
1-1
  6
極太の実線
 62
     3
100
AcDbLine
 10
830.318787
 20
121.860363
 30
0.0
 11
828.335416
 21
115.193696
 31
0.0
  0
INSERT
  5
3C8
330
1F
100
AcDbEntity
  8
0
100
AcDbBlockReference
  2
BLKF065
 10
0.0
 20
0.0
 30
0.0
  0
INSERT
  5
3D6
330
1F
100
AcDbEntity
  8
0
100
AcDbBlockReference
  2
BLKF066
 10
0.0
 20
0.0
 30
0.0
  0
INSERT
  5
3E4
330
1F
100
AcDbEntity
  8
0
100
AcDbBlockReference
  2
BLKF067
 10
0.0
 20
0.0
 30
0.0
  0
INSERT
  5
3F2
330
1F
100
AcDbEntity
  8
0
100
AcDbBlockReference
  2
BLKF068
 10
0.0
 20
0.0
 30
0.0
  0
INSERT
  5
400
330
1F
100
AcDbEntity
  8
0
100
AcDbBlockReference
  2
BLKF069
 10
0.0
 20
0.0
 30
0.0
  0
INSERT
  5
40E
330
1F
100
AcDbEntity
  8
0
100
AcDbBlockReference
  2
BLKF070
 10
0.0
 20
0.0
 30
0.0
  0
INSERT
  5
41C
330
1F
100
AcDbEntity
  8
0
100
AcDbBlockReference
  2
BLKF071
 10
0.0
 20
0.0
 30
0.0
  0
INSERT
  5
42A
330
1F
100
AcDbEntity
  8
0
100
AcDbBlockReference
  2
BLKF072
 10
0.0
 20
0.0
 30
0.0
  0
LINE
  5
435
330
1F
100
AcDbEntity
  8
1-1
  6
極太の実線
 62
     3
100
AcDbLine
 10
832.109337
 20
131.300363
 30
0.0
 11
832.079087
 21
127.96703
 31
0.0
  0
LINE
  5
436
330
1F
100
AcDbEntity
  8
1-1
  6
極太の実線
 62
     3
100
AcDbLine
 10
837.587128
 20
127.96703
 30
0.0
 11
837.622683
 21
127.860363
 31
0.0
  0
LINE
  5
437
330
1F
100
AcDbEntity
  8
1-1
  6
極太の実線
 62
     3
100
AcDbLine
 10
828.771906
 20
127.96703
 30
0.0
 11
837.587128
 21
127.96703
 31
0.0
  0
LINE
  5
438
330
1F
100
AcDbEntity
  8
1-1
  6
極太の実線
 62
     3
100
AcDbLine
 10
846.140417
 20
127.860363
 30
0.0
 11
837.622683
 21
127.860363
 31
0.0
  0
LINE
  5
439
330
1F
100
AcDbEntity
  8
1-1
  6
極太の実線
 62
     3
100
AcDbLine
 10
837.622683
 20
127.860363
 30
0.0
 11
836.476017
 21
131.300363
 31
0.0
  0
LINE
  5
43A
330
1F
100
AcDbEntity
  8
1-1
  6
極太の実線
 62
     3
100
AcDbLine
 10
832.109337
 20
131.300363
 30
0.0
 11
836.476017
 21
131.300363
 31
0.0
  0
LINE
  5
43B
330
1F
100
AcDbEntity
  8
1-1
  6
極太の実線
 62
     3
100
AcDbLine
 10
832.079087
 20
127.96703
 30
0.0
 11
832.167416
 21
127.96703
 31
0.0
  0
LINE
  5
43C
330
1F
100
AcDbEntity
  8
GR1-1
  6
細い実線
 62
     7
100
AcDbLine
 10
828.657699
 20
127.586339
 30
0.0
 11
827.430665
 21
127.671946
 31
0.0
  0
LINE
  5
43D
330
1F
100
AcDbEntity
  8
GR1-1
  6
細い実線
 62
     7
100
AcDbLine
 10
827.430665
 20
127.671946
 30
0.0
 11
826.149668
 21
124.323196
 31
0.0
  0
LINE
  5
43E
330
1F
100
AcDbEntity
  8
GR1-1
  6
細い実線
 62
     7
100
AcDbLine
 10
826.149668
 20
124.323196
 30
0.0
 11
825.50188
 21
120.789805
 31
0.0
  0
LINE
  5
43F
330
1F
100
AcDbEntity
  8
GR1-1
  6
細い実線
 62
     7
100
AcDbLine
 10
825.50188
 20
120.789805
 30
0.0
 11
826.441889
 21
120.200307
 31
0.0
  0
LINE
  5
440
330
1F
100
AcDbEntity
  8
GR1-1
  6
細い実線
 62
     7
100
AcDbLine
 10
826.391582
 20
120.032615
 30
0.0
 11
825.3841
 21
120.173194
 31
0.0
  0
LINE
  5
441
330
1F
100
AcDbEntity
  8
GR1-1
  6
細い実線
 62
     7
100
AcDbLine
 10
825.3841
 20
120.173194
 30
0.0
 11
824.608139
 21
118.354536
 31
0.0
  0
LINE
  5
442
330
1F
100
AcDbEntity
  8
GR1-1
  6
細い実線
 62
     7
100
AcDbLine
 10
824.608139
 20
118.354536
 30
0.0
 11
824.171662
 21
117.045103
 31
0.0
  0
LINE
  5
443
330
1F
100
AcDbEntity
  8
GR1-1
  6
細い実線
 62
     7
100
AcDbLine
 10
824.171662
 20
117.045103
 30
0.0
 11
824.026169
 21
116.002406
 31
0.0
  0
LINE
  5
444
330
1F
100
AcDbEntity
  8
GR1-1
  6
細い実線
 62
     7
100
AcDbLine
 10
824.026169
 20
116.002406
 30
0.0
 11
825.040133
 21
115.527785
 31
0.0
  0
LINE
  5
445
330
1F
100
AcDbEntity
  8
1-1
  6
細い実線
 62
     7
100
AcDbLine
 10
832.079087
 20
131.860363
 30
0.0
 11
832.079087
 21
136.860363
 31
0.0
  0
INSERT
  5
449
330
1F
100
AcDbEntity
  8
0
100
AcDbBlockReference
  2
BLKF073
 10
0.0
 20
0.0
 30
0.0
  0
LINE
  5
454
330
1F
100
AcDbEntity
  8
GR1-1
  6
極太の実線
 62
     3
100
AcDbLine
 10
723.885975
 20
115.481044
 30
0.0
 11
723.672179
 21
115.193696
 31
0.0
  0
LINE
  5
455
330
1F
100
AcDbEntity
  8
1-1
  6
極太の実線
 62
     3
100
AcDbLine
 10
723.972179
 20
115.193696
 30
0.0
 11
720.140179
 21
127.96703
 31
0.0
  0
LINE
  5
456
330
1F
100
AcDbEntity
  8
1-1
  6
極太の実線
 62
     3
100
AcDbLine
 10
721.406133
 20
118.52703
 30
0.0
 11
720.362103
 21
116.206961
 31
0.0
  0
LINE
  5
457
330
1F
100
AcDbEntity
  8
1-1
  6
極太の実線
 62
     3
100
AcDbLine
 10
722.356133
 20
115.360363
 30
0.0
 11
720.362103
 21
116.206961
 31
0.0
  0
LINE
  5
458
330
1F
100
AcDbEntity
  8
1-1
  6
極太の実線
 62
     3
100
AcDbLine
 10
720.362103
 20
116.206961
 30
0.0
 11
721.312103
 21
115.360363
 31
0.0
  0
LINE
  5
459
330
1F
100
AcDbEntity
  8
1-1
  6
極太の実線
 62
     3
100
AcDbLine
 10
721.406133
 20
118.52703
 30
0.0
 11
720.362103
 21
118.52703
 31
0.0
  0
LINE
  5
45A
330
1F
100
AcDbEntity
  8
1-1
  6
極太の実線
 62
     3
100
AcDbLine
 10
720.362103
 20
118.52703
 30
0.0
 11
720.362103
 21
116.206961
 31
0.0
  0
LINE
  5
45B
330
1F
100
AcDbEntity
  8
1-1
  6
極太の実線
 62
     3
100
AcDbLine
 10
721.312103
 20
115.360363
 30
0.0
 11
722.356133
 21
115.360363
 31
0.0
  0
LINE
  5
45C
330
1F
100
AcDbEntity
  8
1-1
  6
極太の実線
 62
     3
100
AcDbLine
 10
720.666082
 20
115.193696
 30
0.0
 11
716.834082
 21
127.96703
 31
0.0
  0
LINE
  5
45D
330
1F
100
AcDbEntity
  8
1-1
  6
極太の実線
 62
     3
100
AcDbLine
 10
702.771668
 20
127.860363
 30
0.0
 11
706.571668
 21
115.193696
 31
0.0
  0
LINE
  5
45E
330
1F
100
AcDbEntity
  8
1-1
  6
極太の実線
 62
     3
100
AcDbLine
 10
706.077765
 20
127.860363
 30
0.0
 11
709.877765
 21
115.193696
 31
0.0
  0
LINE
  5
45F
330
1F
100
AcDbEntity
  8
1-1
  6
極太の実線
 62
     3
100
AcDbLine
 10
709.181745
 20
115.193696
 30
0.0
 11
705.381745
 21
127.860363
 31
0.0
  0
LINE
  5
460
330
1F
100
AcDbEntity
  8
1-1
  6
極太の実線
 62
     3
100
AcDbLine
 10
717.530103
 20
127.96703
 30
0.0
 11
720.362103
 21
118.52703
 31
0.0
  0
LINE
  5
461
330
1F
100
AcDbEntity
  8
1-1
  6
極太の実線
 62
     3
100
AcDbLine
 10
721.312103
 20
115.360363
 30
0.0
 11
721.362103
 21
115.193696
 31
0.0
  0
LINE
  5
462
330
1F
100
AcDbEntity
  8
1-1
  6
極太の実線
 62
     3
100
AcDbLine
 10
704.337714
 20
127.860363
 30
0.0
 11
708.137714
 21
115.193696
 31
0.0
  0
LINE
  5
463
330
1F
100
AcDbEntity
  8
1-1
  6
極太の実線
 62
     3
100
AcDbLine
 10
722.406133
 20
115.193696
 30
0.0
 11
718.574133
 21
127.96703
 31
0.0
  0
INSERT
  5
467
330
1F
100
AcDbEntity
  8
0
100
AcDbBlockReference
  2
BLKF074
 10
0.0
 20
0.0
 30
0.0
  0
INSERT
  5
471
330
1F
100
AcDbEntity
  8
0
100
AcDbBlockReference
  2
BLKF075
 10
0.0
 20
0.0
 30
0.0
  0
INSERT
  5
47F
330
1F
100
AcDbEntity
  8
0
100
AcDbBlockReference
  2
BLKF076
 10
0.0
 20
0.0
 30
0.0
  0
INSERT
  5
48C
330
1F
100
AcDbEntity
  8
0
100
AcDbBlockReference
  2
BLKF077
 10
0.0
 20
0.0
 30
0.0
  0
INSERT
  5
499
330
1F
100
AcDbEntity
  8
0
100
AcDbBlockReference
  2
BLKF078
 10
0.0
 20
0.0
 30
0.0
  0
INSERT
  5
4A7
330
1F
100
AcDbEntity
  8
0
100
AcDbBlockReference
  2
BLKF079
 10
0.0
 20
0.0
 30
0.0
  0
INSERT
  5
4B4
330
1F
100
AcDbEntity
  8
0
100
AcDbBlockReference
  2
BLKF080
 10
0.0
 20
0.0
 30
0.0
  0
INSERT
  5
4C1
330
1F
100
AcDbEntity
  8
0
100
AcDbBlockReference
  2
BLKF081
 10
0.0
 20
0.0
 30
0.0
  0
INSERT
  5
4CF
330
1F
100
AcDbEntity
  8
0
100
AcDbBlockReference
  2
BLKF082
 10
0.0
 20
0.0
 30
0.0
  0
INSERT
  5
4DD
330
1F
100
AcDbEntity
  8
0
100
AcDbBlockReference
  2
BLKF083
 10
0.0
 20
0.0
 30
0.0
  0
INSERT
  5
4EB
330
1F
100
AcDbEntity
  8
0
100
AcDbBlockReference
  2
BLKF084
 10
0.0
 20
0.0
 30
0.0
  0
INSERT
  5
4F8
330
1F
100
AcDbEntity
  8
0
100
AcDbBlockReference
  2
BLKF085
 10
0.0
 20
0.0
 30
0.0
  0
INSERT
  5
506
330
1F
100
AcDbEntity
  8
0
100
AcDbBlockReference
  2
BLKF086
 10
0.0
 20
0.0
 30
0.0
  0
INSERT
  5
514
330
1F
100
AcDbEntity
  8
0
100
AcDbBlockReference
  2
BLKF087
 10
0.0
 20
0.0
 30
0.0
  0
INSERT
  5
522
330
1F
100
AcDbEntity
  8
0
100
AcDbBlockReference
  2
BLKF088
 10
0.0
 20
0.0
 30
0.0
  0
INSERT
  5
52F
330
1F
100
AcDbEntity
  8
0
100
AcDbBlockReference
  2
BLKF089
 10
0.0
 20
0.0
 30
0.0
  0
INSERT
  5
53C
330
1F
100
AcDbEntity
  8
0
100
AcDbBlockReference
  2
BLKF090
 10
0.0
 20
0.0
 30
0.0
  0
INSERT
  5
549
330
1F
100
AcDbEntity
  8
0
100
AcDbBlockReference
  2
BLKF091
 10
0.0
 20
0.0
 30
0.0
  0
LINE
  5
552
330
1F
100
AcDbEntity
  8
1-1
  6
極太の実線
 62
     3
100
AcDbLine
 10
723.972179
 20
115.193696
 30
0.0
 11
706.571668
 21
115.193696
 31
0.0
  0
LINE
  5
553
330
1F
100
AcDbEntity
  8
1-1
  6
極太の実線
 62
     3
100
AcDbLine
 10
706.571668
 20
115.193696
 30
0.0
 11
702.771668
 21
127.860363
 31
0.0
  0
LINE
  5
554
330
1F
100
AcDbEntity
  8
1-1
  6
極太の実線
 62
     3
100
AcDbLine
 10
720.140179
 20
127.96703
 30
0.0
 11
723.972179
 21
115.193696
 31
0.0
  0
LINE
  5
555
330
1F
100
AcDbEntity
  8
1-1
  6
極太の実線
 62
     3
100
AcDbLine
 10
708.707302
 20
122.575344
 30
0.0
 11
716.689187
 21
124.96991
 31
0.0
  0
LINE
  5
556
330
1F
100
AcDbEntity
  8
1-1
  6
極太の実線
 62
     3
100
AcDbLine
 10
716.689187
 20
124.96991
 30
0.0
 11
718.125927
 21
120.180778
 31
0.0
  0
LINE
  5
557
330
1F
100
AcDbEntity
  8
1-1
  6
極太の実線
 62
     3
100
AcDbLine
 10
718.125927
 20
120.180778
 30
0.0
 11
710.144041
 21
117.786213
 31
0.0
  0
LINE
  5
558
330
1F
100
AcDbEntity
  8
1-1
  6
極太の実線
 62
     3
100
AcDbLine
 10
710.144041
 20
117.786213
 30
0.0
 11
708.707302
 21
122.575344
 31
0.0
  0
LINE
  5
559
330
1F
100
AcDbEntity
  8
1-1
  6
極太の実線
 62
     3
100
AcDbLine
 10
709.473563
 20
116.541039
 30
0.0
 11
719.371101
 21
119.5103
 31
0.0
  0
LINE
  5
55A
330
1F
100
AcDbEntity
  8
1-1
  6
極太の実線
 62
     3
100
AcDbLine
 10
719.371101
 20
119.5103
 30
0.0
 11
717.359666
 21
126.215084
 31
0.0
  0
LINE
  5
55B
330
1F
100
AcDbEntity
  8
1-1
  6
極太の実線
 62
     3
100
AcDbLine
 10
717.359666
 20
126.215084
 30
0.0
 11
707.462127
 21
123.245823
 31
0.0
  0
LINE
  5
55C
330
1F
100
AcDbEntity
  8
1-1
  6
極太の実線
 62
     3
100
AcDbLine
 10
707.462127
 20
123.245823
 30
0.0
 11
709.473563
 21
116.541039
 31
0.0
  0
LINE
  5
55D
330
1F
100
AcDbEntity
  8
1-1
  6
極太の実線
 62
     3
100
AcDbLine
 10
717.359666
 20
126.215084
 30
0.0
 11
716.689187
 21
124.96991
 31
0.0
  0
LINE
  5
55E
330
1F
100
AcDbEntity
  8
1-1
  6
極太の実線
 62
     3
100
AcDbLine
 10
718.125927
 20
120.180778
 30
0.0
 11
719.371101
 21
119.5103
 31
0.0
  0
LINE
  5
55F
330
1F
100
AcDbEntity
  8
1-1
  6
極太の実線
 62
     3
100
AcDbLine
 10
710.144041
 20
117.786213
 30
0.0
 11
709.473563
 21
116.541039
 31
0.0
  0
LINE
  5
560
330
1F
100
AcDbEntity
  8
1-1
  6
極太の実線
 62
     3
100
AcDbLine
 10
708.707302
 20
122.575344
 30
0.0
 11
707.462127
 21
123.245823
 31
0.0
  0
INSERT
  5
564
330
1F
100
AcDbEntity
  8
0
100
AcDbBlockReference
  2
BLKF092
 10
0.0
 20
0.0
 30
0.0
  0
INSERT
  5
572
330
1F
100
AcDbEntity
  8
0
100
AcDbBlockReference
  2
BLKF093
 10
0.0
 20
0.0
 30
0.0
  0
INSERT
  5
580
330
1F
100
AcDbEntity
  8
0
100
AcDbBlockReference
  2
BLKF094
 10
0.0
 20
0.0
 30
0.0
  0
LINE
  5
58B
330
1F
100
AcDbEntity
  8
1-1
  6
極太の実線
 62
     3
100
AcDbLine
 10
720.140179
 20
127.96703
 30
0.0
 11
716.832998
 21
127.96703
 31
0.0
  0
LINE
  5
58C
330
1F
100
AcDbEntity
  8
1-1
  6
極太の実線
 62
     3
100
AcDbLine
 10
716.802748
 20
131.300363
 30
0.0
 11
716.832998
 21
127.96703
 31
0.0
  0
LINE
  5
58D
330
1F
100
AcDbEntity
  8
1-1
  6
極太の実線
 62
     3
100
AcDbLine
 10
711.324957
 20
127.96703
 30
0.0
 11
711.289402
 21
127.860363
 31
0.0
  0
LINE
  5
58E
330
1F
100
AcDbEntity
  8
1-1
  6
極太の実線
 62
     3
100
AcDbLine
 10
702.771668
 20
127.860363
 30
0.0
 11
711.289402
 21
127.860363
 31
0.0
  0
LINE
  5
58F
330
1F
100
AcDbEntity
  8
1-1
  6
極太の実線
 62
     3
100
AcDbLine
 10
711.324957
 20
127.96703
 30
0.0
 11
712.436069
 21
131.300363
 31
0.0
  0
LINE
  5
590
330
1F
100
AcDbEntity
  8
1-1
  6
極太の実線
 62
     3
100
AcDbLine
 10
716.802748
 20
131.300363
 30
0.0
 11
712.436069
 21
131.300363
 31
0.0
  0
LINE
  5
591
330
1F
100
AcDbEntity
  8
1-1
  6
極太の実線
 62
     3
100
AcDbLine
 10
716.832998
 20
127.96703
 30
0.0
 11
716.744669
 21
127.96703
 31
0.0
  0
LINE
  5
592
330
1F
100
AcDbEntity
  8
GR1-1
  6
細い実線
 62
     7
100
AcDbLine
 10
720.236416
 20
127.646241
 30
0.0
 11
721.458634
 21
127.731512
 31
0.0
  0
LINE
  5
593
330
1F
100
AcDbEntity
  8
GR1-1
  6
細い実線
 62
     7
100
AcDbLine
 10
721.458634
 20
127.731512
 30
0.0
 11
722.762417
 21
124.323196
 31
0.0
  0
LINE
  5
594
330
1F
100
AcDbEntity
  8
GR1-1
  6
細い実線
 62
     7
100
AcDbLine
 10
722.762417
 20
124.323196
 30
0.0
 11
723.515852
 21
120.213552
 31
0.0
  0
LINE
  5
595
330
1F
100
AcDbEntity
  8
GR1-1
  6
細い実線
 62
     7
100
AcDbLine
 10
723.515852
 20
120.213552
 30
0.0
 11
722.632426
 21
119.659539
 31
0.0
  0
LINE
  5
596
330
1F
100
AcDbEntity
  8
GR1-1
  6
細い実線
 62
     7
100
AcDbLine
 10
722.686141
 20
119.480491
 30
0.0
 11
723.759628
 21
119.63028
 31
0.0
  0
LINE
  5
597
330
1F
100
AcDbEntity
  8
GR1-1
  6
細い実線
 62
     7
100
AcDbLine
 10
723.759628
 20
119.63028
 30
0.0
 11
724.303946
 21
118.354536
 31
0.0
  0
LINE
  5
598
330
1F
100
AcDbEntity
  8
GR1-1
  6
細い実線
 62
     7
100
AcDbLine
 10
724.303946
 20
118.354536
 30
0.0
 11
724.740423
 21
117.045103
 31
0.0
  0
LINE
  5
599
330
1F
100
AcDbEntity
  8
GR1-1
  6
細い実線
 62
     7
100
AcDbLine
 10
724.740423
 20
117.045103
 30
0.0
 11
724.885916
 21
116.002406
 31
0.0
  0
LINE
  5
59A
330
1F
100
AcDbEntity
  8
GR1-1
  6
細い実線
 62
     7
100
AcDbLine
 10
724.885916
 20
116.002406
 30
0.0
 11
723.871953
 21
115.527785
 31
0.0
  0
ENDSEC
  0
SECTION
  2
OBJECTS
  0
DICTIONARY
  5
C
330
0
100
AcDbDictionary
  3
ACAD_GROUP
350
D
  3
ACAD_LAYOUT
350
1A
  3
ACAD_MLINESTYLE
350
17
  3
ACAD_PLOTSETTINGS
350
19
1001
ACAD
1000
TREAT_AS_HARD
1070
     0
  0
DICTIONARY
  5
5A1
330
29
100
AcDbDictionary
  3
ACAD_XREC_ROUNDTRIP
360
5A2
  0
DICTIONARY
  5
D
102
{ACAD_REACTORS
330
C
102
}
330
C
100
AcDbDictionary
1001
ACAD
1000
TREAT_AS_HARD
1070
     0
  0
DICTIONARY
  5
1A
102
{ACAD_REACTORS
330
C
102
}
330
C
100
AcDbDictionary
1001
ACAD
1000
TREAT_AS_HARD
1070
     0
  0
DICTIONARY
  5
17
102
{ACAD_REACTORS
330
C
102
}
330
C
100
AcDbDictionary
  3
STANDARD
350
18
1001
ACAD
1000
TREAT_AS_HARD
1070
     0
  0
DICTIONARY
  5
19
102
{ACAD_REACTORS
330
C
102
}
330
C
100
AcDbDictionary
1001
ACAD
1000
TREAT_AS_HARD
1070
     0
  0
XRECORD
  5
5A2
102
{ACAD_REACTORS
330
5A1
102
}
330
5A1
100
AcDbXrecord
102
UCS
 74
     0
 71
     1
 10
0.0
 20
0.0
 30
0.0
 10
1.0
 20
0.0
 30
0.0
 10
0.0
 20
1.0
 30
0.0
146
0.0
 79
     0
102
VIEW
281
     0
  0
MLINESTYLE
  5
18
102
{ACAD_REACTORS
330
17
102
}
330
17
100
AcDbMlineStyle
  2
Standard
 70
     0
  3

 62
   256
 51
90.0
 52
90.0
 71
     2
 49
0.5
 62
   256
  6
BYLAYER
 49
-0.5
 62
   256
  6
BYLAYER
  0
ENDSEC
  0
EOF
