  0
SECTION
  2
HEADER
  9
$ACADVER
  1
AC1018
  9
$ACADMAINTVER
 70
     0
  9
$DWGCODEPAGE
  3
ANSI_932
  9
$INSBASE
 10
591.7209567771588
 20
8.110360254358852
 30
0.0
  9
$EXTMIN
 10
591.7209567771588
 20
8.110360254358852
 30
0.0
  9
$EXTMAX
 10
962.9709641969546
 20
270.610365500679
 30
0.0
  9
$LIMMIN
 10
591.7209567771588
 20
8.110360254358852
  9
$LIMMAX
 10
962.9709641969546
 20
270.610365500679
  9
$ORTHOMODE
 70
     0
  9
$REGENMODE
 70
     1
  9
$FILLMODE
 70
     1
  9
$QTEXTMODE
 70
     0
  9
$MIRRTEXT
 70
     1
  9
$LTSCALE
 40
1.0
  9
$ATTMODE
 70
     1
  9
$TEXTSIZE
 40
2.5
  9
$TRACEWID
 40
1.0
  9
$TEXTSTYLE
  7
FX_VECTOR
  9
$CLAYER
  8
0
  9
$CELTYPE
  6
ByLayer
  9
$CECOLOR
 62
   256
  9
$CELTSCALE
 40
1.0
  9
$DISPSILH
 70
     0
  9
$DIMSCALE
 40
1.0
  9
$DIMASZ
 40
2.5
  9
$DIMEXO
 40
0.625
  9
$DIMDLI
 40
3.75
  9
$DIMRND
 40
0.0
  9
$DIMDLE
 40
0.0
  9
$DIMEXE
 40
1.25
  9
$DIMTP
 40
0.0
  9
$DIMTM
 40
0.0
  9
$DIMTXT
 40
2.5
  9
$DIMCEN
 40
2.5
  9
$DIMTSZ
 40
0.0
  9
$DIMTOL
 70
     0
  9
$DIMLIM
 70
     0
  9
$DIMTIH
 70
     0
  9
$DIMTOH
 70
     0
  9
$DIMSE1
 70
     0
  9
$DIMSE2
 70
     0
  9
$DIMTAD
 70
     1
  9
$DIMZIN
 70
     8
  9
$DIMBLK
  1

  9
$DIMASO
 70
     1
  9
$DIMSHO
 70
     1
  9
$DIMPOST
  1

  9
$DIMAPOST
  1

  9
$DIMALT
 70
     0
  9
$DIMALTD
 70
     3
  9
$DIMALTF
 40
0.03937007874016
  9
$DIMLFAC
 40
1.0
  9
$DIMTOFL
 70
     1
  9
$DIMTVP
 40
0.0
  9
$DIMTIX
 70
     0
  9
$DIMSOXD
 70
     0
  9
$DIMSAH
 70
     0
  9
$DIMBLK1
  1

  9
$DIMBLK2
  1

  9
$DIMSTYLE
  2
ISO-25
  9
$DIMCLRD
 70
     0
  9
$DIMCLRE
 70
     0
  9
$DIMCLRT
 70
     0
  9
$DIMTFAC
 40
1.0
  9
$DIMGAP
 40
0.625
  9
$DIMJUST
 70
     0
  9
$DIMSD1
 70
     0
  9
$DIMSD2
 70
     0
  9
$DIMTOLJ
 70
     0
  9
$DIMTZIN
 70
     8
  9
$DIMALTZ
 70
     0
  9
$DIMALTTZ
 70
     0
  9
$DIMUPT
 70
     0
  9
$DIMDEC
 70
     2
  9
$DIMTDEC
 70
     2
  9
$DIMALTU
 70
     2
  9
$DIMALTTD
 70
     3
  9
$DIMTXSTY
  7
Standard
  9
$DIMAUNIT
 70
     0
  9
$DIMADEC
 70
     0
  9
$DIMALTRND
 40
0.0
  9
$DIMAZIN
 70
     0
  9
$DIMDSEP
 70
    44
  9
$DIMATFIT
 70
     3
  9
$DIMFRAC
 70
     0
  9
$DIMLDRBLK
  1

  9
$DIMLUNIT
 70
     2
  9
$DIMLWD
 70
    -2
  9
$DIMLWE
 70
    -2
  9
$DIMTMOVE
 70
     0
  9
$LUNITS
 70
     2
  9
$LUPREC
 70
     4
  9
$SKETCHINC
 40
1.0
  9
$FILLETRAD
 40
10.0
  9
$AUNITS
 70
     0
  9
$AUPREC
 70
     0
  9
$MENU
  1
.
  9
$ELEVATION
 40
0.0
  9
$PELEVATION
 40
0.0
  9
$THICKNESS
 40
0.0
  9
$LIMCHECK
 70
     0
  9
$CHAMFERA
 40
0.0
  9
$CHAMFERB
 40
0.0
  9
$CHAMFERC
 40
0.0
  9
$CHAMFERD
 40
0.0
  9
$SKPOLY
 70
     0
  9
$TDCREATE
 40
2457049.555090324
  9
$TDUCREATE
 40
2457049.180090324
  9
$TDUPDATE
 40
2457049.555090694
  9
$TDUUPDATE
 40
2457049.180090694
  9
$TDINDWG
 40
0.0000000116
  9
$TDUSRTIMER
 40
0.0000000116
  9
$USRTIMER
 70
     1
  9
$ANGBASE
 50
0.0
  9
$ANGDIR
 70
     0
  9
$PDMODE
 70
     0
  9
$PDSIZE
 40
0.0
  9
$PLINEWID
 40
0.0
  9
$SPLFRAME
 70
     0
  9
$SPLINETYPE
 70
     6
  9
$SPLINESEGS
 70
     8
  9
$HANDSEED
  5
3A8
  9
$SURFTAB1
 70
     6
  9
$SURFTAB2
 70
     6
  9
$SURFTYPE
 70
     6
  9
$SURFU
 70
     6
  9
$SURFV
 70
     6
  9
$UCSBASE
  2

  9
$UCSNAME
  2

  9
$UCSORG
 10
0.0
 20
0.0
 30
0.0
  9
$UCSXDIR
 10
1.0
 20
0.0
 30
0.0
  9
$UCSYDIR
 10
0.0
 20
1.0
 30
0.0
  9
$UCSORTHOREF
  2

  9
$UCSORTHOVIEW
 70
     0
  9
$UCSORGTOP
 10
0.0
 20
0.0
 30
0.0
  9
$UCSORGBOTTOM
 10
0.0
 20
0.0
 30
0.0
  9
$UCSORGLEFT
 10
0.0
 20
0.0
 30
0.0
  9
$UCSORGRIGHT
 10
0.0
 20
0.0
 30
0.0
  9
$UCSORGFRONT
 10
0.0
 20
0.0
 30
0.0
  9
$UCSORGBACK
 10
0.0
 20
0.0
 30
0.0
  9
$PUCSBASE
  2

  9
$PUCSNAME
  2

  9
$PUCSORG
 10
0.0
 20
0.0
 30
0.0
  9
$PUCSXDIR
 10
1.0
 20
0.0
 30
0.0
  9
$PUCSYDIR
 10
0.0
 20
1.0
 30
0.0
  9
$PUCSORTHOREF
  2

  9
$PUCSORTHOVIEW
 70
     0
  9
$PUCSORGTOP
 10
0.0
 20
0.0
 30
0.0
  9
$PUCSORGBOTTOM
 10
0.0
 20
0.0
 30
0.0
  9
$PUCSORGLEFT
 10
0.0
 20
0.0
 30
0.0
  9
$PUCSORGRIGHT
 10
0.0
 20
0.0
 30
0.0
  9
$PUCSORGFRONT
 10
0.0
 20
0.0
 30
0.0
  9
$PUCSORGBACK
 10
0.0
 20
0.0
 30
0.0
  9
$USERI1
 70
     0
  9
$USERI2
 70
     0
  9
$USERI3
 70
     0
  9
$USERI4
 70
     0
  9
$USERI5
 70
     0
  9
$USERR1
 40
0.0
  9
$USERR2
 40
0.0
  9
$USERR3
 40
0.0
  9
$USERR4
 40
0.0
  9
$USERR5
 40
0.0
  9
$WORLDVIEW
 70
     1
  9
$SHADEDGE
 70
     3
  9
$SHADEDIF
 70
    70
  9
$TILEMODE
 70
     1
  9
$MAXACTVP
 70
    64
  9
$PINSBASE
 10
0.0
 20
0.0
 30
0.0
  9
$PLIMCHECK
 70
     0
  9
$PEXTMIN
 10
1.000000000000000E+20
 20
1.000000000000000E+20
 30
1.000000000000000E+20
  9
$PEXTMAX
 10
-1.000000000000000E+20
 20
-1.000000000000000E+20
 30
-1.000000000000000E+20
  9
$PLIMMIN
 10
0.0
 20
0.0
  9
$PLIMMAX
 10
420.0
 20
297.0
  9
$UNITMODE
 70
     0
  9
$VISRETAIN
 70
     1
  9
$PLINEGEN
 70
     0
  9
$PSLTSCALE
 70
     1
  9
$TREEDEPTH
 70
  3020
  9
$CMLSTYLE
  2
Standard
  9
$CMLJUST
 70
     0
  9
$CMLSCALE
 40
20.0
  9
$PROXYGRAPHICS
 70
     1
  9
$MEASUREMENT
 70
     1
  9
$CELWEIGHT
370
    -1
  9
$ENDCAPS
280
     0
  9
$JOINSTYLE
280
     0
  9
$LWDISPLAY
290
     0
  9
$INSUNITS
 70
     4
  9
$HYPERLINKBASE
  1

  9
$STYLESHEET
  1

  9
$XEDIT
290
     1
  9
$CEPSNTYPE
380
     0
  9
$PSTYLEMODE
290
     1
  9
$FINGERPRINTGUID
  2
{3A2E37AA-A6A5-45A1-B347-C8A6353D41D2}
  9
$VERSIONGUID
  2
{FAEB1C32-E019-11D5-929B-00C0DF256EC4}
  9
$EXTNAMES
290
     1
  9
$PSVPSCALE
 40
0.0
  9
$OLESTARTUP
290
     0
  9
$SORTENTS
280
   127
  9
$INDEXCTL
280
     0
  9
$HIDETEXT
280
     1
  9
$XCLIPFRAME
290
     0
  9
$HALOGAP
280
     0
  9
$OBSCOLOR
 70
   257
  9
$OBSLTYPE
280
     0
  9
$INTERSECTIONDISPLAY
280
     0
  9
$INTERSECTIONCOLOR
 70
   257
  9
$DIMASSOC
280
     2
  9
$PROJECTNAME
  1

  0
ENDSEC
  0
SECTION
  2
CLASSES
  0
CLASS
  1
ACDBDICTIONARYWDFLT
  2
AcDbDictionaryWithDefault
  3
ObjectDBX Classes
 90
        0
 91
        4
280
     0
281
     0
  0
CLASS
  1
VISUALSTYLE
  2
AcDbVisualStyle
  3
ObjectDBX Classes
 90
     4095
 91
        4
280
     0
281
     0
  0
CLASS
  1
MATERIAL
  2
AcDbMaterial
  3
ObjectDBX Classes
 90
     1153
 91
        4
280
     0
281
     0
  0
CLASS
  1
SCALE
  2
AcDbScale
  3
ObjectDBX Classes
 90
     1153
 91
        4
280
     0
281
     0
  0
CLASS
  1
SUN
  2
AcDbSun
  3
SCENEOE
 90
     1153
 91
        4
280
     0
281
     0
  0
CLASS
  1
DICTIONARYVAR
  2
AcDbDictionaryVar
  3
ObjectDBX Classes
 90
        0
 91
        4
280
     0
281
     0
  0
ENDSEC
  0
SECTION
  2
TABLES
  0
TABLE
  2
VPORT
  5
8
102
{ACAD_XDICTIONARY
360
369
102
}
330
0
100
AcDbSymbolTable
 70
     1
  0
VPORT
  5
29
330
8
100
AcDbSymbolTableRecord
100
AcDbViewportTableRecord
  2
*Active
 70
     0
 10
0.0
 20
0.0
 11
1.0
 21
1.0
 12
777.3459604870567
 22
139.3603628775189
 13
0.0
 23
0.0
 14
10.0
 24
10.0
 15
10.0
 25
10.0
 16
0.0
 26
0.0
 36
1.0
 17
0.0
 27
0.0
 37
0.0
 40
262.5000052463201
 41
1.414285714285715
 42
50.0
 43
0.0
 44
0.0
 50
0.0
 51
0.0
 71
     0
 72
   100
 73
     1
 74
     3
 75
     0
 76
     0
 77
     0
 78
     0
281
     0
 65
     1
110
0.0
120
0.0
130
0.0
111
1.0
121
0.0
131
0.0
112
0.0
122
1.0
132
0.0
 79
     0
146
0.0
  0
ENDTAB
  0
TABLE
  2
LTYPE
  5
5
330
0
100
AcDbSymbolTable
 70
     5
  0
LTYPE
  5
14
330
5
100
AcDbSymbolTableRecord
100
AcDbLinetypeTableRecord
  2
ByBlock
 70
     0
  3

 72
    65
 73
     0
 40
0.0
  0
LTYPE
  5
15
330
5
100
AcDbSymbolTableRecord
100
AcDbLinetypeTableRecord
  2
ByLayer
 70
     0
  3

 72
    65
 73
     0
 40
0.0
  0
LTYPE
  5
16
330
5
100
AcDbSymbolTableRecord
100
AcDbLinetypeTableRecord
  2
Continuous
 70
     0
  3
Solid line
 72
    65
 73
     0
 40
0.0
  0
LTYPE
  5
D8
330
5
100
AcDbSymbolTableRecord
100
AcDbLinetypeTableRecord
  2
実線
 70
     0
  3

 72
    65
 73
     0
 40
0.0
  0
LTYPE
  5
278
330
5
100
AcDbSymbolTableRecord
100
AcDbLinetypeTableRecord
  2
020-1-TENSEN1
 70
     0
  3

 72
    65
 73
     2
 40
1.0
 49
0.5
 74
     0
 49
-0.5
 74
     0
  0
LTYPE
  5
2FB
330
5
100
AcDbSymbolTableRecord
100
AcDbLinetypeTableRecord
  2
点線
 70
     0
  3

 72
    65
 73
     2
 40
2.5
 49
2.0
 74
     0
 49
-0.5
 74
     0
  0
LTYPE
  5
30C
330
5
100
AcDbSymbolTableRecord
100
AcDbLinetypeTableRecord
  2
一点鎖線
 70
     0
  3

 72
    65
 73
     4
 40
13.0
 49
10.0
 74
     0
 49
-1.0
 74
     0
 49
1.0
 74
     0
 49
-1.0
 74
     0
  0
ENDTAB
  0
TABLE
  2
LAYER
  5
2
330
0
100
AcDbSymbolTable
 70
     3
  0
LAYER
  5
10
330
2
100
AcDbSymbolTableRecord
100
AcDbLayerTableRecord
  2
0
 70
     0
 62
     7
  6
Continuous
370
    -3
390
F
  0
LAYER
  5
D5
330
2
100
AcDbSymbolTableRecord
100
AcDbLayerTableRecord
  2
Defpoints
 70
     0
 62
     7
  6
Continuous
290
     0
370
    -3
390
F
  0
LAYER
  5
D7
330
2
100
AcDbSymbolTableRecord
100
AcDbLayerTableRecord
  2
GR1_01
 70
     0
 62
     1
  6
実線
370
    20
390
F
  0
ENDTAB
  0
TABLE
  2
STYLE
  5
3
330
0
100
AcDbSymbolTable
 70
     4
  0
STYLE
  5
11
330
3
100
AcDbSymbolTableRecord
100
AcDbTextStyleTableRecord
  2
Standard
 70
     0
 40
0.0
 41
1.0
 50
0.0
 71
     0
 42
2.5
  3
txt
  4

  0
STYLE
  5
6A
330
3
100
AcDbSymbolTableRecord
100
AcDbTextStyleTableRecord
  2
FX_VECTOR
 70
     0
 40
0.0
 41
1.0
 50
0.0
 71
     0
 42
2.5
  3
MONOTXT.SHX
  4
BigFont.shx
  0
STYLE
  5
D6
330
3
100
AcDbSymbolTableRecord
100
AcDbTextStyleTableRecord
  2
DEFAULT
 70
     0
 40
0.0
 41
1.0
 50
0.0
 71
     0
 42
2.5
  3

  4

1001
ACAD
1000
ＭＳ ゴシック
1071
    32817
  0
STYLE
  5
E7
330
3
100
AcDbSymbolTableRecord
100
AcDbTextStyleTableRecord
  2
ＭＳ ゴシック
 70
     0
 40
0.0
 41
1.0
 50
0.0
 71
     0
 42
2.5
  3

  4

1001
ACAD
1000
ＭＳ ゴシック
1071
    32817
  0
ENDTAB
  0
TABLE
  2
VIEW
  5
6
330
0
100
AcDbSymbolTable
 70
     0
  0
ENDTAB
  0
TABLE
  2
UCS
  5
7
330
0
100
AcDbSymbolTable
 70
     0
  0
ENDTAB
  0
TABLE
  2
APPID
  5
9
330
0
100
AcDbSymbolTable
 70
     1
  0
APPID
  5
12
330
9
100
AcDbSymbolTableRecord
100
AcDbRegAppTableRecord
  2
ACAD
 70
     0
  0
ENDTAB
  0
TABLE
  2
DIMSTYLE
  5
A
330
0
100
AcDbSymbolTable
 70
     2
100
AcDbDimStyleTable
  0
DIMSTYLE
105
27
330
A
100
AcDbSymbolTableRecord
100
AcDbDimStyleTableRecord
  2
ISO-25
 70
     0
 41
2.5
 42
0.625
 43
3.75
 44
1.25
 73
     0
 74
     0
 77
     1
 78
     8
140
2.5
141
2.5
143
0.03937007874016
147
0.625
171
     3
172
     1
178
     0
271
     2
272
     2
274
     3
278
    44
283
     0
284
     8
340
11
  0
DIMSTYLE
105
D4
330
A
100
AcDbSymbolTableRecord
100
AcDbDimStyleTableRecord
  2
FX_DI1.50
 70
     0
 41
2.0
 42
2.0
 43
7.0
 44
1.0
 46
6.0
 73
     0
 74
     0
 77
     1
 78
     8
 79
     2
140
3.5
141
2.5
143
0.03937
144
50.0
147
1.0
171
     3
172
     1
173
     1
176
     7
177
     7
271
     0
178
     7
271
     0
272
     2
274
     3
284
     8
340
6A
341
6E
343
6E
344
74
  0
ENDTAB
  0
TABLE
  2
BLOCK_RECORD
  5
1
330
0
100
AcDbSymbolTable
 70
    22
  0
BLOCK_RECORD
  5
1F
330
1
100
AcDbSymbolTableRecord
100
AcDbBlockTableRecord
  2
*Model_Space
340
22
  0
BLOCK_RECORD
  5
1B
330
1
100
AcDbSymbolTableRecord
100
AcDbBlockTableRecord
  2
*Paper_Space
340
1E
  0
BLOCK_RECORD
  5
23
330
1
100
AcDbSymbolTableRecord
100
AcDbBlockTableRecord
  2
*Paper_Space0
340
26
  0
BLOCK_RECORD
  5
6B
330
1
100
AcDbSymbolTableRecord
100
AcDbBlockTableRecord
  2
FXTIP_NONE
340
0
  0
BLOCK_RECORD
  5
6E
330
1
100
AcDbSymbolTableRecord
100
AcDbBlockTableRecord
  2
FXTIP_ARROW_S
340
0
102
{BLKREFS
331
28D
331
292
331
2A1
331
2A4
331
2AA
331
2B0
331
2BB
331
2C3
331
2CB
331
2D3
331
2D6
331
2DF
331
2E9
331
2EC
331
2F2
331
2F7
331
305
331
309
331
310
331
316
331
332
331
337
331
33D
331
343
331
34E
331
356
331
362
331
366
102
}
  0
BLOCK_RECORD
  5
74
330
1
100
AcDbSymbolTableRecord
100
AcDbBlockTableRecord
  2
FXTIP_ARROW_E
340
0
102
{BLKREFS
331
28A
331
28E
331
293
331
29F
331
2A5
331
2AB
331
2B1
331
2B9
331
2C1
331
2C9
331
2D1
331
2D7
331
2E1
331
2E7
331
2ED
331
2F3
331
2F8
331
307
331
334
331
338
331
33E
331
344
331
34C
331
354
102
}
  0
BLOCK_RECORD
  5
7A
330
1
100
AcDbSymbolTableRecord
100
AcDbBlockTableRecord
  2
FXTIP_BLACKDOT_S
340
0
  0
BLOCK_RECORD
  5
80
330
1
100
AcDbSymbolTableRecord
100
AcDbBlockTableRecord
  2
FXTIP_BLACKDOT_E
340
0
  0
BLOCK_RECORD
  5
86
330
1
100
AcDbSymbolTableRecord
100
AcDbBlockTableRecord
  2
FXTIP_TRIANGLE_S
340
0
  0
BLOCK_RECORD
  5
8D
330
1
100
AcDbSymbolTableRecord
100
AcDbBlockTableRecord
  2
FXTIP_TRIANGLE_E
340
0
  0
BLOCK_RECORD
  5
94
330
1
100
AcDbSymbolTableRecord
100
AcDbBlockTableRecord
  2
FXTIP_ARCHITECT_S
340
0
  0
BLOCK_RECORD
  5
9A
330
1
100
AcDbSymbolTableRecord
100
AcDbBlockTableRecord
  2
FXTIP_ARCHITECT_E
340
0
  0
BLOCK_RECORD
  5
A0
330
1
100
AcDbSymbolTableRecord
100
AcDbBlockTableRecord
  2
FXTIP_CIVIL_S
340
0
  0
BLOCK_RECORD
  5
A6
330
1
100
AcDbSymbolTableRecord
100
AcDbBlockTableRecord
  2
FXTIP_CIVIL_E
340
0
  0
BLOCK_RECORD
  5
AC
330
1
100
AcDbSymbolTableRecord
100
AcDbBlockTableRecord
  2
FXTIP_WHITEDOT_S
340
0
  0
BLOCK_RECORD
  5
B1
330
1
100
AcDbSymbolTableRecord
100
AcDbBlockTableRecord
  2
FXTIP_WHITEDOT_E
340
0
  0
BLOCK_RECORD
  5
B6
330
1
100
AcDbSymbolTableRecord
100
AcDbBlockTableRecord
  2
FXTIP_UPARROW_S
340
0
  0
BLOCK_RECORD
  5
BB
330
1
100
AcDbSymbolTableRecord
100
AcDbBlockTableRecord
  2
FXTIP_UPARROW_E
340
0
  0
BLOCK_RECORD
  5
C0
330
1
100
AcDbSymbolTableRecord
100
AcDbBlockTableRecord
  2
FXTIP_DOWNARROW_S
340
0
  0
BLOCK_RECORD
  5
C5
330
1
100
AcDbSymbolTableRecord
100
AcDbBlockTableRecord
  2
FXTIP_DOWNARROW_E
340
0
  0
BLOCK_RECORD
  5
CA
330
1
100
AcDbSymbolTableRecord
100
AcDbBlockTableRecord
  2
FXTIP_BLACKTRIANGLE_S
340
0
  0
BLOCK_RECORD
  5
CF
330
1
100
AcDbSymbolTableRecord
100
AcDbBlockTableRecord
  2
FXTIP_BLACKTRIANGLE_E
340
0
  0
BLOCK_RECORD
  5
116
330
1
100
AcDbSymbolTableRecord
100
AcDbBlockTableRecord
  2
BLKF023
340
0
102
{BLKREFS
331
119
102
}
  0
BLOCK_RECORD
  5
1BA
330
1
100
AcDbSymbolTableRecord
100
AcDbBlockTableRecord
  2
BLKF024
340
0
102
{BLKREFS
331
1BD
102
}
  0
ENDTAB
  0
ENDSEC
  0
SECTION
  2
BLOCKS
  0
BLOCK
  5
20
330
1F
100
AcDbEntity
  8
0
100
AcDbBlockBegin
  2
*Model_Space
 70
     0
 10
0.0
 20
0.0
 30
0.0
  3
*Model_Space
  1
*Model_Space
  0
ENDBLK
  5
21
330
1F
100
AcDbEntity
  8
0
100
AcDbBlockEnd
  0
BLOCK
  5
1C
330
1B
100
AcDbEntity
 67
     1
  8
0
100
AcDbBlockBegin
  2
*Paper_Space
 70
     0
 10
0.0
 20
0.0
 30
0.0
  3
*Paper_Space
  1
*Paper_Space
  0
ENDBLK
  5
1D
330
1B
100
AcDbEntity
 67
     1
  8
0
100
AcDbBlockEnd
  0
BLOCK
  5
24
330
23
100
AcDbEntity
  8
0
100
AcDbBlockBegin
  2
*Paper_Space0
 70
     0
 10
0.0
 20
0.0
 30
0.0
  3
*Paper_Space0
  1
*Paper_Space0
  0
ENDBLK
  5
25
330
23
100
AcDbEntity
  8
0
100
AcDbBlockEnd
  0
BLOCK
  5
6C
330
6B
100
AcDbEntity
  8
0
100
AcDbBlockBegin
  2
FXTIP_NONE
 70
     0
 10
0.0
 20
0.0
 30
0.0
  3
FXTIP_NONE
  1
FXTIP_NONE
  0
ENDBLK
  5
6D
330
6B
100
AcDbEntity
  8
0
100
AcDbBlockEnd
  0
BLOCK
  5
6F
330
6E
100
AcDbEntity
  8
0
100
AcDbBlockBegin
  2
FXTIP_ARROW_S
 70
     0
 10
0.0
 20
0.0
 30
0.0
  3
FXTIP_ARROW_S
  1
FXTIP_ARROW_S
  0
LINE
  5
71
330
6E
100
AcDbEntity
  8
0
  6
Continuous
 62
     0
370
    -2
100
AcDbLine
 10
0.0
 20
0.0
 30
0.0
 11
-1.0
 21
0.0000000000000001
 31
0.0
  0
LINE
  5
72
330
6E
100
AcDbEntity
  8
0
  6
Continuous
 62
     0
370
    -2
100
AcDbLine
 10
0.0
 20
0.0
 30
0.0
 11
-0.9659258262890683
 21
-0.2588190451025206
 31
0.0
  0
LINE
  5
73
330
6E
100
AcDbEntity
  8
0
  6
Continuous
 62
     0
370
    -2
100
AcDbLine
 10
0.0
 20
0.0
 30
0.0
 11
-0.9659258262890683
 21
0.2588190451025209
 31
0.0
  0
ENDBLK
  5
70
330
6E
100
AcDbEntity
  8
0
100
AcDbBlockEnd
  0
BLOCK
  5
75
330
74
100
AcDbEntity
  8
0
100
AcDbBlockBegin
  2
FXTIP_ARROW_E
 70
     0
 10
0.0
 20
0.0
 30
0.0
  3
FXTIP_ARROW_E
  1
FXTIP_ARROW_E
  0
LINE
  5
77
330
74
100
AcDbEntity
  8
0
  6
Continuous
 62
     0
370
    -2
100
AcDbLine
 10
0.0
 20
0.0
 30
0.0
 11
-1.0
 21
0.0
 31
0.0
  0
LINE
  5
78
330
74
100
AcDbEntity
  8
0
  6
Continuous
 62
     0
370
    -2
100
AcDbLine
 10
0.0
 20
0.0
 30
0.0
 11
-0.9659258262890683
 21
0.2588190451025207
 31
0.0
  0
LINE
  5
79
330
74
100
AcDbEntity
  8
0
  6
Continuous
 62
     0
370
    -2
100
AcDbLine
 10
0.0
 20
0.0
 30
0.0
 11
-0.9659258262890683
 21
-0.2588190451025207
 31
0.0
  0
ENDBLK
  5
76
330
74
100
AcDbEntity
  8
0
100
AcDbBlockEnd
  0
BLOCK
  5
7B
330
7A
100
AcDbEntity
  8
0
100
AcDbBlockBegin
  2
FXTIP_BLACKDOT_S
 70
     0
 10
0.0
 20
0.0
 30
0.0
  3
FXTIP_BLACKDOT_S
  1
FXTIP_BLACKDOT_S
  0
LINE
  5
7D
330
7A
100
AcDbEntity
  8
0
  6
Continuous
 62
     0
370
    -2
100
AcDbLine
 10
0.0
 20
0.0
 30
0.0
 11
-1.0
 21
0.0000000000000001
 31
0.0
  0
LWPOLYLINE
  5
7E
330
7A
100
AcDbEntity
  8
0
  6
Continuous
 62
     0
370
    -2
100
AcDbPolyline
 90
        2
 70
     1
 43
1.0
 10
-0.5
 20
0.0
 42
1.0
 10
0.5
 20
0.0
 42
1.0
  0
CIRCLE
  5
7F
330
7A
100
AcDbEntity
  8
0
  6
Continuous
 62
     0
370
    -2
100
AcDbCircle
 10
0.0
 20
0.0
 30
0.0
 40
1.0
  0
ENDBLK
  5
7C
330
7A
100
AcDbEntity
  8
0
100
AcDbBlockEnd
  0
BLOCK
  5
81
330
80
100
AcDbEntity
  8
0
100
AcDbBlockBegin
  2
FXTIP_BLACKDOT_E
 70
     0
 10
0.0
 20
0.0
 30
0.0
  3
FXTIP_BLACKDOT_E
  1
FXTIP_BLACKDOT_E
  0
LINE
  5
83
330
80
100
AcDbEntity
  8
0
  6
Continuous
 62
     0
370
    -2
100
AcDbLine
 10
0.0
 20
0.0
 30
0.0
 11
-1.0
 21
0.0
 31
0.0
  0
LWPOLYLINE
  5
84
330
80
100
AcDbEntity
  8
0
  6
Continuous
 62
     0
370
    -2
100
AcDbPolyline
 90
        2
 70
     1
 43
1.0
 10
-0.5
 20
0.0
 42
1.0
 10
0.5
 20
0.0
 42
1.0
  0
CIRCLE
  5
85
330
80
100
AcDbEntity
  8
0
  6
Continuous
 62
     0
370
    -2
100
AcDbCircle
 10
0.0
 20
0.0
 30
0.0
 40
1.0
  0
ENDBLK
  5
82
330
80
100
AcDbEntity
  8
0
100
AcDbBlockEnd
  0
BLOCK
  5
87
330
86
100
AcDbEntity
  8
0
100
AcDbBlockBegin
  2
FXTIP_TRIANGLE_S
 70
     0
 10
0.0
 20
0.0
 30
0.0
  3
FXTIP_TRIANGLE_S
  1
FXTIP_TRIANGLE_S
  0
LINE
  5
89
330
86
100
AcDbEntity
  8
0
  6
Continuous
 62
     0
370
    -2
100
AcDbLine
 10
0.0
 20
0.0
 30
0.0
 11
-1.0
 21
0.0000000000000001
 31
0.0
  0
LINE
  5
8A
330
86
100
AcDbEntity
  8
0
  6
Continuous
 62
     0
370
    -2
100
AcDbLine
 10
0.0
 20
0.0
 30
0.0
 11
-0.9659258262890683
 21
-0.2588190451025206
 31
0.0
  0
LINE
  5
8B
330
86
100
AcDbEntity
  8
0
  6
Continuous
 62
     0
370
    -2
100
AcDbLine
 10
0.0
 20
0.0
 30
0.0
 11
-0.9659258262890683
 21
0.2588190451025209
 31
0.0
  0
LINE
  5
8C
330
86
100
AcDbEntity
  8
0
  6
Continuous
 62
     0
370
    -2
100
AcDbLine
 10
-0.9659258262890683
 20
-0.2588190451025206
 30
0.0
 11
-0.9659258262890683
 21
0.2588190451025209
 31
0.0
  0
ENDBLK
  5
88
330
86
100
AcDbEntity
  8
0
100
AcDbBlockEnd
  0
BLOCK
  5
8E
330
8D
100
AcDbEntity
  8
0
100
AcDbBlockBegin
  2
FXTIP_TRIANGLE_E
 70
     0
 10
0.0
 20
0.0
 30
0.0
  3
FXTIP_TRIANGLE_E
  1
FXTIP_TRIANGLE_E
  0
LINE
  5
90
330
8D
100
AcDbEntity
  8
0
  6
Continuous
 62
     0
370
    -2
100
AcDbLine
 10
0.0
 20
0.0
 30
0.0
 11
-1.0
 21
0.0
 31
0.0
  0
LINE
  5
91
330
8D
100
AcDbEntity
  8
0
  6
Continuous
 62
     0
370
    -2
100
AcDbLine
 10
0.0
 20
0.0
 30
0.0
 11
-0.9659258262890683
 21
0.2588190451025207
 31
0.0
  0
LINE
  5
92
330
8D
100
AcDbEntity
  8
0
  6
Continuous
 62
     0
370
    -2
100
AcDbLine
 10
0.0
 20
0.0
 30
0.0
 11
-0.9659258262890683
 21
-0.2588190451025207
 31
0.0
  0
LINE
  5
93
330
8D
100
AcDbEntity
  8
0
  6
Continuous
 62
     0
370
    -2
100
AcDbLine
 10
-0.9659258262890683
 20
0.2588190451025207
 30
0.0
 11
-0.9659258262890683
 21
-0.2588190451025207
 31
0.0
  0
ENDBLK
  5
8F
330
8D
100
AcDbEntity
  8
0
100
AcDbBlockEnd
  0
BLOCK
  5
95
330
94
100
AcDbEntity
  8
0
100
AcDbBlockBegin
  2
FXTIP_ARCHITECT_S
 70
     0
 10
0.0
 20
0.0
 30
0.0
  3
FXTIP_ARCHITECT_S
  1
FXTIP_ARCHITECT_S
  0
LINE
  5
97
330
94
100
AcDbEntity
  8
0
  6
Continuous
 62
     0
370
    -2
100
AcDbLine
 10
0.0
 20
0.0
 30
0.0
 11
-1.0
 21
0.0000000000000001
 31
0.0
  0
LINE
  5
98
330
94
100
AcDbEntity
  8
0
  6
Continuous
 62
     0
370
    -2
100
AcDbLine
 10
0.0
 20
0.0
 30
0.0
 11
-0.7071067811865476
 21
-0.7071067811865474
 31
0.0
  0
LINE
  5
99
330
94
100
AcDbEntity
  8
0
  6
Continuous
 62
     0
370
    -2
100
AcDbLine
 10
0.0
 20
0.0
 30
0.0
 11
0.7071067811865476
 21
0.7071067811865474
 31
0.0
  0
ENDBLK
  5
96
330
94
100
AcDbEntity
  8
0
100
AcDbBlockEnd
  0
BLOCK
  5
9B
330
9A
100
AcDbEntity
  8
0
100
AcDbBlockBegin
  2
FXTIP_ARCHITECT_E
 70
     0
 10
0.0
 20
0.0
 30
0.0
  3
FXTIP_ARCHITECT_E
  1
FXTIP_ARCHITECT_E
  0
LINE
  5
9D
330
9A
100
AcDbEntity
  8
0
  6
Continuous
 62
     0
370
    -2
100
AcDbLine
 10
0.0
 20
0.0
 30
0.0
 11
-1.0
 21
0.0
 31
0.0
  0
LINE
  5
9E
330
9A
100
AcDbEntity
  8
0
  6
Continuous
 62
     0
370
    -2
100
AcDbLine
 10
0.0
 20
0.0
 30
0.0
 11
0.7071067811865475
 21
0.7071067811865475
 31
0.0
  0
LINE
  5
9F
330
9A
100
AcDbEntity
  8
0
  6
Continuous
 62
     0
370
    -2
100
AcDbLine
 10
0.0
 20
0.0
 30
0.0
 11
-0.7071067811865475
 21
-0.7071067811865475
 31
0.0
  0
ENDBLK
  5
9C
330
9A
100
AcDbEntity
  8
0
100
AcDbBlockEnd
  0
BLOCK
  5
A1
330
A0
100
AcDbEntity
  8
0
100
AcDbBlockBegin
  2
FXTIP_CIVIL_S
 70
     0
 10
0.0
 20
0.0
 30
0.0
  3
FXTIP_CIVIL_S
  1
FXTIP_CIVIL_S
  0
LINE
  5
A3
330
A0
100
AcDbEntity
  8
0
  6
Continuous
 62
     0
370
    -2
100
AcDbLine
 10
0.0
 20
0.0
 30
0.0
 11
-1.0
 21
0.0000000000000002
 31
0.0
  0
LINE
  5
A4
330
A0
100
AcDbEntity
  8
0
  6
Continuous
 62
     0
370
    -2
100
AcDbLine
 10
0.0
 20
-0.125
 30
0.0
 11
-1.0
 21
-0.1249999999999998
 31
0.0
  0
LINE
  5
A5
330
A0
100
AcDbEntity
  8
0
  6
Continuous
 62
     0
370
    -2
100
AcDbLine
 10
0.0
 20
-0.25
 30
0.0
 11
-1.0
 21
-0.2499999999999999
 31
0.0
  0
ENDBLK
  5
A2
330
A0
100
AcDbEntity
  8
0
100
AcDbBlockEnd
  0
BLOCK
  5
A7
330
A6
100
AcDbEntity
  8
0
100
AcDbBlockBegin
  2
FXTIP_CIVIL_E
 70
     0
 10
0.0
 20
0.0
 30
0.0
  3
FXTIP_CIVIL_E
  1
FXTIP_CIVIL_E
  0
LINE
  5
A9
330
A6
100
AcDbEntity
  8
0
  6
Continuous
 62
     0
370
    -2
100
AcDbLine
 10
0.0
 20
0.0
 30
0.0
 11
-1.0
 21
0.0
 31
0.0
  0
LINE
  5
AA
330
A6
100
AcDbEntity
  8
0
  6
Continuous
 62
     0
370
    -2
100
AcDbLine
 10
0.0
 20
0.125
 30
0.0
 11
-1.0
 21
0.125
 31
0.0
  0
LINE
  5
AB
330
A6
100
AcDbEntity
  8
0
  6
Continuous
 62
     0
370
    -2
100
AcDbLine
 10
0.0
 20
0.25
 30
0.0
 11
-1.0
 21
0.25
 31
0.0
  0
ENDBLK
  5
A8
330
A6
100
AcDbEntity
  8
0
100
AcDbBlockEnd
  0
BLOCK
  5
AD
330
AC
100
AcDbEntity
  8
0
100
AcDbBlockBegin
  2
FXTIP_WHITEDOT_S
 70
     0
 10
0.0
 20
0.0
 30
0.0
  3
FXTIP_WHITEDOT_S
  1
FXTIP_WHITEDOT_S
  0
LINE
  5
AF
330
AC
100
AcDbEntity
  8
0
  6
Continuous
 62
     0
370
    -2
100
AcDbLine
 10
0.0
 20
0.0
 30
0.0
 11
-1.0
 21
0.0000000000000001
 31
0.0
  0
CIRCLE
  5
B0
330
AC
100
AcDbEntity
  8
0
  6
Continuous
 62
     0
370
    -2
100
AcDbCircle
 10
0.0
 20
0.0
 30
0.0
 40
1.0
  0
ENDBLK
  5
AE
330
AC
100
AcDbEntity
  8
0
100
AcDbBlockEnd
  0
BLOCK
  5
B2
330
B1
100
AcDbEntity
  8
0
100
AcDbBlockBegin
  2
FXTIP_WHITEDOT_E
 70
     0
 10
0.0
 20
0.0
 30
0.0
  3
FXTIP_WHITEDOT_E
  1
FXTIP_WHITEDOT_E
  0
LINE
  5
B4
330
B1
100
AcDbEntity
  8
0
  6
Continuous
 62
     0
370
    -2
100
AcDbLine
 10
0.0
 20
0.0
 30
0.0
 11
-1.0
 21
0.0
 31
0.0
  0
CIRCLE
  5
B5
330
B1
100
AcDbEntity
  8
0
  6
Continuous
 62
     0
370
    -2
100
AcDbCircle
 10
0.0
 20
0.0
 30
0.0
 40
1.0
  0
ENDBLK
  5
B3
330
B1
100
AcDbEntity
  8
0
100
AcDbBlockEnd
  0
BLOCK
  5
B7
330
B6
100
AcDbEntity
  8
0
100
AcDbBlockBegin
  2
FXTIP_UPARROW_S
 70
     0
 10
0.0
 20
0.0
 30
0.0
  3
FXTIP_UPARROW_S
  1
FXTIP_UPARROW_S
  0
LINE
  5
B9
330
B6
100
AcDbEntity
  8
0
  6
Continuous
 62
     0
370
    -2
100
AcDbLine
 10
0.0
 20
0.0
 30
0.0
 11
-1.0
 21
0.0000000000000001
 31
0.0
  0
LINE
  5
BA
330
B6
100
AcDbEntity
  8
0
  6
Continuous
 62
     0
370
    -2
100
AcDbLine
 10
0.0
 20
0.0
 30
0.0
 11
-0.9659258262890683
 21
-0.2588190451025206
 31
0.0
  0
ENDBLK
  5
B8
330
B6
100
AcDbEntity
  8
0
100
AcDbBlockEnd
  0
BLOCK
  5
BC
330
BB
100
AcDbEntity
  8
0
100
AcDbBlockBegin
  2
FXTIP_UPARROW_E
 70
     0
 10
0.0
 20
0.0
 30
0.0
  3
FXTIP_UPARROW_E
  1
FXTIP_UPARROW_E
  0
LINE
  5
BE
330
BB
100
AcDbEntity
  8
0
  6
Continuous
 62
     0
370
    -2
100
AcDbLine
 10
0.0
 20
0.0
 30
0.0
 11
-1.0
 21
0.0
 31
0.0
  0
LINE
  5
BF
330
BB
100
AcDbEntity
  8
0
  6
Continuous
 62
     0
370
    -2
100
AcDbLine
 10
0.0
 20
0.0
 30
0.0
 11
-0.9659258262890683
 21
0.2588190451025207
 31
0.0
  0
ENDBLK
  5
BD
330
BB
100
AcDbEntity
  8
0
100
AcDbBlockEnd
  0
BLOCK
  5
C1
330
C0
100
AcDbEntity
  8
0
100
AcDbBlockBegin
  2
FXTIP_DOWNARROW_S
 70
     0
 10
0.0
 20
0.0
 30
0.0
  3
FXTIP_DOWNARROW_S
  1
FXTIP_DOWNARROW_S
  0
LINE
  5
C3
330
C0
100
AcDbEntity
  8
0
  6
Continuous
 62
     0
370
    -2
100
AcDbLine
 10
0.0
 20
0.0
 30
0.0
 11
-1.0
 21
0.0000000000000001
 31
0.0
  0
LINE
  5
C4
330
C0
100
AcDbEntity
  8
0
  6
Continuous
 62
     0
370
    -2
100
AcDbLine
 10
0.0
 20
0.0
 30
0.0
 11
-0.9659258262890683
 21
0.2588190451025209
 31
0.0
  0
ENDBLK
  5
C2
330
C0
100
AcDbEntity
  8
0
100
AcDbBlockEnd
  0
BLOCK
  5
C6
330
C5
100
AcDbEntity
  8
0
100
AcDbBlockBegin
  2
FXTIP_DOWNARROW_E
 70
     0
 10
0.0
 20
0.0
 30
0.0
  3
FXTIP_DOWNARROW_E
  1
FXTIP_DOWNARROW_E
  0
LINE
  5
C8
330
C5
100
AcDbEntity
  8
0
  6
Continuous
 62
     0
370
    -2
100
AcDbLine
 10
0.0
 20
0.0
 30
0.0
 11
-1.0
 21
0.0
 31
0.0
  0
LINE
  5
C9
330
C5
100
AcDbEntity
  8
0
  6
Continuous
 62
     0
370
    -2
100
AcDbLine
 10
0.0
 20
0.0
 30
0.0
 11
-0.9659258262890683
 21
-0.2588190451025207
 31
0.0
  0
ENDBLK
  5
C7
330
C5
100
AcDbEntity
  8
0
100
AcDbBlockEnd
  0
BLOCK
  5
CB
330
CA
100
AcDbEntity
  8
0
100
AcDbBlockBegin
  2
FXTIP_BLACKTRIANGLE_S
 70
     0
 10
0.0
 20
0.0
 30
0.0
  3
FXTIP_BLACKTRIANGLE_S
  1
FXTIP_BLACKTRIANGLE_S
  0
LINE
  5
CD
330
CA
100
AcDbEntity
  8
0
  6
Continuous
 62
     0
370
    -2
100
AcDbLine
 10
0.0
 20
0.0
 30
0.0
 11
-1.0
 21
0.0000000000000001
 31
0.0
  0
SOLID
  5
CE
330
CA
100
AcDbEntity
  8
0
  6
Continuous
 62
     0
370
    -2
100
AcDbTrace
 10
0.0
 20
0.0
 30
0.0
 11
-0.9659258262890683
 21
-0.2588190451025206
 31
0.0
 12
-0.9659258262890683
 22
0.2588190451025209
 32
0.0
 13
-0.9659258262890683
 23
0.2588190451025209
 33
0.0
  0
ENDBLK
  5
CC
330
CA
100
AcDbEntity
  8
0
100
AcDbBlockEnd
  0
BLOCK
  5
D0
330
CF
100
AcDbEntity
  8
0
100
AcDbBlockBegin
  2
FXTIP_BLACKTRIANGLE_E
 70
     0
 10
0.0
 20
0.0
 30
0.0
  3
FXTIP_BLACKTRIANGLE_E
  1
FXTIP_BLACKTRIANGLE_E
  0
LINE
  5
D2
330
CF
100
AcDbEntity
  8
0
  6
Continuous
 62
     0
370
    -2
100
AcDbLine
 10
0.0
 20
0.0
 30
0.0
 11
-1.0
 21
0.0
 31
0.0
  0
SOLID
  5
D3
330
CF
100
AcDbEntity
  8
0
  6
Continuous
 62
     0
370
    -2
100
AcDbTrace
 10
0.0
 20
0.0
 30
0.0
 11
-0.9659258262890683
 21
0.2588190451025207
 31
0.0
 12
-0.9659258262890683
 22
-0.2588190451025207
 32
0.0
 13
-0.9659258262890683
 23
-0.2588190451025207
 33
0.0
  0
ENDBLK
  5
D1
330
CF
100
AcDbEntity
  8
0
100
AcDbBlockEnd
  0
BLOCK
  5
117
330
116
100
AcDbEntity
  8
0
100
AcDbBlockBegin
  2
BLKF023
 70
     0
 10
0.0
 20
0.0
 30
0.0
  3
BLKF023
  1
BLKF023
  0
LINE
  5
11A
330
116
100
AcDbEntity
  8
0
  6
ByBlock
 62
     0
370
    -2
100
AcDbLine
 10
785.694502155495
 20
133.338940847687
 30
0.0
 11
785.6922221554959
 21
133.3533408476866
 31
0.0
  0
LINE
  5
11B
330
116
100
AcDbEntity
  8
0
  6
ByBlock
 62
     0
370
    -2
100
AcDbLine
 10
785.6922221554959
 20
133.3533408476866
 30
0.0
 11
785.6859821554963
 21
133.3658808476869
 31
0.0
  0
LINE
  5
11C
330
116
100
AcDbEntity
  8
0
  6
ByBlock
 62
     0
370
    -2
100
AcDbLine
 10
785.6859821554963
 20
133.3658808476869
 30
0.0
 11
785.6762621554951
 21
133.3768008476866
 31
0.0
  0
LINE
  5
11D
330
116
100
AcDbEntity
  8
0
  6
ByBlock
 62
     0
370
    -2
100
AcDbLine
 10
785.6762621554951
 20
133.3768008476866
 30
0.0
 11
785.6638421554945
 21
133.3863408476868
 31
0.0
  0
LINE
  5
11E
330
116
100
AcDbEntity
  8
0
  6
ByBlock
 62
     0
370
    -2
100
AcDbLine
 10
785.6638421554945
 20
133.3863408476868
 30
0.0
 11
785.6493821554955
 21
133.3947408476869
 31
0.0
  0
LINE
  5
11F
330
116
100
AcDbEntity
  8
0
  6
ByBlock
 62
     0
370
    -2
100
AcDbLine
 10
785.6493821554955
 20
133.3947408476869
 30
0.0
 11
785.633542155496
 21
133.4023008476869
 31
0.0
  0
LINE
  5
120
330
116
100
AcDbEntity
  8
0
  6
ByBlock
 62
     0
370
    -2
100
AcDbLine
 10
785.633542155496
 20
133.4023008476869
 30
0.0
 11
785.6169221554946
 21
133.4091408476865
 31
0.0
  0
LINE
  5
121
330
116
100
AcDbEntity
  8
0
  6
ByBlock
 62
     0
370
    -2
100
AcDbLine
 10
785.6169221554946
 20
133.4091408476865
 30
0.0
 11
785.6002421554947
 21
133.4155008476868
 31
0.0
  0
LINE
  5
122
330
116
100
AcDbEntity
  8
0
  6
ByBlock
 62
     0
370
    -2
100
AcDbLine
 10
785.6002421554947
 20
133.4155008476868
 30
0.0
 11
785.5841021554963
 21
133.4216808476868
 31
0.0
  0
LINE
  5
123
330
116
100
AcDbEntity
  8
0
  6
ByBlock
 62
     0
370
    -2
100
AcDbLine
 10
785.5841021554963
 20
133.4216808476868
 30
0.0
 11
785.5692821554953
 21
133.4279208476869
 31
0.0
  0
LINE
  5
124
330
116
100
AcDbEntity
  8
0
  6
ByBlock
 62
     0
370
    -2
100
AcDbLine
 10
785.5692821554953
 20
133.4279208476869
 30
0.0
 11
785.5478621554951
 21
133.4368008476868
 31
0.0
  0
LINE
  5
125
330
116
100
AcDbEntity
  8
0
  6
ByBlock
 62
     0
370
    -2
100
AcDbLine
 10
785.5478621554951
 20
133.4368008476868
 30
0.0
 11
785.5259621554962
 21
133.444420847687
 31
0.0
  0
LINE
  5
126
330
116
100
AcDbEntity
  8
0
  6
ByBlock
 62
     0
370
    -2
100
AcDbLine
 10
785.5259621554962
 20
133.444420847687
 30
0.0
 11
785.5037021554954
 21
133.4509608476866
 31
0.0
  0
LINE
  5
127
330
116
100
AcDbEntity
  8
0
  6
ByBlock
 62
     0
370
    -2
100
AcDbLine
 10
785.5037021554954
 20
133.4509608476866
 30
0.0
 11
785.4811421554955
 21
133.4566608476866
 31
0.0
  0
LINE
  5
128
330
116
100
AcDbEntity
  8
0
  6
ByBlock
 62
     0
370
    -2
100
AcDbLine
 10
785.4811421554955
 20
133.4566608476866
 30
0.0
 11
785.4583421554952
 21
133.4615808476867
 31
0.0
  0
LINE
  5
129
330
116
100
AcDbEntity
  8
0
  6
ByBlock
 62
     0
370
    -2
100
AcDbLine
 10
785.4583421554952
 20
133.4615808476867
 30
0.0
 11
785.4353621554951
 21
133.4659008476868
 31
0.0
  0
LINE
  5
12A
330
116
100
AcDbEntity
  8
0
  6
ByBlock
 62
     0
370
    -2
100
AcDbLine
 10
785.4353621554951
 20
133.4659008476868
 30
0.0
 11
785.412262155496
 21
133.4697408476869
 31
0.0
  0
LINE
  5
12B
330
116
100
AcDbEntity
  8
0
  6
ByBlock
 62
     0
370
    -2
100
AcDbLine
 10
785.412262155496
 20
133.4697408476869
 30
0.0
 11
785.3891621554966
 21
133.4734008476866
 31
0.0
  0
LINE
  5
12C
330
116
100
AcDbEntity
  8
0
  6
ByBlock
 62
     0
370
    -2
100
AcDbLine
 10
785.3891621554966
 20
133.4734008476866
 30
0.0
 11
785.3660621554952
 21
133.4768808476866
 31
0.0
  0
LINE
  5
12D
330
116
100
AcDbEntity
  8
0
  6
ByBlock
 62
     0
370
    -2
100
AcDbLine
 10
785.3660621554952
 20
133.4768808476866
 30
0.0
 11
785.3430221554966
 21
133.4803608476865
 31
0.0
  0
LINE
  5
12E
330
116
100
AcDbEntity
  8
0
  6
ByBlock
 62
     0
370
    -2
100
AcDbLine
 10
785.3430221554966
 20
133.4803608476865
 30
0.0
 11
785.2754621554964
 21
133.4902608476869
 31
0.0
  0
LINE
  5
12F
330
116
100
AcDbEntity
  8
0
  6
ByBlock
 62
     0
370
    -2
100
AcDbLine
 10
785.2754621554964
 20
133.4902608476869
 30
0.0
 11
785.2076621554958
 21
133.4987808476867
 31
0.0
  0
LINE
  5
130
330
116
100
AcDbEntity
  8
0
  6
ByBlock
 62
     0
370
    -2
100
AcDbLine
 10
785.2076621554958
 20
133.4987808476867
 30
0.0
 11
785.1397421554959
 21
133.5061008476868
 31
0.0
  0
LINE
  5
131
330
116
100
AcDbEntity
  8
0
  6
ByBlock
 62
     0
370
    -2
100
AcDbLine
 10
785.1397421554959
 20
133.5061008476868
 30
0.0
 11
785.0717021554947
 21
133.5124608476865
 31
0.0
  0
LINE
  5
132
330
116
100
AcDbEntity
  8
0
  6
ByBlock
 62
     0
370
    -2
100
AcDbLine
 10
785.0717021554947
 20
133.5124608476865
 30
0.0
 11
785.0036021554951
 21
133.5178608476865
 31
0.0
  0
LINE
  5
133
330
116
100
AcDbEntity
  8
0
  6
ByBlock
 62
     0
370
    -2
100
AcDbLine
 10
785.0036021554951
 20
133.5178608476865
 30
0.0
 11
784.9353821554961
 21
133.5225408476867
 31
0.0
  0
LINE
  5
134
330
116
100
AcDbEntity
  8
0
  6
ByBlock
 62
     0
370
    -2
100
AcDbLine
 10
784.9353821554961
 20
133.5225408476867
 30
0.0
 11
784.8671021554966
 21
133.5266808476869
 31
0.0
  0
LINE
  5
135
330
116
100
AcDbEntity
  8
0
  6
ByBlock
 62
     0
370
    -2
100
AcDbLine
 10
784.8671021554966
 20
133.5266808476869
 30
0.0
 11
784.798822155495
 21
133.5303408476867
 31
0.0
  0
LINE
  5
136
330
116
100
AcDbEntity
  8
0
  6
ByBlock
 62
     0
370
    -2
100
AcDbLine
 10
784.798822155495
 20
133.5303408476867
 30
0.0
 11
784.7305421554955
 21
133.5337608476865
 31
0.0
  0
LINE
  5
137
330
116
100
AcDbEntity
  8
0
  6
ByBlock
 62
     0
370
    -2
100
AcDbLine
 10
784.7305421554955
 20
133.5337608476865
 30
0.0
 11
784.662262155496
 21
133.5370008476865
 31
0.0
  0
LINE
  5
138
330
116
100
AcDbEntity
  8
0
  6
ByBlock
 62
     0
370
    -2
100
AcDbLine
 10
784.662262155496
 20
133.5370008476865
 30
0.0
 11
784.6455221554954
 21
133.5377208476869
 31
0.0
  0
LINE
  5
139
330
116
100
AcDbEntity
  8
0
  6
ByBlock
 62
     0
370
    -2
100
AcDbLine
 10
784.6455221554954
 20
133.5377208476869
 30
0.0
 11
784.6287221554963
 21
133.5382008476867
 31
0.0
  0
LINE
  5
13A
330
116
100
AcDbEntity
  8
0
  6
ByBlock
 62
     0
370
    -2
100
AcDbLine
 10
784.6287221554963
 20
133.5382008476867
 30
0.0
 11
784.6119821554958
 21
133.5385608476869
 31
0.0
  0
LINE
  5
13B
330
116
100
AcDbEntity
  8
0
  6
ByBlock
 62
     0
370
    -2
100
AcDbLine
 10
784.6119821554958
 20
133.5385608476869
 30
0.0
 11
784.5951821554968
 21
133.5388608476864
 31
0.0
  0
LINE
  5
13C
330
116
100
AcDbEntity
  8
0
  6
ByBlock
 62
     0
370
    -2
100
AcDbLine
 10
784.5951821554968
 20
133.5388608476864
 30
0.0
 11
784.5783821554953
 21
133.5389808476867
 31
0.0
  0
LINE
  5
13D
330
116
100
AcDbEntity
  8
0
  6
ByBlock
 62
     0
370
    -2
100
AcDbLine
 10
784.5783821554953
 20
133.5389808476867
 30
0.0
 11
784.5616421554948
 21
133.5390408476868
 31
0.0
  0
LINE
  5
13E
330
116
100
AcDbEntity
  8
0
  6
ByBlock
 62
     0
370
    -2
100
AcDbLine
 10
784.5616421554948
 20
133.5390408476868
 30
0.0
 11
784.5448421554958
 21
133.5390408476868
 31
0.0
  0
LINE
  5
13F
330
116
100
AcDbEntity
  8
0
  6
ByBlock
 62
     0
370
    -2
100
AcDbLine
 10
784.5448421554958
 20
133.5390408476868
 30
0.0
 11
784.5280421554967
 21
133.5389808476867
 31
0.0
  0
LINE
  5
140
330
116
100
AcDbEntity
  8
0
  6
ByBlock
 62
     0
370
    -2
100
AcDbLine
 10
784.5280421554967
 20
133.5389808476867
 30
0.0
 11
784.5113021554961
 21
133.5389808476867
 31
0.0
  0
LINE
  5
141
330
116
100
AcDbEntity
  8
0
  6
ByBlock
 62
     0
370
    -2
100
AcDbLine
 10
784.5113021554961
 20
133.5389808476867
 30
0.0
 11
784.494502155495
 21
133.5389808476867
 31
0.0
  0
LINE
  5
142
330
116
100
AcDbEntity
  8
0
  6
ByBlock
 62
     0
370
    -2
100
AcDbLine
 10
784.494502155495
 20
133.5389808476867
 30
0.0
 11
784.477702155496
 21
133.5389808476867
 31
0.0
  0
LINE
  5
143
330
116
100
AcDbEntity
  8
0
  6
ByBlock
 62
     0
370
    -2
100
AcDbLine
 10
784.477702155496
 20
133.5389808476867
 30
0.0
 11
784.4609621554954
 21
133.5389808476867
 31
0.0
  0
LINE
  5
144
330
116
100
AcDbEntity
  8
0
  6
ByBlock
 62
     0
370
    -2
100
AcDbLine
 10
784.4609621554954
 20
133.5389808476867
 30
0.0
 11
784.4441621554963
 21
133.5390408476868
 31
0.0
  0
LINE
  5
145
330
116
100
AcDbEntity
  8
0
  6
ByBlock
 62
     0
370
    -2
100
AcDbLine
 10
784.4441621554963
 20
133.5390408476868
 30
0.0
 11
784.427362155495
 21
133.5390408476868
 31
0.0
  0
LINE
  5
146
330
116
100
AcDbEntity
  8
0
  6
ByBlock
 62
     0
370
    -2
100
AcDbLine
 10
784.427362155495
 20
133.5390408476868
 30
0.0
 11
784.4106221554966
 21
133.5389808476867
 31
0.0
  0
LINE
  5
147
330
116
100
AcDbEntity
  8
0
  6
ByBlock
 62
     0
370
    -2
100
AcDbLine
 10
784.4106221554966
 20
133.5389808476867
 30
0.0
 11
784.3938221554953
 21
133.5388608476864
 31
0.0
  0
LINE
  5
148
330
116
100
AcDbEntity
  8
0
  6
ByBlock
 62
     0
370
    -2
100
AcDbLine
 10
784.3938221554953
 20
133.5388608476864
 30
0.0
 11
784.3770221554962
 21
133.5385608476869
 31
0.0
  0
LINE
  5
149
330
116
100
AcDbEntity
  8
0
  6
ByBlock
 62
     0
370
    -2
100
AcDbLine
 10
784.3770221554962
 20
133.5385608476869
 30
0.0
 11
784.3602821554957
 21
133.5382008476867
 31
0.0
  0
LINE
  5
14A
330
116
100
AcDbEntity
  8
0
  6
ByBlock
 62
     0
370
    -2
100
AcDbLine
 10
784.3602821554957
 20
133.5382008476867
 30
0.0
 11
784.3434821554966
 21
133.5377208476869
 31
0.0
  0
LINE
  5
14B
330
116
100
AcDbEntity
  8
0
  6
ByBlock
 62
     0
370
    -2
100
AcDbLine
 10
784.3434821554966
 20
133.5377208476869
 30
0.0
 11
784.326742155496
 21
133.5370008476865
 31
0.0
  0
LINE
  5
14C
330
116
100
AcDbEntity
  8
0
  6
ByBlock
 62
     0
370
    -2
100
AcDbLine
 10
784.326742155496
 20
133.5370008476865
 30
0.0
 11
784.2584621554965
 21
133.5337608476865
 31
0.0
  0
LINE
  5
14D
330
116
100
AcDbEntity
  8
0
  6
ByBlock
 62
     0
370
    -2
100
AcDbLine
 10
784.2584621554965
 20
133.5337608476865
 30
0.0
 11
784.190182155495
 21
133.5303408476867
 31
0.0
  0
LINE
  5
14E
330
116
100
AcDbEntity
  8
0
  6
ByBlock
 62
     0
370
    -2
100
AcDbLine
 10
784.190182155495
 20
133.5303408476867
 30
0.0
 11
784.1219021554955
 21
133.5266808476869
 31
0.0
  0
LINE
  5
14F
330
116
100
AcDbEntity
  8
0
  6
ByBlock
 62
     0
370
    -2
100
AcDbLine
 10
784.1219021554955
 20
133.5266808476869
 30
0.0
 11
784.053622155496
 21
133.5225408476867
 31
0.0
  0
LINE
  5
150
330
116
100
AcDbEntity
  8
0
  6
ByBlock
 62
     0
370
    -2
100
AcDbLine
 10
784.053622155496
 20
133.5225408476867
 30
0.0
 11
783.985402155495
 21
133.5178608476865
 31
0.0
  0
LINE
  5
151
330
116
100
AcDbEntity
  8
0
  6
ByBlock
 62
     0
370
    -2
100
AcDbLine
 10
783.985402155495
 20
133.5178608476865
 30
0.0
 11
783.9173021554952
 21
133.5124608476865
 31
0.0
  0
LINE
  5
152
330
116
100
AcDbEntity
  8
0
  6
ByBlock
 62
     0
370
    -2
100
AcDbLine
 10
783.9173021554952
 20
133.5124608476865
 30
0.0
 11
783.8492621554961
 21
133.5061008476868
 31
0.0
  0
LINE
  5
153
330
116
100
AcDbEntity
  8
0
  6
ByBlock
 62
     0
370
    -2
100
AcDbLine
 10
783.8492621554961
 20
133.5061008476868
 30
0.0
 11
783.7813421554963
 21
133.4987808476867
 31
0.0
  0
LINE
  5
154
330
116
100
AcDbEntity
  8
0
  6
ByBlock
 62
     0
370
    -2
100
AcDbLine
 10
783.7813421554963
 20
133.4987808476867
 30
0.0
 11
783.7135421554957
 21
133.4902608476869
 31
0.0
  0
LINE
  5
155
330
116
100
AcDbEntity
  8
0
  6
ByBlock
 62
     0
370
    -2
100
AcDbLine
 10
783.7135421554957
 20
133.4902608476869
 30
0.0
 11
783.6459821554954
 21
133.4803608476865
 31
0.0
  0
LINE
  5
156
330
116
100
AcDbEntity
  8
0
  6
ByBlock
 62
     0
370
    -2
100
AcDbLine
 10
783.6459821554954
 20
133.4803608476865
 30
0.0
 11
783.6229421554946
 21
133.4768808476866
 31
0.0
  0
LINE
  5
157
330
116
100
AcDbEntity
  8
0
  6
ByBlock
 62
     0
370
    -2
100
AcDbLine
 10
783.6229421554946
 20
133.4768808476866
 30
0.0
 11
783.5998421554955
 21
133.4734008476866
 31
0.0
  0
LINE
  5
158
330
116
100
AcDbEntity
  8
0
  6
ByBlock
 62
     0
370
    -2
100
AcDbLine
 10
783.5998421554955
 20
133.4734008476866
 30
0.0
 11
783.5766821554955
 21
133.4697408476869
 31
0.0
  0
LINE
  5
159
330
116
100
AcDbEntity
  8
0
  6
ByBlock
 62
     0
370
    -2
100
AcDbLine
 10
783.5766821554955
 20
133.4697408476869
 30
0.0
 11
783.5536421554946
 21
133.4659008476868
 31
0.0
  0
LINE
  5
15A
330
116
100
AcDbEntity
  8
0
  6
ByBlock
 62
     0
370
    -2
100
AcDbLine
 10
783.5536421554946
 20
133.4659008476868
 30
0.0
 11
783.5306621554945
 21
133.4615808476867
 31
0.0
  0
LINE
  5
15B
330
116
100
AcDbEntity
  8
0
  6
ByBlock
 62
     0
370
    -2
100
AcDbLine
 10
783.5306621554945
 20
133.4615808476867
 30
0.0
 11
783.5078021554957
 21
133.4566608476866
 31
0.0
  0
LINE
  5
15C
330
116
100
AcDbEntity
  8
0
  6
ByBlock
 62
     0
370
    -2
100
AcDbLine
 10
783.5078021554957
 20
133.4566608476866
 30
0.0
 11
783.485242155496
 21
133.4509608476866
 31
0.0
  0
LINE
  5
15D
330
116
100
AcDbEntity
  8
0
  6
ByBlock
 62
     0
370
    -2
100
AcDbLine
 10
783.485242155496
 20
133.4509608476866
 30
0.0
 11
783.4630421554958
 21
133.444420847687
 31
0.0
  0
LINE
  5
15E
330
116
100
AcDbEntity
  8
0
  6
ByBlock
 62
     0
370
    -2
100
AcDbLine
 10
783.4630421554958
 20
133.444420847687
 30
0.0
 11
783.4411421554946
 21
133.4368008476868
 31
0.0
  0
LINE
  5
15F
330
116
100
AcDbEntity
  8
0
  6
ByBlock
 62
     0
370
    -2
100
AcDbLine
 10
783.4411421554946
 20
133.4368008476868
 30
0.0
 11
783.4197221554967
 21
133.4279208476869
 31
0.0
  0
LINE
  5
160
330
116
100
AcDbEntity
  8
0
  6
ByBlock
 62
     0
370
    -2
100
AcDbLine
 10
783.4197221554967
 20
133.4279208476869
 30
0.0
 11
783.4048421554949
 21
133.4216808476868
 31
0.0
  0
LINE
  5
161
330
116
100
AcDbEntity
  8
0
  6
ByBlock
 62
     0
370
    -2
100
AcDbLine
 10
783.4048421554949
 20
133.4216808476868
 30
0.0
 11
783.3887621554951
 21
133.4155008476868
 31
0.0
  0
LINE
  5
162
330
116
100
AcDbEntity
  8
0
  6
ByBlock
 62
     0
370
    -2
100
AcDbLine
 10
783.3887621554951
 20
133.4155008476868
 30
0.0
 11
783.3720821554953
 21
133.4091408476865
 31
0.0
  0
LINE
  5
163
330
116
100
AcDbEntity
  8
0
  6
ByBlock
 62
     0
370
    -2
100
AcDbLine
 10
783.3720821554953
 20
133.4091408476865
 30
0.0
 11
783.3554621554961
 21
133.4023008476869
 31
0.0
  0
LINE
  5
164
330
116
100
AcDbEntity
  8
0
  6
ByBlock
 62
     0
370
    -2
100
AcDbLine
 10
783.3554621554961
 20
133.4023008476869
 30
0.0
 11
783.3396221554966
 21
133.3947408476869
 31
0.0
  0
LINE
  5
165
330
116
100
AcDbEntity
  8
0
  6
ByBlock
 62
     0
370
    -2
100
AcDbLine
 10
783.3396221554966
 20
133.3947408476869
 30
0.0
 11
783.3251021554947
 21
133.3863408476868
 31
0.0
  0
LINE
  5
166
330
116
100
AcDbEntity
  8
0
  6
ByBlock
 62
     0
370
    -2
100
AcDbLine
 10
783.3251021554947
 20
133.3863408476868
 30
0.0
 11
783.3127421554947
 21
133.3768008476866
 31
0.0
  0
LINE
  5
167
330
116
100
AcDbEntity
  8
0
  6
ByBlock
 62
     0
370
    -2
100
AcDbLine
 10
783.3127421554947
 20
133.3768008476866
 30
0.0
 11
783.3030221554957
 21
133.3658808476869
 31
0.0
  0
LINE
  5
168
330
116
100
AcDbEntity
  8
0
  6
ByBlock
 62
     0
370
    -2
100
AcDbLine
 10
783.3030221554957
 20
133.3658808476869
 30
0.0
 11
783.2967221554957
 21
133.3533408476866
 31
0.0
  0
LINE
  5
169
330
116
100
AcDbEntity
  8
0
  6
ByBlock
 62
     0
370
    -2
100
AcDbLine
 10
783.2967221554957
 20
133.3533408476866
 30
0.0
 11
783.294502155495
 21
133.338940847687
 31
0.0
  0
LINE
  5
16A
330
116
100
AcDbEntity
  8
0
  6
ByBlock
 62
     0
370
    -2
100
AcDbLine
 10
783.294502155495
 20
133.338940847687
 30
0.0
 11
783.2967221554957
 21
133.3246008476869
 31
0.0
  0
LINE
  5
16B
330
116
100
AcDbEntity
  8
0
  6
ByBlock
 62
     0
370
    -2
100
AcDbLine
 10
783.2967221554957
 20
133.3246008476869
 30
0.0
 11
783.3030221554957
 21
133.3120608476866
 31
0.0
  0
LINE
  5
16C
330
116
100
AcDbEntity
  8
0
  6
ByBlock
 62
     0
370
    -2
100
AcDbLine
 10
783.3030221554957
 20
133.3120608476866
 30
0.0
 11
783.3127421554947
 21
133.3011408476869
 31
0.0
  0
LINE
  5
16D
330
116
100
AcDbEntity
  8
0
  6
ByBlock
 62
     0
370
    -2
100
AcDbLine
 10
783.3127421554947
 20
133.3011408476869
 30
0.0
 11
783.3251021554947
 21
133.2916008476867
 31
0.0
  0
LINE
  5
16E
330
116
100
AcDbEntity
  8
0
  6
ByBlock
 62
     0
370
    -2
100
AcDbLine
 10
783.3251021554947
 20
133.2916008476867
 30
0.0
 11
783.3396221554966
 21
133.2831408476865
 31
0.0
  0
LINE
  5
16F
330
116
100
AcDbEntity
  8
0
  6
ByBlock
 62
     0
370
    -2
100
AcDbLine
 10
783.3396221554966
 20
133.2831408476865
 30
0.0
 11
783.3554621554961
 21
133.2756408476866
 31
0.0
  0
LINE
  5
170
330
116
100
AcDbEntity
  8
0
  6
ByBlock
 62
     0
370
    -2
100
AcDbLine
 10
783.3554621554961
 20
133.2756408476866
 30
0.0
 11
783.3720821554953
 21
133.268800847687
 31
0.0
  0
LINE
  5
171
330
116
100
AcDbEntity
  8
0
  6
ByBlock
 62
     0
370
    -2
100
AcDbLine
 10
783.3720821554953
 20
133.268800847687
 30
0.0
 11
783.3887621554951
 21
133.2624408476867
 31
0.0
  0
LINE
  5
172
330
116
100
AcDbEntity
  8
0
  6
ByBlock
 62
     0
370
    -2
100
AcDbLine
 10
783.3887621554951
 20
133.2624408476867
 30
0.0
 11
783.4048421554949
 21
133.2562008476866
 31
0.0
  0
LINE
  5
173
330
116
100
AcDbEntity
  8
0
  6
ByBlock
 62
     0
370
    -2
100
AcDbLine
 10
783.4048421554949
 20
133.2562008476866
 30
0.0
 11
783.4197221554967
 21
133.2500208476866
 31
0.0
  0
LINE
  5
174
330
116
100
AcDbEntity
  8
0
  6
ByBlock
 62
     0
370
    -2
100
AcDbLine
 10
783.4197221554967
 20
133.2500208476866
 30
0.0
 11
783.4411421554946
 21
133.2411408476867
 31
0.0
  0
LINE
  5
175
330
116
100
AcDbEntity
  8
0
  6
ByBlock
 62
     0
370
    -2
100
AcDbLine
 10
783.4411421554946
 20
133.2411408476867
 30
0.0
 11
783.4630421554958
 21
133.2335208476865
 31
0.0
  0
LINE
  5
176
330
116
100
AcDbEntity
  8
0
  6
ByBlock
 62
     0
370
    -2
100
AcDbLine
 10
783.4630421554958
 20
133.2335208476865
 30
0.0
 11
783.485242155496
 21
133.2269208476868
 31
0.0
  0
LINE
  5
177
330
116
100
AcDbEntity
  8
0
  6
ByBlock
 62
     0
370
    -2
100
AcDbLine
 10
783.485242155496
 20
133.2269208476868
 30
0.0
 11
783.5078021554957
 21
133.2212808476869
 31
0.0
  0
LINE
  5
178
330
116
100
AcDbEntity
  8
0
  6
ByBlock
 62
     0
370
    -2
100
AcDbLine
 10
783.5078021554957
 20
133.2212808476869
 30
0.0
 11
783.5306621554945
 21
133.2163608476868
 31
0.0
  0
LINE
  5
179
330
116
100
AcDbEntity
  8
0
  6
ByBlock
 62
     0
370
    -2
100
AcDbLine
 10
783.5306621554945
 20
133.2163608476868
 30
0.0
 11
783.5536421554946
 21
133.2120408476868
 31
0.0
  0
LINE
  5
17A
330
116
100
AcDbEntity
  8
0
  6
ByBlock
 62
     0
370
    -2
100
AcDbLine
 10
783.5536421554946
 20
133.2120408476868
 30
0.0
 11
783.5766821554955
 21
133.2081408476865
 31
0.0
  0
LINE
  5
17B
330
116
100
AcDbEntity
  8
0
  6
ByBlock
 62
     0
370
    -2
100
AcDbLine
 10
783.5766821554955
 20
133.2081408476865
 30
0.0
 11
783.5998421554955
 21
133.2045408476869
 31
0.0
  0
LINE
  5
17C
330
116
100
AcDbEntity
  8
0
  6
ByBlock
 62
     0
370
    -2
100
AcDbLine
 10
783.5998421554955
 20
133.2045408476869
 30
0.0
 11
783.6229421554946
 21
133.2010608476869
 31
0.0
  0
LINE
  5
17D
330
116
100
AcDbEntity
  8
0
  6
ByBlock
 62
     0
370
    -2
100
AcDbLine
 10
783.6229421554946
 20
133.2010608476869
 30
0.0
 11
783.6459821554954
 21
133.1975208476869
 31
0.0
  0
LINE
  5
17E
330
116
100
AcDbEntity
  8
0
  6
ByBlock
 62
     0
370
    -2
100
AcDbLine
 10
783.6459821554954
 20
133.1975208476869
 30
0.0
 11
783.7135421554957
 21
133.1876808476866
 31
0.0
  0
LINE
  5
17F
330
116
100
AcDbEntity
  8
0
  6
ByBlock
 62
     0
370
    -2
100
AcDbLine
 10
783.7135421554957
 20
133.1876808476866
 30
0.0
 11
783.7813421554963
 21
133.1791608476868
 31
0.0
  0
LINE
  5
180
330
116
100
AcDbEntity
  8
0
  6
ByBlock
 62
     0
370
    -2
100
AcDbLine
 10
783.7813421554963
 20
133.1791608476868
 30
0.0
 11
783.8492621554961
 21
133.1717808476866
 31
0.0
  0
LINE
  5
181
330
116
100
AcDbEntity
  8
0
  6
ByBlock
 62
     0
370
    -2
100
AcDbLine
 10
783.8492621554961
 20
133.1717808476866
 30
0.0
 11
783.9173021554952
 21
133.165480847687
 31
0.0
  0
LINE
  5
182
330
116
100
AcDbEntity
  8
0
  6
ByBlock
 62
     0
370
    -2
100
AcDbLine
 10
783.9173021554952
 20
133.165480847687
 30
0.0
 11
783.985402155495
 21
133.160080847687
 31
0.0
  0
LINE
  5
183
330
116
100
AcDbEntity
  8
0
  6
ByBlock
 62
     0
370
    -2
100
AcDbLine
 10
783.985402155495
 20
133.160080847687
 30
0.0
 11
784.053622155496
 21
133.1553408476867
 31
0.0
  0
LINE
  5
184
330
116
100
AcDbEntity
  8
0
  6
ByBlock
 62
     0
370
    -2
100
AcDbLine
 10
784.053622155496
 20
133.1553408476867
 30
0.0
 11
784.1219021554955
 21
133.1512608476866
 31
0.0
  0
LINE
  5
185
330
116
100
AcDbEntity
  8
0
  6
ByBlock
 62
     0
370
    -2
100
AcDbLine
 10
784.1219021554955
 20
133.1512608476866
 30
0.0
 11
784.190182155495
 21
133.1475408476867
 31
0.0
  0
LINE
  5
186
330
116
100
AcDbEntity
  8
0
  6
ByBlock
 62
     0
370
    -2
100
AcDbLine
 10
784.190182155495
 20
133.1475408476867
 30
0.0
 11
784.2584621554965
 21
133.1441808476865
 31
0.0
  0
LINE
  5
187
330
116
100
AcDbEntity
  8
0
  6
ByBlock
 62
     0
370
    -2
100
AcDbLine
 10
784.2584621554965
 20
133.1441808476865
 30
0.0
 11
784.326742155496
 21
133.1409408476865
 31
0.0
  0
LINE
  5
188
330
116
100
AcDbEntity
  8
0
  6
ByBlock
 62
     0
370
    -2
100
AcDbLine
 10
784.326742155496
 20
133.1409408476865
 30
0.0
 11
784.3434821554966
 21
133.1402208476867
 31
0.0
  0
LINE
  5
189
330
116
100
AcDbEntity
  8
0
  6
ByBlock
 62
     0
370
    -2
100
AcDbLine
 10
784.3434821554966
 20
133.1402208476867
 30
0.0
 11
784.3602821554957
 21
133.1396808476867
 31
0.0
  0
LINE
  5
18A
330
116
100
AcDbEntity
  8
0
  6
ByBlock
 62
     0
370
    -2
100
AcDbLine
 10
784.3602821554957
 20
133.1396808476867
 30
0.0
 11
784.3770221554962
 21
133.1393208476865
 31
0.0
  0
LINE
  5
18B
330
116
100
AcDbEntity
  8
0
  6
ByBlock
 62
     0
370
    -2
100
AcDbLine
 10
784.3770221554962
 20
133.1393208476865
 30
0.0
 11
784.3938221554953
 21
133.1390808476865
 31
0.0
  0
LINE
  5
18C
330
116
100
AcDbEntity
  8
0
  6
ByBlock
 62
     0
370
    -2
100
AcDbLine
 10
784.3938221554953
 20
133.1390808476865
 30
0.0
 11
784.4106221554966
 21
133.1389608476868
 31
0.0
  0
LINE
  5
18D
330
116
100
AcDbEntity
  8
0
  6
ByBlock
 62
     0
370
    -2
100
AcDbLine
 10
784.4106221554966
 20
133.1389608476868
 30
0.0
 11
784.427362155495
 21
133.1389008476867
 31
0.0
  0
LINE
  5
18E
330
116
100
AcDbEntity
  8
0
  6
ByBlock
 62
     0
370
    -2
100
AcDbLine
 10
784.427362155495
 20
133.1389008476867
 30
0.0
 11
784.4441621554963
 21
133.1389008476867
 31
0.0
  0
LINE
  5
18F
330
116
100
AcDbEntity
  8
0
  6
ByBlock
 62
     0
370
    -2
100
AcDbLine
 10
784.4441621554963
 20
133.1389008476867
 30
0.0
 11
784.4609621554954
 21
133.1389008476867
 31
0.0
  0
LINE
  5
190
330
116
100
AcDbEntity
  8
0
  6
ByBlock
 62
     0
370
    -2
100
AcDbLine
 10
784.4609621554954
 20
133.1389008476867
 30
0.0
 11
784.477702155496
 21
133.1389608476868
 31
0.0
  0
LINE
  5
191
330
116
100
AcDbEntity
  8
0
  6
ByBlock
 62
     0
370
    -2
100
AcDbLine
 10
784.477702155496
 20
133.1389608476868
 30
0.0
 11
784.494502155495
 21
133.1389608476868
 31
0.0
  0
LINE
  5
192
330
116
100
AcDbEntity
  8
0
  6
ByBlock
 62
     0
370
    -2
100
AcDbLine
 10
784.494502155495
 20
133.1389608476868
 30
0.0
 11
784.5113021554961
 21
133.1389608476868
 31
0.0
  0
LINE
  5
193
330
116
100
AcDbEntity
  8
0
  6
ByBlock
 62
     0
370
    -2
100
AcDbLine
 10
784.5113021554961
 20
133.1389608476868
 30
0.0
 11
784.5280421554967
 21
133.1389008476867
 31
0.0
  0
LINE
  5
194
330
116
100
AcDbEntity
  8
0
  6
ByBlock
 62
     0
370
    -2
100
AcDbLine
 10
784.5280421554967
 20
133.1389008476867
 30
0.0
 11
784.5448421554958
 21
133.1389008476867
 31
0.0
  0
LINE
  5
195
330
116
100
AcDbEntity
  8
0
  6
ByBlock
 62
     0
370
    -2
100
AcDbLine
 10
784.5448421554958
 20
133.1389008476867
 30
0.0
 11
784.5616421554948
 21
133.1389008476867
 31
0.0
  0
LINE
  5
196
330
116
100
AcDbEntity
  8
0
  6
ByBlock
 62
     0
370
    -2
100
AcDbLine
 10
784.5616421554948
 20
133.1389008476867
 30
0.0
 11
784.5783821554953
 21
133.1389608476868
 31
0.0
  0
LINE
  5
197
330
116
100
AcDbEntity
  8
0
  6
ByBlock
 62
     0
370
    -2
100
AcDbLine
 10
784.5783821554953
 20
133.1389608476868
 30
0.0
 11
784.5951821554968
 21
133.1390808476865
 31
0.0
  0
LINE
  5
198
330
116
100
AcDbEntity
  8
0
  6
ByBlock
 62
     0
370
    -2
100
AcDbLine
 10
784.5951821554968
 20
133.1390808476865
 30
0.0
 11
784.6119821554958
 21
133.1393208476865
 31
0.0
  0
LINE
  5
199
330
116
100
AcDbEntity
  8
0
  6
ByBlock
 62
     0
370
    -2
100
AcDbLine
 10
784.6119821554958
 20
133.1393208476865
 30
0.0
 11
784.6287221554963
 21
133.1396808476867
 31
0.0
  0
LINE
  5
19A
330
116
100
AcDbEntity
  8
0
  6
ByBlock
 62
     0
370
    -2
100
AcDbLine
 10
784.6287221554963
 20
133.1396808476867
 30
0.0
 11
784.6455221554954
 21
133.1402208476867
 31
0.0
  0
LINE
  5
19B
330
116
100
AcDbEntity
  8
0
  6
ByBlock
 62
     0
370
    -2
100
AcDbLine
 10
784.6455221554954
 20
133.1402208476867
 30
0.0
 11
784.662262155496
 21
133.1409408476865
 31
0.0
  0
LINE
  5
19C
330
116
100
AcDbEntity
  8
0
  6
ByBlock
 62
     0
370
    -2
100
AcDbLine
 10
784.662262155496
 20
133.1409408476865
 30
0.0
 11
784.7305421554955
 21
133.1441808476865
 31
0.0
  0
LINE
  5
19D
330
116
100
AcDbEntity
  8
0
  6
ByBlock
 62
     0
370
    -2
100
AcDbLine
 10
784.7305421554955
 20
133.1441808476865
 30
0.0
 11
784.798822155495
 21
133.1475408476867
 31
0.0
  0
LINE
  5
19E
330
116
100
AcDbEntity
  8
0
  6
ByBlock
 62
     0
370
    -2
100
AcDbLine
 10
784.798822155495
 20
133.1475408476867
 30
0.0
 11
784.8671021554966
 21
133.1512608476866
 31
0.0
  0
LINE
  5
19F
330
116
100
AcDbEntity
  8
0
  6
ByBlock
 62
     0
370
    -2
100
AcDbLine
 10
784.8671021554966
 20
133.1512608476866
 30
0.0
 11
784.9353821554961
 21
133.1553408476867
 31
0.0
  0
LINE
  5
1A0
330
116
100
AcDbEntity
  8
0
  6
ByBlock
 62
     0
370
    -2
100
AcDbLine
 10
784.9353821554961
 20
133.1553408476867
 30
0.0
 11
785.0036021554951
 21
133.160080847687
 31
0.0
  0
LINE
  5
1A1
330
116
100
AcDbEntity
  8
0
  6
ByBlock
 62
     0
370
    -2
100
AcDbLine
 10
785.0036021554951
 20
133.160080847687
 30
0.0
 11
785.0717021554947
 21
133.165480847687
 31
0.0
  0
LINE
  5
1A2
330
116
100
AcDbEntity
  8
0
  6
ByBlock
 62
     0
370
    -2
100
AcDbLine
 10
785.0717021554947
 20
133.165480847687
 30
0.0
 11
785.1397421554959
 21
133.1717808476866
 31
0.0
  0
LINE
  5
1A3
330
116
100
AcDbEntity
  8
0
  6
ByBlock
 62
     0
370
    -2
100
AcDbLine
 10
785.1397421554959
 20
133.1717808476866
 30
0.0
 11
785.2076621554958
 21
133.1791608476868
 31
0.0
  0
LINE
  5
1A4
330
116
100
AcDbEntity
  8
0
  6
ByBlock
 62
     0
370
    -2
100
AcDbLine
 10
785.2076621554958
 20
133.1791608476868
 30
0.0
 11
785.2754621554964
 21
133.1876808476866
 31
0.0
  0
LINE
  5
1A5
330
116
100
AcDbEntity
  8
0
  6
ByBlock
 62
     0
370
    -2
100
AcDbLine
 10
785.2754621554964
 20
133.1876808476866
 30
0.0
 11
785.3430221554966
 21
133.1975208476869
 31
0.0
  0
LINE
  5
1A6
330
116
100
AcDbEntity
  8
0
  6
ByBlock
 62
     0
370
    -2
100
AcDbLine
 10
785.3430221554966
 20
133.1975208476869
 30
0.0
 11
785.3660621554952
 21
133.2010608476869
 31
0.0
  0
LINE
  5
1A7
330
116
100
AcDbEntity
  8
0
  6
ByBlock
 62
     0
370
    -2
100
AcDbLine
 10
785.3660621554952
 20
133.2010608476869
 30
0.0
 11
785.3891621554966
 21
133.2045408476869
 31
0.0
  0
LINE
  5
1A8
330
116
100
AcDbEntity
  8
0
  6
ByBlock
 62
     0
370
    -2
100
AcDbLine
 10
785.3891621554966
 20
133.2045408476869
 30
0.0
 11
785.412262155496
 21
133.2081408476865
 31
0.0
  0
LINE
  5
1A9
330
116
100
AcDbEntity
  8
0
  6
ByBlock
 62
     0
370
    -2
100
AcDbLine
 10
785.412262155496
 20
133.2081408476865
 30
0.0
 11
785.4353621554951
 21
133.2120408476868
 31
0.0
  0
LINE
  5
1AA
330
116
100
AcDbEntity
  8
0
  6
ByBlock
 62
     0
370
    -2
100
AcDbLine
 10
785.4353621554951
 20
133.2120408476868
 30
0.0
 11
785.4583421554952
 21
133.2163608476868
 31
0.0
  0
LINE
  5
1AB
330
116
100
AcDbEntity
  8
0
  6
ByBlock
 62
     0
370
    -2
100
AcDbLine
 10
785.4583421554952
 20
133.2163608476868
 30
0.0
 11
785.4811421554955
 21
133.2212808476869
 31
0.0
  0
LINE
  5
1AC
330
116
100
AcDbEntity
  8
0
  6
ByBlock
 62
     0
370
    -2
100
AcDbLine
 10
785.4811421554955
 20
133.2212808476869
 30
0.0
 11
785.5037021554954
 21
133.2269208476868
 31
0.0
  0
LINE
  5
1AD
330
116
100
AcDbEntity
  8
0
  6
ByBlock
 62
     0
370
    -2
100
AcDbLine
 10
785.5037021554954
 20
133.2269208476868
 30
0.0
 11
785.5259621554962
 21
133.2335208476865
 31
0.0
  0
LINE
  5
1AE
330
116
100
AcDbEntity
  8
0
  6
ByBlock
 62
     0
370
    -2
100
AcDbLine
 10
785.5259621554962
 20
133.2335208476865
 30
0.0
 11
785.5478621554951
 21
133.2411408476867
 31
0.0
  0
LINE
  5
1AF
330
116
100
AcDbEntity
  8
0
  6
ByBlock
 62
     0
370
    -2
100
AcDbLine
 10
785.5478621554951
 20
133.2411408476867
 30
0.0
 11
785.5692821554953
 21
133.2500208476866
 31
0.0
  0
LINE
  5
1B0
330
116
100
AcDbEntity
  8
0
  6
ByBlock
 62
     0
370
    -2
100
AcDbLine
 10
785.5692821554953
 20
133.2500208476866
 30
0.0
 11
785.5841021554963
 21
133.2562008476866
 31
0.0
  0
LINE
  5
1B1
330
116
100
AcDbEntity
  8
0
  6
ByBlock
 62
     0
370
    -2
100
AcDbLine
 10
785.5841021554963
 20
133.2562008476866
 30
0.0
 11
785.6002421554947
 21
133.2624408476867
 31
0.0
  0
LINE
  5
1B2
330
116
100
AcDbEntity
  8
0
  6
ByBlock
 62
     0
370
    -2
100
AcDbLine
 10
785.6002421554947
 20
133.2624408476867
 30
0.0
 11
785.6169221554946
 21
133.268800847687
 31
0.0
  0
LINE
  5
1B3
330
116
100
AcDbEntity
  8
0
  6
ByBlock
 62
     0
370
    -2
100
AcDbLine
 10
785.6169221554946
 20
133.268800847687
 30
0.0
 11
785.633542155496
 21
133.2756408476866
 31
0.0
  0
LINE
  5
1B4
330
116
100
AcDbEntity
  8
0
  6
ByBlock
 62
     0
370
    -2
100
AcDbLine
 10
785.633542155496
 20
133.2756408476866
 30
0.0
 11
785.6493821554955
 21
133.2831408476865
 31
0.0
  0
LINE
  5
1B5
330
116
100
AcDbEntity
  8
0
  6
ByBlock
 62
     0
370
    -2
100
AcDbLine
 10
785.6493821554955
 20
133.2831408476865
 30
0.0
 11
785.6638421554945
 21
133.2916008476867
 31
0.0
  0
LINE
  5
1B6
330
116
100
AcDbEntity
  8
0
  6
ByBlock
 62
     0
370
    -2
100
AcDbLine
 10
785.6638421554945
 20
133.2916008476867
 30
0.0
 11
785.6762621554951
 21
133.3011408476869
 31
0.0
  0
LINE
  5
1B7
330
116
100
AcDbEntity
  8
0
  6
ByBlock
 62
     0
370
    -2
100
AcDbLine
 10
785.6762621554951
 20
133.3011408476869
 30
0.0
 11
785.6859821554963
 21
133.3120608476866
 31
0.0
  0
LINE
  5
1B8
330
116
100
AcDbEntity
  8
0
  6
ByBlock
 62
     0
370
    -2
100
AcDbLine
 10
785.6859821554963
 20
133.3120608476866
 30
0.0
 11
785.6922221554959
 21
133.3246008476869
 31
0.0
  0
LINE
  5
1B9
330
116
100
AcDbEntity
  8
0
  6
ByBlock
 62
     0
370
    -2
100
AcDbLine
 10
785.6922221554959
 20
133.3246008476869
 30
0.0
 11
785.694502155495
 21
133.338940847687
 31
0.0
  0
ENDBLK
  5
118
330
116
100
AcDbEntity
  8
0
100
AcDbBlockEnd
  0
BLOCK
  5
1BB
330
1BA
100
AcDbEntity
  8
0
100
AcDbBlockBegin
  2
BLKF024
 70
     0
 10
0.0
 20
0.0
 30
0.0
  3
BLKF024
  1
BLKF024
  0
LINE
  5
1BE
330
1BA
100
AcDbEntity
  8
0
  6
ByBlock
 62
     0
370
    -2
100
AcDbLine
 10
765.694522155496
 20
133.338940847687
 30
0.0
 11
765.6922421554968
 21
133.3533408476866
 31
0.0
  0
LINE
  5
1BF
330
1BA
100
AcDbEntity
  8
0
  6
ByBlock
 62
     0
370
    -2
100
AcDbLine
 10
765.6922421554968
 20
133.3533408476866
 30
0.0
 11
765.6859421554965
 21
133.3658808476869
 31
0.0
  0
LINE
  5
1C0
330
1BA
100
AcDbEntity
  8
0
  6
ByBlock
 62
     0
370
    -2
100
AcDbLine
 10
765.6859421554965
 20
133.3658808476869
 30
0.0
 11
765.676282155496
 21
133.3768008476866
 31
0.0
  0
LINE
  5
1C1
330
1BA
100
AcDbEntity
  8
0
  6
ByBlock
 62
     0
370
    -2
100
AcDbLine
 10
765.676282155496
 20
133.3768008476866
 30
0.0
 11
765.6638621554955
 21
133.3863408476868
 31
0.0
  0
LINE
  5
1C2
330
1BA
100
AcDbEntity
  8
0
  6
ByBlock
 62
     0
370
    -2
100
AcDbLine
 10
765.6638621554955
 20
133.3863408476868
 30
0.0
 11
765.6494021554963
 21
133.3947408476869
 31
0.0
  0
LINE
  5
1C3
330
1BA
100
AcDbEntity
  8
0
  6
ByBlock
 62
     0
370
    -2
100
AcDbLine
 10
765.6494021554963
 20
133.3947408476869
 30
0.0
 11
765.6335021554964
 21
133.4023008476869
 31
0.0
  0
LINE
  5
1C4
330
1BA
100
AcDbEntity
  8
0
  6
ByBlock
 62
     0
370
    -2
100
AcDbLine
 10
765.6335021554964
 20
133.4023008476869
 30
0.0
 11
765.6169421554956
 21
133.4091408476865
 31
0.0
  0
LINE
  5
1C5
330
1BA
100
AcDbEntity
  8
0
  6
ByBlock
 62
     0
370
    -2
100
AcDbLine
 10
765.6169421554956
 20
133.4091408476865
 30
0.0
 11
765.600202155495
 21
133.4155008476868
 31
0.0
  0
LINE
  5
1C6
330
1BA
100
AcDbEntity
  8
0
  6
ByBlock
 62
     0
370
    -2
100
AcDbLine
 10
765.600202155495
 20
133.4155008476868
 30
0.0
 11
765.5841221554953
 21
133.4216808476868
 31
0.0
  0
LINE
  5
1C7
330
1BA
100
AcDbEntity
  8
0
  6
ByBlock
 62
     0
370
    -2
100
AcDbLine
 10
765.5841221554953
 20
133.4216808476868
 30
0.0
 11
765.5693021554963
 21
133.4279208476869
 31
0.0
  0
LINE
  5
1C8
330
1BA
100
AcDbEntity
  8
0
  6
ByBlock
 62
     0
370
    -2
100
AcDbLine
 10
765.5693021554963
 20
133.4279208476869
 30
0.0
 11
765.5478221554955
 21
133.4368008476868
 31
0.0
  0
LINE
  5
1C9
330
1BA
100
AcDbEntity
  8
0
  6
ByBlock
 62
     0
370
    -2
100
AcDbLine
 10
765.5478221554955
 20
133.4368008476868
 30
0.0
 11
765.5259821554948
 21
133.444420847687
 31
0.0
  0
LINE
  5
1CA
330
1BA
100
AcDbEntity
  8
0
  6
ByBlock
 62
     0
370
    -2
100
AcDbLine
 10
765.5259821554948
 20
133.444420847687
 30
0.0
 11
765.5037221554963
 21
133.4509608476866
 31
0.0
  0
LINE
  5
1CB
330
1BA
100
AcDbEntity
  8
0
  6
ByBlock
 62
     0
370
    -2
100
AcDbLine
 10
765.5037221554963
 20
133.4509608476866
 30
0.0
 11
765.4811621554965
 21
133.4566608476866
 31
0.0
  0
LINE
  5
1CC
330
1BA
100
AcDbEntity
  8
0
  6
ByBlock
 62
     0
370
    -2
100
AcDbLine
 10
765.4811621554965
 20
133.4566608476866
 30
0.0
 11
765.4583621554962
 21
133.4615808476867
 31
0.0
  0
LINE
  5
1CD
330
1BA
100
AcDbEntity
  8
0
  6
ByBlock
 62
     0
370
    -2
100
AcDbLine
 10
765.4583621554962
 20
133.4615808476867
 30
0.0
 11
765.4353821554961
 21
133.4659008476868
 31
0.0
  0
LINE
  5
1CE
330
1BA
100
AcDbEntity
  8
0
  6
ByBlock
 62
     0
370
    -2
100
AcDbLine
 10
765.4353821554961
 20
133.4659008476868
 30
0.0
 11
765.4122821554946
 21
133.4697408476869
 31
0.0
  0
LINE
  5
1CF
330
1BA
100
AcDbEntity
  8
0
  6
ByBlock
 62
     0
370
    -2
100
AcDbLine
 10
765.4122821554946
 20
133.4697408476869
 30
0.0
 11
765.3891221554948
 21
133.4734008476866
 31
0.0
  0
LINE
  5
1D0
330
1BA
100
AcDbEntity
  8
0
  6
ByBlock
 62
     0
370
    -2
100
AcDbLine
 10
765.3891221554948
 20
133.4734008476866
 30
0.0
 11
765.3660221554956
 21
133.4768808476866
 31
0.0
  0
LINE
  5
1D1
330
1BA
100
AcDbEntity
  8
0
  6
ByBlock
 62
     0
370
    -2
100
AcDbLine
 10
765.3660221554956
 20
133.4768808476866
 30
0.0
 11
765.3430421554955
 21
133.4803608476865
 31
0.0
  0
LINE
  5
1D2
330
1BA
100
AcDbEntity
  8
0
  6
ByBlock
 62
     0
370
    -2
100
AcDbLine
 10
765.3430421554955
 20
133.4803608476865
 30
0.0
 11
765.2754221554968
 21
133.4902608476869
 31
0.0
  0
LINE
  5
1D3
330
1BA
100
AcDbEntity
  8
0
  6
ByBlock
 62
     0
370
    -2
100
AcDbLine
 10
765.2754221554968
 20
133.4902608476869
 30
0.0
 11
765.2076821554967
 21
133.4987808476867
 31
0.0
  0
LINE
  5
1D4
330
1BA
100
AcDbEntity
  8
0
  6
ByBlock
 62
     0
370
    -2
100
AcDbLine
 10
765.2076821554967
 20
133.4987808476867
 30
0.0
 11
765.1397621554945
 21
133.5061008476868
 31
0.0
  0
LINE
  5
1D5
330
1BA
100
AcDbEntity
  8
0
  6
ByBlock
 62
     0
370
    -2
100
AcDbLine
 10
765.1397621554945
 20
133.5061008476868
 30
0.0
 11
765.0717221554956
 21
133.5124608476865
 31
0.0
  0
LINE
  5
1D6
330
1BA
100
AcDbEntity
  8
0
  6
ByBlock
 62
     0
370
    -2
100
AcDbLine
 10
765.0717221554956
 20
133.5124608476865
 30
0.0
 11
765.0035621554952
 21
133.5178608476865
 31
0.0
  0
LINE
  5
1D7
330
1BA
100
AcDbEntity
  8
0
  6
ByBlock
 62
     0
370
    -2
100
AcDbLine
 10
765.0035621554952
 20
133.5178608476865
 30
0.0
 11
764.9353421554965
 21
133.5225408476867
 31
0.0
  0
LINE
  5
1D8
330
1BA
100
AcDbEntity
  8
0
  6
ByBlock
 62
     0
370
    -2
100
AcDbLine
 10
764.9353421554965
 20
133.5225408476867
 30
0.0
 11
764.8671221554955
 21
133.5266808476869
 31
0.0
  0
LINE
  5
1D9
330
1BA
100
AcDbEntity
  8
0
  6
ByBlock
 62
     0
370
    -2
100
AcDbLine
 10
764.8671221554955
 20
133.5266808476869
 30
0.0
 11
764.7987821554951
 21
133.5303408476867
 31
0.0
  0
LINE
  5
1DA
330
1BA
100
AcDbEntity
  8
0
  6
ByBlock
 62
     0
370
    -2
100
AcDbLine
 10
764.7987821554951
 20
133.5303408476867
 30
0.0
 11
764.7305021554956
 21
133.5337608476865
 31
0.0
  0
LINE
  5
1DB
330
1BA
100
AcDbEntity
  8
0
  6
ByBlock
 62
     0
370
    -2
100
AcDbLine
 10
764.7305021554956
 20
133.5337608476865
 30
0.0
 11
764.6622821554946
 21
133.5370008476865
 31
0.0
  0
LINE
  5
1DC
330
1BA
100
AcDbEntity
  8
0
  6
ByBlock
 62
     0
370
    -2
100
AcDbLine
 10
764.6622821554946
 20
133.5370008476865
 30
0.0
 11
764.6454821554955
 21
133.5377208476869
 31
0.0
  0
LINE
  5
1DD
330
1BA
100
AcDbEntity
  8
0
  6
ByBlock
 62
     0
370
    -2
100
AcDbLine
 10
764.6454821554955
 20
133.5377208476869
 30
0.0
 11
764.628742155495
 21
133.5382008476867
 31
0.0
  0
LINE
  5
1DE
330
1BA
100
AcDbEntity
  8
0
  6
ByBlock
 62
     0
370
    -2
100
AcDbLine
 10
764.628742155495
 20
133.5382008476867
 30
0.0
 11
764.611942155496
 21
133.5385608476869
 31
0.0
  0
LINE
  5
1DF
330
1BA
100
AcDbEntity
  8
0
  6
ByBlock
 62
     0
370
    -2
100
AcDbLine
 10
764.611942155496
 20
133.5385608476869
 30
0.0
 11
764.5952021554954
 21
133.5388608476864
 31
0.0
  0
LINE
  5
1E0
330
1BA
100
AcDbEntity
  8
0
  6
ByBlock
 62
     0
370
    -2
100
AcDbLine
 10
764.5952021554954
 20
133.5388608476864
 30
0.0
 11
764.5784021554963
 21
133.5389808476867
 31
0.0
  0
LINE
  5
1E1
330
1BA
100
AcDbEntity
  8
0
  6
ByBlock
 62
     0
370
    -2
100
AcDbLine
 10
764.5784021554963
 20
133.5389808476867
 30
0.0
 11
764.5616021554952
 21
133.5390408476868
 31
0.0
  0
LINE
  5
1E2
330
1BA
100
AcDbEntity
  8
0
  6
ByBlock
 62
     0
370
    -2
100
AcDbLine
 10
764.5616021554952
 20
133.5390408476868
 30
0.0
 11
764.5448621554967
 21
133.5390408476868
 31
0.0
  0
LINE
  5
1E3
330
1BA
100
AcDbEntity
  8
0
  6
ByBlock
 62
     0
370
    -2
100
AcDbLine
 10
764.5448621554967
 20
133.5390408476868
 30
0.0
 11
764.5280621554956
 21
133.5389808476867
 31
0.0
  0
LINE
  5
1E4
330
1BA
100
AcDbEntity
  8
0
  6
ByBlock
 62
     0
370
    -2
100
AcDbLine
 10
764.5280621554956
 20
133.5389808476867
 30
0.0
 11
764.5112621554965
 21
133.5389808476867
 31
0.0
  0
LINE
  5
1E5
330
1BA
100
AcDbEntity
  8
0
  6
ByBlock
 62
     0
370
    -2
100
AcDbLine
 10
764.5112621554965
 20
133.5389808476867
 30
0.0
 11
764.4945221554959
 21
133.5389808476867
 31
0.0
  0
LINE
  5
1E6
330
1BA
100
AcDbEntity
  8
0
  6
ByBlock
 62
     0
370
    -2
100
AcDbLine
 10
764.4945221554959
 20
133.5389808476867
 30
0.0
 11
764.4777221554946
 21
133.5389808476867
 31
0.0
  0
LINE
  5
1E7
330
1BA
100
AcDbEntity
  8
0
  6
ByBlock
 62
     0
370
    -2
100
AcDbLine
 10
764.4777221554946
 20
133.5389808476867
 30
0.0
 11
764.4609221554955
 21
133.5389808476867
 31
0.0
  0
LINE
  5
1E8
330
1BA
100
AcDbEntity
  8
0
  6
ByBlock
 62
     0
370
    -2
100
AcDbLine
 10
764.4609221554955
 20
133.5389808476867
 30
0.0
 11
764.4441821554949
 21
133.5390408476868
 31
0.0
  0
LINE
  5
1E9
330
1BA
100
AcDbEntity
  8
0
  6
ByBlock
 62
     0
370
    -2
100
AcDbLine
 10
764.4441821554949
 20
133.5390408476868
 30
0.0
 11
764.4273821554959
 21
133.5390408476868
 31
0.0
  0
LINE
  5
1EA
330
1BA
100
AcDbEntity
  8
0
  6
ByBlock
 62
     0
370
    -2
100
AcDbLine
 10
764.4273821554959
 20
133.5390408476868
 30
0.0
 11
764.4105821554948
 21
133.5389808476867
 31
0.0
  0
LINE
  5
1EB
330
1BA
100
AcDbEntity
  8
0
  6
ByBlock
 62
     0
370
    -2
100
AcDbLine
 10
764.4105821554948
 20
133.5389808476867
 30
0.0
 11
764.3938421554963
 21
133.5388608476864
 31
0.0
  0
LINE
  5
1EC
330
1BA
100
AcDbEntity
  8
0
  6
ByBlock
 62
     0
370
    -2
100
AcDbLine
 10
764.3938421554963
 20
133.5388608476864
 30
0.0
 11
764.3770421554951
 21
133.5385608476869
 31
0.0
  0
LINE
  5
1ED
330
1BA
100
AcDbEntity
  8
0
  6
ByBlock
 62
     0
370
    -2
100
AcDbLine
 10
764.3770421554951
 20
133.5385608476869
 30
0.0
 11
764.360242155496
 21
133.5382008476867
 31
0.0
  0
LINE
  5
1EE
330
1BA
100
AcDbEntity
  8
0
  6
ByBlock
 62
     0
370
    -2
100
AcDbLine
 10
764.360242155496
 20
133.5382008476867
 30
0.0
 11
764.3435021554956
 21
133.5377208476869
 31
0.0
  0
LINE
  5
1EF
330
1BA
100
AcDbEntity
  8
0
  6
ByBlock
 62
     0
370
    -2
100
AcDbLine
 10
764.3435021554956
 20
133.5377208476869
 30
0.0
 11
764.326762155495
 21
133.5370008476865
 31
0.0
  0
LINE
  5
1F0
330
1BA
100
AcDbEntity
  8
0
  6
ByBlock
 62
     0
370
    -2
100
AcDbLine
 10
764.326762155495
 20
133.5370008476865
 30
0.0
 11
764.2584821554955
 21
133.5337608476865
 31
0.0
  0
LINE
  5
1F1
330
1BA
100
AcDbEntity
  8
0
  6
ByBlock
 62
     0
370
    -2
100
AcDbLine
 10
764.2584821554955
 20
133.5337608476865
 30
0.0
 11
764.190202155496
 21
133.5303408476867
 31
0.0
  0
LINE
  5
1F2
330
1BA
100
AcDbEntity
  8
0
  6
ByBlock
 62
     0
370
    -2
100
AcDbLine
 10
764.190202155496
 20
133.5303408476867
 30
0.0
 11
764.1219221554965
 21
133.5266808476869
 31
0.0
  0
LINE
  5
1F3
330
1BA
100
AcDbEntity
  8
0
  6
ByBlock
 62
     0
370
    -2
100
AcDbLine
 10
764.1219221554965
 20
133.5266808476869
 30
0.0
 11
764.0536421554946
 21
133.5225408476867
 31
0.0
  0
LINE
  5
1F4
330
1BA
100
AcDbEntity
  8
0
  6
ByBlock
 62
     0
370
    -2
100
AcDbLine
 10
764.0536421554946
 20
133.5225408476867
 30
0.0
 11
763.9854221554959
 21
133.5178608476865
 31
0.0
  0
LINE
  5
1F5
330
1BA
100
AcDbEntity
  8
0
  6
ByBlock
 62
     0
370
    -2
100
AcDbLine
 10
763.9854221554959
 20
133.5178608476865
 30
0.0
 11
763.9172621554955
 21
133.5124608476865
 31
0.0
  0
LINE
  5
1F6
330
1BA
100
AcDbEntity
  8
0
  6
ByBlock
 62
     0
370
    -2
100
AcDbLine
 10
763.9172621554955
 20
133.5124608476865
 30
0.0
 11
763.8492221554966
 21
133.5061008476868
 31
0.0
  0
LINE
  5
1F7
330
1BA
100
AcDbEntity
  8
0
  6
ByBlock
 62
     0
370
    -2
100
AcDbLine
 10
763.8492221554966
 20
133.5061008476868
 30
0.0
 11
763.7813021554966
 21
133.4987808476867
 31
0.0
  0
LINE
  5
1F8
330
1BA
100
AcDbEntity
  8
0
  6
ByBlock
 62
     0
370
    -2
100
AcDbLine
 10
763.7813021554966
 20
133.4987808476867
 30
0.0
 11
763.7135621554967
 21
133.4902608476869
 31
0.0
  0
LINE
  5
1F9
330
1BA
100
AcDbEntity
  8
0
  6
ByBlock
 62
     0
370
    -2
100
AcDbLine
 10
763.7135621554967
 20
133.4902608476869
 30
0.0
 11
763.6459421554956
 21
133.4803608476865
 31
0.0
  0
LINE
  5
1FA
330
1BA
100
AcDbEntity
  8
0
  6
ByBlock
 62
     0
370
    -2
100
AcDbLine
 10
763.6459421554956
 20
133.4803608476865
 30
0.0
 11
763.6229621554955
 21
133.4768808476866
 31
0.0
  0
LINE
  5
1FB
330
1BA
100
AcDbEntity
  8
0
  6
ByBlock
 62
     0
370
    -2
100
AcDbLine
 10
763.6229621554955
 20
133.4768808476866
 30
0.0
 11
763.5998621554963
 21
133.4734008476866
 31
0.0
  0
LINE
  5
1FC
330
1BA
100
AcDbEntity
  8
0
  6
ByBlock
 62
     0
370
    -2
100
AcDbLine
 10
763.5998621554963
 20
133.4734008476866
 30
0.0
 11
763.5767021554965
 21
133.4697408476869
 31
0.0
  0
LINE
  5
1FD
330
1BA
100
AcDbEntity
  8
0
  6
ByBlock
 62
     0
370
    -2
100
AcDbLine
 10
763.5767021554965
 20
133.4697408476869
 30
0.0
 11
763.553602155495
 21
133.4659008476868
 31
0.0
  0
LINE
  5
1FE
330
1BA
100
AcDbEntity
  8
0
  6
ByBlock
 62
     0
370
    -2
100
AcDbLine
 10
763.553602155495
 20
133.4659008476868
 30
0.0
 11
763.5306221554949
 21
133.4615808476867
 31
0.0
  0
LINE
  5
1FF
330
1BA
100
AcDbEntity
  8
0
  6
ByBlock
 62
     0
370
    -2
100
AcDbLine
 10
763.5306221554949
 20
133.4615808476867
 30
0.0
 11
763.5078221554967
 21
133.4566608476866
 31
0.0
  0
LINE
  5
200
330
1BA
100
AcDbEntity
  8
0
  6
ByBlock
 62
     0
370
    -2
100
AcDbLine
 10
763.5078221554967
 20
133.4566608476866
 30
0.0
 11
763.4852621554948
 21
133.4509608476866
 31
0.0
  0
LINE
  5
201
330
1BA
100
AcDbEntity
  8
0
  6
ByBlock
 62
     0
370
    -2
100
AcDbLine
 10
763.4852621554948
 20
133.4509608476866
 30
0.0
 11
763.4630021554963
 21
133.444420847687
 31
0.0
  0
LINE
  5
202
330
1BA
100
AcDbEntity
  8
0
  6
ByBlock
 62
     0
370
    -2
100
AcDbLine
 10
763.4630021554963
 20
133.444420847687
 30
0.0
 11
763.4411621554956
 21
133.4368008476868
 31
0.0
  0
LINE
  5
203
330
1BA
100
AcDbEntity
  8
0
  6
ByBlock
 62
     0
370
    -2
100
AcDbLine
 10
763.4411621554956
 20
133.4368008476868
 30
0.0
 11
763.4197421554953
 21
133.4279208476869
 31
0.0
  0
LINE
  5
204
330
1BA
100
AcDbEntity
  8
0
  6
ByBlock
 62
     0
370
    -2
100
AcDbLine
 10
763.4197421554953
 20
133.4279208476869
 30
0.0
 11
763.4048621554958
 21
133.4216808476868
 31
0.0
  0
LINE
  5
205
330
1BA
100
AcDbEntity
  8
0
  6
ByBlock
 62
     0
370
    -2
100
AcDbLine
 10
763.4048621554958
 20
133.4216808476868
 30
0.0
 11
763.3887821554961
 21
133.4155008476868
 31
0.0
  0
LINE
  5
206
330
1BA
100
AcDbEntity
  8
0
  6
ByBlock
 62
     0
370
    -2
100
AcDbLine
 10
763.3887821554961
 20
133.4155008476868
 30
0.0
 11
763.3721021554962
 21
133.4091408476865
 31
0.0
  0
LINE
  5
207
330
1BA
100
AcDbEntity
  8
0
  6
ByBlock
 62
     0
370
    -2
100
AcDbLine
 10
763.3721021554962
 20
133.4091408476865
 30
0.0
 11
763.3554821554947
 21
133.4023008476869
 31
0.0
  0
LINE
  5
208
330
1BA
100
AcDbEntity
  8
0
  6
ByBlock
 62
     0
370
    -2
100
AcDbLine
 10
763.3554821554947
 20
133.4023008476869
 30
0.0
 11
763.3395821554948
 21
133.3947408476869
 31
0.0
  0
LINE
  5
209
330
1BA
100
AcDbEntity
  8
0
  6
ByBlock
 62
     0
370
    -2
100
AcDbLine
 10
763.3395821554948
 20
133.3947408476869
 30
0.0
 11
763.3251221554956
 21
133.3863408476868
 31
0.0
  0
LINE
  5
20A
330
1BA
100
AcDbEntity
  8
0
  6
ByBlock
 62
     0
370
    -2
100
AcDbLine
 10
763.3251221554956
 20
133.3863408476868
 30
0.0
 11
763.3127021554951
 21
133.3768008476866
 31
0.0
  0
LINE
  5
20B
330
1BA
100
AcDbEntity
  8
0
  6
ByBlock
 62
     0
370
    -2
100
AcDbLine
 10
763.3127021554951
 20
133.3768008476866
 30
0.0
 11
763.3030421554967
 21
133.3658808476869
 31
0.0
  0
LINE
  5
20C
330
1BA
100
AcDbEntity
  8
0
  6
ByBlock
 62
     0
370
    -2
100
AcDbLine
 10
763.3030421554967
 20
133.3658808476869
 30
0.0
 11
763.2967421554966
 21
133.3533408476866
 31
0.0
  0
LINE
  5
20D
330
1BA
100
AcDbEntity
  8
0
  6
ByBlock
 62
     0
370
    -2
100
AcDbLine
 10
763.2967421554966
 20
133.3533408476866
 30
0.0
 11
763.294522155496
 21
133.338940847687
 31
0.0
  0
LINE
  5
20E
330
1BA
100
AcDbEntity
  8
0
  6
ByBlock
 62
     0
370
    -2
100
AcDbLine
 10
763.294522155496
 20
133.338940847687
 30
0.0
 11
763.2967421554966
 21
133.3246008476869
 31
0.0
  0
LINE
  5
20F
330
1BA
100
AcDbEntity
  8
0
  6
ByBlock
 62
     0
370
    -2
100
AcDbLine
 10
763.2967421554966
 20
133.3246008476869
 30
0.0
 11
763.3030421554967
 21
133.3120608476866
 31
0.0
  0
LINE
  5
210
330
1BA
100
AcDbEntity
  8
0
  6
ByBlock
 62
     0
370
    -2
100
AcDbLine
 10
763.3030421554967
 20
133.3120608476866
 30
0.0
 11
763.3127021554951
 21
133.3011408476869
 31
0.0
  0
LINE
  5
211
330
1BA
100
AcDbEntity
  8
0
  6
ByBlock
 62
     0
370
    -2
100
AcDbLine
 10
763.3127021554951
 20
133.3011408476869
 30
0.0
 11
763.3251221554956
 21
133.2916008476867
 31
0.0
  0
LINE
  5
212
330
1BA
100
AcDbEntity
  8
0
  6
ByBlock
 62
     0
370
    -2
100
AcDbLine
 10
763.3251221554956
 20
133.2916008476867
 30
0.0
 11
763.3395821554948
 21
133.2831408476865
 31
0.0
  0
LINE
  5
213
330
1BA
100
AcDbEntity
  8
0
  6
ByBlock
 62
     0
370
    -2
100
AcDbLine
 10
763.3395821554948
 20
133.2831408476865
 30
0.0
 11
763.3554821554947
 21
133.2756408476866
 31
0.0
  0
LINE
  5
214
330
1BA
100
AcDbEntity
  8
0
  6
ByBlock
 62
     0
370
    -2
100
AcDbLine
 10
763.3554821554947
 20
133.2756408476866
 30
0.0
 11
763.3721021554962
 21
133.268800847687
 31
0.0
  0
LINE
  5
215
330
1BA
100
AcDbEntity
  8
0
  6
ByBlock
 62
     0
370
    -2
100
AcDbLine
 10
763.3721021554962
 20
133.268800847687
 30
0.0
 11
763.3887821554961
 21
133.2624408476867
 31
0.0
  0
LINE
  5
216
330
1BA
100
AcDbEntity
  8
0
  6
ByBlock
 62
     0
370
    -2
100
AcDbLine
 10
763.3887821554961
 20
133.2624408476867
 30
0.0
 11
763.4048621554958
 21
133.2562008476866
 31
0.0
  0
LINE
  5
217
330
1BA
100
AcDbEntity
  8
0
  6
ByBlock
 62
     0
370
    -2
100
AcDbLine
 10
763.4048621554958
 20
133.2562008476866
 30
0.0
 11
763.4197421554953
 21
133.2500208476866
 31
0.0
  0
LINE
  5
218
330
1BA
100
AcDbEntity
  8
0
  6
ByBlock
 62
     0
370
    -2
100
AcDbLine
 10
763.4197421554953
 20
133.2500208476866
 30
0.0
 11
763.4411621554956
 21
133.2411408476867
 31
0.0
  0
LINE
  5
219
330
1BA
100
AcDbEntity
  8
0
  6
ByBlock
 62
     0
370
    -2
100
AcDbLine
 10
763.4411621554956
 20
133.2411408476867
 30
0.0
 11
763.4630021554963
 21
133.2335208476865
 31
0.0
  0
LINE
  5
21A
330
1BA
100
AcDbEntity
  8
0
  6
ByBlock
 62
     0
370
    -2
100
AcDbLine
 10
763.4630021554963
 20
133.2335208476865
 30
0.0
 11
763.4852621554948
 21
133.2269208476868
 31
0.0
  0
LINE
  5
21B
330
1BA
100
AcDbEntity
  8
0
  6
ByBlock
 62
     0
370
    -2
100
AcDbLine
 10
763.4852621554948
 20
133.2269208476868
 30
0.0
 11
763.5078221554967
 21
133.2212808476869
 31
0.0
  0
LINE
  5
21C
330
1BA
100
AcDbEntity
  8
0
  6
ByBlock
 62
     0
370
    -2
100
AcDbLine
 10
763.5078221554967
 20
133.2212808476869
 30
0.0
 11
763.5306221554949
 21
133.2163608476868
 31
0.0
  0
LINE
  5
21D
330
1BA
100
AcDbEntity
  8
0
  6
ByBlock
 62
     0
370
    -2
100
AcDbLine
 10
763.5306221554949
 20
133.2163608476868
 30
0.0
 11
763.553602155495
 21
133.2120408476868
 31
0.0
  0
LINE
  5
21E
330
1BA
100
AcDbEntity
  8
0
  6
ByBlock
 62
     0
370
    -2
100
AcDbLine
 10
763.553602155495
 20
133.2120408476868
 30
0.0
 11
763.5767021554965
 21
133.2081408476865
 31
0.0
  0
LINE
  5
21F
330
1BA
100
AcDbEntity
  8
0
  6
ByBlock
 62
     0
370
    -2
100
AcDbLine
 10
763.5767021554965
 20
133.2081408476865
 30
0.0
 11
763.5998621554963
 21
133.2045408476869
 31
0.0
  0
LINE
  5
220
330
1BA
100
AcDbEntity
  8
0
  6
ByBlock
 62
     0
370
    -2
100
AcDbLine
 10
763.5998621554963
 20
133.2045408476869
 30
0.0
 11
763.6229621554955
 21
133.2010608476869
 31
0.0
  0
LINE
  5
221
330
1BA
100
AcDbEntity
  8
0
  6
ByBlock
 62
     0
370
    -2
100
AcDbLine
 10
763.6229621554955
 20
133.2010608476869
 30
0.0
 11
763.6459421554956
 21
133.1975208476869
 31
0.0
  0
LINE
  5
222
330
1BA
100
AcDbEntity
  8
0
  6
ByBlock
 62
     0
370
    -2
100
AcDbLine
 10
763.6459421554956
 20
133.1975208476869
 30
0.0
 11
763.7135621554967
 21
133.1876808476866
 31
0.0
  0
LINE
  5
223
330
1BA
100
AcDbEntity
  8
0
  6
ByBlock
 62
     0
370
    -2
100
AcDbLine
 10
763.7135621554967
 20
133.1876808476866
 30
0.0
 11
763.7813021554966
 21
133.1791608476868
 31
0.0
  0
LINE
  5
224
330
1BA
100
AcDbEntity
  8
0
  6
ByBlock
 62
     0
370
    -2
100
AcDbLine
 10
763.7813021554966
 20
133.1791608476868
 30
0.0
 11
763.8492221554966
 21
133.1717808476866
 31
0.0
  0
LINE
  5
225
330
1BA
100
AcDbEntity
  8
0
  6
ByBlock
 62
     0
370
    -2
100
AcDbLine
 10
763.8492221554966
 20
133.1717808476866
 30
0.0
 11
763.9172621554955
 21
133.165480847687
 31
0.0
  0
LINE
  5
226
330
1BA
100
AcDbEntity
  8
0
  6
ByBlock
 62
     0
370
    -2
100
AcDbLine
 10
763.9172621554955
 20
133.165480847687
 30
0.0
 11
763.9854221554959
 21
133.160080847687
 31
0.0
  0
LINE
  5
227
330
1BA
100
AcDbEntity
  8
0
  6
ByBlock
 62
     0
370
    -2
100
AcDbLine
 10
763.9854221554959
 20
133.160080847687
 30
0.0
 11
764.0536421554946
 21
133.1553408476867
 31
0.0
  0
LINE
  5
228
330
1BA
100
AcDbEntity
  8
0
  6
ByBlock
 62
     0
370
    -2
100
AcDbLine
 10
764.0536421554946
 20
133.1553408476867
 30
0.0
 11
764.1219221554965
 21
133.1512608476866
 31
0.0
  0
LINE
  5
229
330
1BA
100
AcDbEntity
  8
0
  6
ByBlock
 62
     0
370
    -2
100
AcDbLine
 10
764.1219221554965
 20
133.1512608476866
 30
0.0
 11
764.190202155496
 21
133.1475408476867
 31
0.0
  0
LINE
  5
22A
330
1BA
100
AcDbEntity
  8
0
  6
ByBlock
 62
     0
370
    -2
100
AcDbLine
 10
764.190202155496
 20
133.1475408476867
 30
0.0
 11
764.2584821554955
 21
133.1441808476865
 31
0.0
  0
LINE
  5
22B
330
1BA
100
AcDbEntity
  8
0
  6
ByBlock
 62
     0
370
    -2
100
AcDbLine
 10
764.2584821554955
 20
133.1441808476865
 30
0.0
 11
764.326762155495
 21
133.1409408476865
 31
0.0
  0
LINE
  5
22C
330
1BA
100
AcDbEntity
  8
0
  6
ByBlock
 62
     0
370
    -2
100
AcDbLine
 10
764.326762155495
 20
133.1409408476865
 30
0.0
 11
764.3435021554956
 21
133.1402208476867
 31
0.0
  0
LINE
  5
22D
330
1BA
100
AcDbEntity
  8
0
  6
ByBlock
 62
     0
370
    -2
100
AcDbLine
 10
764.3435021554956
 20
133.1402208476867
 30
0.0
 11
764.360242155496
 21
133.1396808476867
 31
0.0
  0
LINE
  5
22E
330
1BA
100
AcDbEntity
  8
0
  6
ByBlock
 62
     0
370
    -2
100
AcDbLine
 10
764.360242155496
 20
133.1396808476867
 30
0.0
 11
764.3770421554951
 21
133.1393208476865
 31
0.0
  0
LINE
  5
22F
330
1BA
100
AcDbEntity
  8
0
  6
ByBlock
 62
     0
370
    -2
100
AcDbLine
 10
764.3770421554951
 20
133.1393208476865
 30
0.0
 11
764.3938421554963
 21
133.1390808476865
 31
0.0
  0
LINE
  5
230
330
1BA
100
AcDbEntity
  8
0
  6
ByBlock
 62
     0
370
    -2
100
AcDbLine
 10
764.3938421554963
 20
133.1390808476865
 30
0.0
 11
764.4105821554948
 21
133.1389608476868
 31
0.0
  0
LINE
  5
231
330
1BA
100
AcDbEntity
  8
0
  6
ByBlock
 62
     0
370
    -2
100
AcDbLine
 10
764.4105821554948
 20
133.1389608476868
 30
0.0
 11
764.4273821554959
 21
133.1389008476867
 31
0.0
  0
LINE
  5
232
330
1BA
100
AcDbEntity
  8
0
  6
ByBlock
 62
     0
370
    -2
100
AcDbLine
 10
764.4273821554959
 20
133.1389008476867
 30
0.0
 11
764.4441821554949
 21
133.1389008476867
 31
0.0
  0
LINE
  5
233
330
1BA
100
AcDbEntity
  8
0
  6
ByBlock
 62
     0
370
    -2
100
AcDbLine
 10
764.4441821554949
 20
133.1389008476867
 30
0.0
 11
764.4609221554955
 21
133.1389008476867
 31
0.0
  0
LINE
  5
234
330
1BA
100
AcDbEntity
  8
0
  6
ByBlock
 62
     0
370
    -2
100
AcDbLine
 10
764.4609221554955
 20
133.1389008476867
 30
0.0
 11
764.4777221554946
 21
133.1389608476868
 31
0.0
  0
LINE
  5
235
330
1BA
100
AcDbEntity
  8
0
  6
ByBlock
 62
     0
370
    -2
100
AcDbLine
 10
764.4777221554946
 20
133.1389608476868
 30
0.0
 11
764.4945221554959
 21
133.1389608476868
 31
0.0
  0
LINE
  5
236
330
1BA
100
AcDbEntity
  8
0
  6
ByBlock
 62
     0
370
    -2
100
AcDbLine
 10
764.4945221554959
 20
133.1389608476868
 30
0.0
 11
764.5112621554965
 21
133.1389608476868
 31
0.0
  0
LINE
  5
237
330
1BA
100
AcDbEntity
  8
0
  6
ByBlock
 62
     0
370
    -2
100
AcDbLine
 10
764.5112621554965
 20
133.1389608476868
 30
0.0
 11
764.5280621554956
 21
133.1389008476867
 31
0.0
  0
LINE
  5
238
330
1BA
100
AcDbEntity
  8
0
  6
ByBlock
 62
     0
370
    -2
100
AcDbLine
 10
764.5280621554956
 20
133.1389008476867
 30
0.0
 11
764.5448621554967
 21
133.1389008476867
 31
0.0
  0
LINE
  5
239
330
1BA
100
AcDbEntity
  8
0
  6
ByBlock
 62
     0
370
    -2
100
AcDbLine
 10
764.5448621554967
 20
133.1389008476867
 30
0.0
 11
764.5616021554952
 21
133.1389008476867
 31
0.0
  0
LINE
  5
23A
330
1BA
100
AcDbEntity
  8
0
  6
ByBlock
 62
     0
370
    -2
100
AcDbLine
 10
764.5616021554952
 20
133.1389008476867
 30
0.0
 11
764.5784021554963
 21
133.1389608476868
 31
0.0
  0
LINE
  5
23B
330
1BA
100
AcDbEntity
  8
0
  6
ByBlock
 62
     0
370
    -2
100
AcDbLine
 10
764.5784021554963
 20
133.1389608476868
 30
0.0
 11
764.5952021554954
 21
133.1390808476865
 31
0.0
  0
LINE
  5
23C
330
1BA
100
AcDbEntity
  8
0
  6
ByBlock
 62
     0
370
    -2
100
AcDbLine
 10
764.5952021554954
 20
133.1390808476865
 30
0.0
 11
764.611942155496
 21
133.1393208476865
 31
0.0
  0
LINE
  5
23D
330
1BA
100
AcDbEntity
  8
0
  6
ByBlock
 62
     0
370
    -2
100
AcDbLine
 10
764.611942155496
 20
133.1393208476865
 30
0.0
 11
764.628742155495
 21
133.1396808476867
 31
0.0
  0
LINE
  5
23E
330
1BA
100
AcDbEntity
  8
0
  6
ByBlock
 62
     0
370
    -2
100
AcDbLine
 10
764.628742155495
 20
133.1396808476867
 30
0.0
 11
764.6454821554955
 21
133.1402208476867
 31
0.0
  0
LINE
  5
23F
330
1BA
100
AcDbEntity
  8
0
  6
ByBlock
 62
     0
370
    -2
100
AcDbLine
 10
764.6454821554955
 20
133.1402208476867
 30
0.0
 11
764.6622821554946
 21
133.1409408476865
 31
0.0
  0
LINE
  5
240
330
1BA
100
AcDbEntity
  8
0
  6
ByBlock
 62
     0
370
    -2
100
AcDbLine
 10
764.6622821554946
 20
133.1409408476865
 30
0.0
 11
764.7305021554956
 21
133.1441808476865
 31
0.0
  0
LINE
  5
241
330
1BA
100
AcDbEntity
  8
0
  6
ByBlock
 62
     0
370
    -2
100
AcDbLine
 10
764.7305021554956
 20
133.1441808476865
 30
0.0
 11
764.7987821554951
 21
133.1475408476867
 31
0.0
  0
LINE
  5
242
330
1BA
100
AcDbEntity
  8
0
  6
ByBlock
 62
     0
370
    -2
100
AcDbLine
 10
764.7987821554951
 20
133.1475408476867
 30
0.0
 11
764.8671221554955
 21
133.1512608476866
 31
0.0
  0
LINE
  5
243
330
1BA
100
AcDbEntity
  8
0
  6
ByBlock
 62
     0
370
    -2
100
AcDbLine
 10
764.8671221554955
 20
133.1512608476866
 30
0.0
 11
764.9353421554965
 21
133.1553408476867
 31
0.0
  0
LINE
  5
244
330
1BA
100
AcDbEntity
  8
0
  6
ByBlock
 62
     0
370
    -2
100
AcDbLine
 10
764.9353421554965
 20
133.1553408476867
 30
0.0
 11
765.0035621554952
 21
133.160080847687
 31
0.0
  0
LINE
  5
245
330
1BA
100
AcDbEntity
  8
0
  6
ByBlock
 62
     0
370
    -2
100
AcDbLine
 10
765.0035621554952
 20
133.160080847687
 30
0.0
 11
765.0717221554956
 21
133.165480847687
 31
0.0
  0
LINE
  5
246
330
1BA
100
AcDbEntity
  8
0
  6
ByBlock
 62
     0
370
    -2
100
AcDbLine
 10
765.0717221554956
 20
133.165480847687
 30
0.0
 11
765.1397621554945
 21
133.1717808476866
 31
0.0
  0
LINE
  5
247
330
1BA
100
AcDbEntity
  8
0
  6
ByBlock
 62
     0
370
    -2
100
AcDbLine
 10
765.1397621554945
 20
133.1717808476866
 30
0.0
 11
765.2076821554967
 21
133.1791608476868
 31
0.0
  0
LINE
  5
248
330
1BA
100
AcDbEntity
  8
0
  6
ByBlock
 62
     0
370
    -2
100
AcDbLine
 10
765.2076821554967
 20
133.1791608476868
 30
0.0
 11
765.2754221554968
 21
133.1876808476866
 31
0.0
  0
LINE
  5
249
330
1BA
100
AcDbEntity
  8
0
  6
ByBlock
 62
     0
370
    -2
100
AcDbLine
 10
765.2754221554968
 20
133.1876808476866
 30
0.0
 11
765.3430421554955
 21
133.1975208476869
 31
0.0
  0
LINE
  5
24A
330
1BA
100
AcDbEntity
  8
0
  6
ByBlock
 62
     0
370
    -2
100
AcDbLine
 10
765.3430421554955
 20
133.1975208476869
 30
0.0
 11
765.3660221554956
 21
133.2010608476869
 31
0.0
  0
LINE
  5
24B
330
1BA
100
AcDbEntity
  8
0
  6
ByBlock
 62
     0
370
    -2
100
AcDbLine
 10
765.3660221554956
 20
133.2010608476869
 30
0.0
 11
765.3891221554948
 21
133.2045408476869
 31
0.0
  0
LINE
  5
24C
330
1BA
100
AcDbEntity
  8
0
  6
ByBlock
 62
     0
370
    -2
100
AcDbLine
 10
765.3891221554948
 20
133.2045408476869
 30
0.0
 11
765.4122821554946
 21
133.2081408476865
 31
0.0
  0
LINE
  5
24D
330
1BA
100
AcDbEntity
  8
0
  6
ByBlock
 62
     0
370
    -2
100
AcDbLine
 10
765.4122821554946
 20
133.2081408476865
 30
0.0
 11
765.4353821554961
 21
133.2120408476868
 31
0.0
  0
LINE
  5
24E
330
1BA
100
AcDbEntity
  8
0
  6
ByBlock
 62
     0
370
    -2
100
AcDbLine
 10
765.4353821554961
 20
133.2120408476868
 30
0.0
 11
765.4583621554962
 21
133.2163608476868
 31
0.0
  0
LINE
  5
24F
330
1BA
100
AcDbEntity
  8
0
  6
ByBlock
 62
     0
370
    -2
100
AcDbLine
 10
765.4583621554962
 20
133.2163608476868
 30
0.0
 11
765.4811621554965
 21
133.2212808476869
 31
0.0
  0
LINE
  5
250
330
1BA
100
AcDbEntity
  8
0
  6
ByBlock
 62
     0
370
    -2
100
AcDbLine
 10
765.4811621554965
 20
133.2212808476869
 30
0.0
 11
765.5037221554963
 21
133.2269208476868
 31
0.0
  0
LINE
  5
251
330
1BA
100
AcDbEntity
  8
0
  6
ByBlock
 62
     0
370
    -2
100
AcDbLine
 10
765.5037221554963
 20
133.2269208476868
 30
0.0
 11
765.5259821554948
 21
133.2335208476865
 31
0.0
  0
LINE
  5
252
330
1BA
100
AcDbEntity
  8
0
  6
ByBlock
 62
     0
370
    -2
100
AcDbLine
 10
765.5259821554948
 20
133.2335208476865
 30
0.0
 11
765.5478221554955
 21
133.2411408476867
 31
0.0
  0
LINE
  5
253
330
1BA
100
AcDbEntity
  8
0
  6
ByBlock
 62
     0
370
    -2
100
AcDbLine
 10
765.5478221554955
 20
133.2411408476867
 30
0.0
 11
765.5693021554963
 21
133.2500208476866
 31
0.0
  0
LINE
  5
254
330
1BA
100
AcDbEntity
  8
0
  6
ByBlock
 62
     0
370
    -2
100
AcDbLine
 10
765.5693021554963
 20
133.2500208476866
 30
0.0
 11
765.5841221554953
 21
133.2562008476866
 31
0.0
  0
LINE
  5
255
330
1BA
100
AcDbEntity
  8
0
  6
ByBlock
 62
     0
370
    -2
100
AcDbLine
 10
765.5841221554953
 20
133.2562008476866
 30
0.0
 11
765.600202155495
 21
133.2624408476867
 31
0.0
  0
LINE
  5
256
330
1BA
100
AcDbEntity
  8
0
  6
ByBlock
 62
     0
370
    -2
100
AcDbLine
 10
765.600202155495
 20
133.2624408476867
 30
0.0
 11
765.6169421554956
 21
133.268800847687
 31
0.0
  0
LINE
  5
257
330
1BA
100
AcDbEntity
  8
0
  6
ByBlock
 62
     0
370
    -2
100
AcDbLine
 10
765.6169421554956
 20
133.268800847687
 30
0.0
 11
765.6335021554964
 21
133.2756408476866
 31
0.0
  0
LINE
  5
258
330
1BA
100
AcDbEntity
  8
0
  6
ByBlock
 62
     0
370
    -2
100
AcDbLine
 10
765.6335021554964
 20
133.2756408476866
 30
0.0
 11
765.6494021554963
 21
133.2831408476865
 31
0.0
  0
LINE
  5
259
330
1BA
100
AcDbEntity
  8
0
  6
ByBlock
 62
     0
370
    -2
100
AcDbLine
 10
765.6494021554963
 20
133.2831408476865
 30
0.0
 11
765.6638621554955
 21
133.2916008476867
 31
0.0
  0
LINE
  5
25A
330
1BA
100
AcDbEntity
  8
0
  6
ByBlock
 62
     0
370
    -2
100
AcDbLine
 10
765.6638621554955
 20
133.2916008476867
 30
0.0
 11
765.676282155496
 21
133.3011408476869
 31
0.0
  0
LINE
  5
25B
330
1BA
100
AcDbEntity
  8
0
  6
ByBlock
 62
     0
370
    -2
100
AcDbLine
 10
765.676282155496
 20
133.3011408476869
 30
0.0
 11
765.6859421554965
 21
133.3120608476866
 31
0.0
  0
LINE
  5
25C
330
1BA
100
AcDbEntity
  8
0
  6
ByBlock
 62
     0
370
    -2
100
AcDbLine
 10
765.6859421554965
 20
133.3120608476866
 30
0.0
 11
765.6922421554968
 21
133.3246008476869
 31
0.0
  0
LINE
  5
25D
330
1BA
100
AcDbEntity
  8
0
  6
ByBlock
 62
     0
370
    -2
100
AcDbLine
 10
765.6922421554968
 20
133.3246008476869
 30
0.0
 11
765.694522155496
 21
133.338940847687
 31
0.0
  0
ENDBLK
  5
1BC
330
1BA
100
AcDbEntity
  8
0
100
AcDbBlockEnd
  0
ENDSEC
  0
SECTION
  2
ENTITIES
  0
LINE
  5
D9
330
1F
100
AcDbEntity
  8
GR1_01
 62
     3
370
   100
100
AcDbLine
 10
915.8459631723163
 20
234.3603628775189
 30
0.0
 11
638.8459735971592
 21
234.3603628775189
 31
0.0
  0
LINE
  5
DA
330
1F
100
AcDbEntity
  8
GR1_01
 62
     3
370
   100
100
AcDbLine
 10
638.8459735971592
 20
234.3603628775189
 30
0.0
 11
638.8459583230394
 21
44.36036287751898
 31
0.0
  0
LINE
  5
DB
330
1F
100
AcDbEntity
  8
GR1_01
 62
     3
370
   100
100
AcDbLine
 10
638.8459583230394
 20
44.36036287751898
 30
0.0
 11
915.8459578017973
 21
44.36036287751894
 31
0.0
  0
LINE
  5
DC
330
1F
100
AcDbEntity
  8
GR1_01
 62
     3
370
   100
100
AcDbLine
 10
915.8459578017973
 20
44.36036287751894
 30
0.0
 11
915.8459631723163
 21
234.3603628775189
 31
0.0
  0
LINE
  5
DD
330
1F
100
AcDbEntity
  8
GR1_01
 62
     3
370
   100
100
AcDbLine
 10
914.8459631440505
 20
233.3603628775189
 30
0.0
 11
639.8459735167693
 21
233.3603628775189
 31
0.0
  0
LINE
  5
DE
330
1F
100
AcDbEntity
  8
GR1_01
 62
     3
370
   100
100
AcDbLine
 10
639.8459735167693
 20
233.3603628775189
 30
0.0
 11
639.8459584034297
 21
45.36036287751898
 31
0.0
  0
LINE
  5
DF
330
1F
100
AcDbEntity
  8
GR1_01
 62
     3
370
   100
100
AcDbLine
 10
639.8459584034297
 20
45.36036287751898
 30
0.0
 11
914.845957830063
 21
45.36036287751894
 31
0.0
  0
LINE
  5
E0
330
1F
100
AcDbEntity
  8
GR1_01
 62
     3
370
   100
100
AcDbLine
 10
914.845957830063
 20
45.36036287751894
 30
0.0
 11
914.8459631440505
 21
233.3603628775189
 31
0.0
  0
LINE
  5
E1
330
1F
100
AcDbEntity
  8
GR1_01
 62
     4
370
    50
100
AcDbLine
 10
836.7932121129081
 20
66.86116845022477
 30
0.0
 11
911.7932365269706
 21
66.86116845022477
 31
0.0
  0
LINE
  5
E2
330
1F
100
AcDbEntity
  8
GR1_01
 62
     4
370
    50
100
AcDbLine
 10
911.7932365269706
 20
60.86116845022476
 30
0.0
 11
836.7932121129081
 21
60.86116845022476
 31
0.0
  0
LINE
  5
E3
330
1F
100
AcDbEntity
  8
GR1_01
 62
     4
370
    50
100
AcDbLine
 10
836.7932121129081
 20
54.86117150198258
 30
0.0
 11
911.7932365269706
 21
54.86117150198258
 31
0.0
  0
LINE
  5
E4
330
1F
100
AcDbEntity
  8
GR1_01
 62
     4
370
    50
100
AcDbLine
 10
836.7932121129081
 20
48.86116997610367
 30
0.0
 11
836.7932121129081
 21
66.86116845022477
 31
0.0
  0
LINE
  5
E5
330
1F
100
AcDbEntity
  8
GR1_01
 62
     4
370
    50
100
AcDbLine
 10
851.7932121129081
 20
66.86116845022477
 30
0.0
 11
851.7932121129081
 21
54.86117150198258
 31
0.0
  0
LINE
  5
E6
330
1F
100
AcDbEntity
  8
GR1_01
 62
     4
370
    50
100
AcDbLine
 10
874.2932243199393
 20
54.86117150198258
 30
0.0
 11
874.2932243199393
 21
60.86116845022476
 31
0.0
  0
TEXT
  5
E8
330
1F
100
AcDbEntity
  8
GR1_01
 62
     7
100
AcDbText
 10
841.74328125
 20
62.35684984611742
 30
0.0
 40
2.651515151515151
  1
図名
 41
0.7397802059467022
  7
ＭＳ ゴシック
 11
841.74328125
 21
63.682607421875
 31
0.0
100
AcDbText
 73
     2
  0
TEXT
  5
E9
330
1F
100
AcDbEntity
  8
GR1_01
 62
     7
100
AcDbText
 10
841.74328125
 20
56.32530199455492
 30
0.0
 40
2.651515151515151
  1
尺度
 41
0.7397802059467022
  7
ＭＳ ゴシック
 11
841.74328125
 21
57.6510595703125
 31
0.0
100
AcDbText
 73
     2
  0
TEXT
  5
EA
330
1F
100
AcDbEntity
  8
GR1_01
 62
     7
100
AcDbText
 10
876.44328125
 20
56.32530199455492
 30
0.0
 40
2.651515151515151
  1
参考重量
 41
0.7760439422104385
  7
ＭＳ ゴシック
 11
876.44328125
 21
57.6510595703125
 31
0.0
100
AcDbText
 73
     2
  0
TEXT
  5
EB
330
1F
100
AcDbEntity
  8
GR1_01
 62
     7
100
AcDbText
 10
854.94328125
 20
50.29374926017992
 30
0.0
 40
2.651515151515151
  1
小倉セメント製品工業株式会社
 41
0.8019466109702503
  7
ＭＳ ゴシック
 11
854.94328125
 21
51.6195068359375
 31
0.0
100
AcDbText
 73
     2
  0
LINE
  5
EC
330
1F
100
AcDbEntity
  8
GR1_01
 62
     4
370
    50
100
AcDbLine
 10
889.2932731480644
 20
60.86116845022476
 30
0.0
 11
889.2932731480644
 21
54.86117150198258
 31
0.0
  0
TEXT
  5
ED
330
1F
100
AcDbEntity
  8
GR1_01
 62
     7
100
AcDbText
 10
858.44328125
 20
56.48831468986742
 30
0.0
 40
2.651515151515151
  1
１／５０
 41
0.6672527334192297
  7
ＭＳ ゴシック
 11
858.44328125
 21
57.814072265625
 31
0.0
100
AcDbText
 73
     2
  0
TEXT
  5
EE
330
1F
100
AcDbEntity
  8
GR1_01
 62
     7
100
AcDbText
 10
892.451875
 20
56.32530199455492
 30
0.0
 40
2.651515151515151
  1
６５９０　ｋｇ
 41
0.6672527334192297
  7
ＭＳ ゴシック
 11
892.451875
 21
57.6510595703125
 31
0.0
100
AcDbText
 73
     2
  0
TEXT
  5
EF
330
1F
100
AcDbEntity
  8
GR1_01
 62
     7
100
AcDbText
 10
860.2253125
 20
62.28311449455492
 30
0.0
 40
2.651515151515151
  1
プレキャストウォール　Ｈ＝４０００
 41
0.6672527334192299
  7
ＭＳ ゴシック
 11
860.2253125
 21
63.6088720703125
 31
0.0
100
AcDbText
 73
     2
  0
LINE
  5
F0
330
1F
100
AcDbEntity
  8
GR1_01
 62
     4
370
    50
100
AcDbLine
 10
911.7932365269706
 20
66.86116845022477
 30
0.0
 11
911.7932365269706
 21
48.86116997610367
 31
0.0
  0
LINE
  5
F1
330
1F
100
AcDbEntity
  8
GR1_01
 62
     4
370
    50
100
AcDbLine
 10
836.7932121129081
 20
48.86116997610367
 30
0.0
 11
911.7932365269706
 21
48.86116997610367
 31
0.0
  0
LINE
  5
F2
330
1F
100
AcDbEntity
  8
GR1_01
 62
     4
100
AcDbLine
 10
794.584482155496
 20
116.0579730040079
 30
0.0
 11
794.584482155496
 21
66.1779930040092
 31
0.0
  0
LINE
  5
F3
330
1F
100
AcDbEntity
  8
GR1_01
 62
     4
100
AcDbLine
 10
794.584482155496
 20
66.1779930040092
 30
0.0
 11
756.584482155496
 21
66.1779930040092
 31
0.0
  0
LINE
  5
F4
330
1F
100
AcDbEntity
  8
GR1_01
 62
     4
100
AcDbLine
 10
754.7045021554958
 20
116.1779730040082
 30
0.0
 11
794.4644821554955
 21
116.1779730040082
 31
0.0
  0
LINE
  5
F5
330
1F
100
AcDbEntity
  8
GR1_01
 62
     4
100
AcDbLine
 10
719.12377764532
 20
131.9472408476867
 30
0.0
 11
719.12377764532
 21
129.3472008476869
 31
0.0
  0
LINE
  5
F6
330
1F
100
AcDbEntity
  8
GR1_01
 62
     4
100
AcDbLine
 10
719.12377764532
 20
129.3472008476869
 30
0.0
 11
669.2437976453214
 21
129.3472008476869
 31
0.0
  0
LINE
  5
F7
330
1F
100
AcDbEntity
  8
GR1_01
 62
     4
100
AcDbLine
 10
669.123797645321
 20
129.4672008476868
 30
0.0
 11
669.123797645321
 21
209.2272408476868
 31
0.0
  0
LINE
  5
F8
330
1F
100
AcDbEntity
  8
GR1_01
 62
     4
100
AcDbLine
 10
754.6145021554953
 20
209.3472408476866
 30
0.0
 11
794.3745221554954
 21
209.3472408476866
 31
0.0
  0
LINE
  5
F9
330
1F
100
AcDbEntity
  8
GR1_01
 62
     4
100
AcDbLine
 10
794.4945221554959
 20
209.2272408476867
 30
0.0
 11
794.4945221554959
 21
129.3472008476869
 31
0.0
  0
LINE
  5
FA
330
1F
100
AcDbEntity
  8
GR1_01
 62
     4
100
AcDbLine
 10
794.4945221554959
 20
129.3472008476869
 30
0.0
 11
754.5845021554959
 21
129.3472008476869
 31
0.0
  0
LINE
  5
FB
330
1F
100
AcDbEntity
  8
GR1_01
 62
     4
100
AcDbLine
 10
754.494502155495
 20
167.2572408476869
 30
0.0
 11
754.494502155495
 21
171.2572008476866
 31
0.0
  0
LINE
  5
FC
330
1F
100
AcDbEntity
  8
GR1_01
 62
     4
100
AcDbLine
 10
754.5845021554959
 20
113.5779930040092
 30
0.0
 11
794.584482155496
 21
113.5779930040092
 31
0.0
  0
LINE
  5
FD
330
1F
100
AcDbEntity
  8
GR1_01
 62
     4
100
AcDbLine
 10
754.7243621554961
 20
110.1779730040082
 30
0.0
 11
794.584482155496
 21
110.1779730040082
 31
0.0
  0
LINE
  5
FE
330
1F
100
AcDbEntity
  8
GR1_01
 62
     4
100
AcDbLine
 10
754.9357421554959
 20
105.1779930040092
 30
0.0
 11
794.584482155496
 21
105.1779930040092
 31
0.0
  0
LINE
  5
FF
330
1F
100
AcDbEntity
  8
GR1_01
 62
     4
100
AcDbLine
 10
794.584482155496
 20
70.17801300400811
 30
0.0
 11
756.4154021554962
 21
70.17801300400811
 31
0.0
  0
LINE
  5
100
330
1F
100
AcDbEntity
  8
GR1_01
 62
     4
100
AcDbLine
 10
669.2437976453214
 20
209.3472408476866
 30
0.0
 11
671.6037776453219
 21
209.3472408476866
 31
0.0
  0
LINE
  5
101
330
1F
100
AcDbEntity
  8
GR1_01
 62
     4
100
AcDbLine
 10
671.7237776453201
 20
209.2272408476868
 30
0.0
 11
671.7237776453201
 21
189.3472008476869
 31
0.0
  0
LINE
  5
102
330
1F
100
AcDbEntity
  8
GR1_01
 62
     4
100
AcDbLine
 10
671.7237776453201
 20
189.3472008476869
 30
0.0
 11
675.1237976453211
 21
140.3472408476865
 31
0.0
  0
LINE
  5
103
330
1F
100
AcDbEntity
  8
GR1_01
 62
     4
100
AcDbLine
 10
675.123797645321
 20
140.3472408476867
 30
0.0
 11
680.12377764532
 21
135.3472008476869
 31
0.0
  0
LINE
  5
104
330
1F
100
AcDbEntity
  8
GR1_01
 62
     4
100
AcDbLine
 10
680.12377764532
 20
135.3472008476869
 30
0.0
 11
715.1237576453212
 21
131.9472408476867
 31
0.0
  0
LINE
  5
105
330
1F
100
AcDbEntity
  8
GR1_01
 62
     4
100
AcDbLine
 10
715.1237576453212
 20
131.9472408476867
 30
0.0
 11
719.12377764532
 21
131.9472408476867
 31
0.0
  0
LINE
  5
106
330
1F
100
AcDbEntity
  8
GR1_01
 62
     4
100
AcDbLine
 10
754.5845021554959
 20
129.3472008476869
 30
0.0
 11
754.5845021554959
 21
147.2572008476866
 31
0.0
  0
LINE
  5
107
330
1F
100
AcDbEntity
  8
GR1_01
 62
     4
100
AcDbLine
 10
754.5845021554959
 20
171.3472008476869
 30
0.0
 11
754.5845021554959
 21
181.2572208476865
 31
0.0
  0
LINE
  5
108
330
1F
100
AcDbEntity
  8
GR1_01
 62
     4
100
AcDbLine
 10
754.494502155495
 20
181.3472208476868
 30
0.0
 11
754.494502155495
 21
209.2272408476868
 31
0.0
  0
LINE
  5
109
330
1F
100
AcDbEntity
  8
GR1_01
 62
     4
100
AcDbLine
 10
754.494502155495
 20
181.3472208476868
 30
0.0
 11
754.5845021554959
 21
181.2572208476865
 31
0.0
  0
LINE
  5
10A
330
1F
100
AcDbEntity
  8
GR1_01
 62
     4
100
AcDbLine
 10
754.494502155495
 20
171.2572008476866
 30
0.0
 11
754.5845021554959
 21
171.3472008476869
 31
0.0
  0
LINE
  5
10B
330
1F
100
AcDbEntity
  8
GR1_01
 62
     4
100
AcDbLine
 10
754.494502155495
 20
167.2572408476869
 30
0.0
 11
754.5845021554959
 21
167.1672408476865
 31
0.0
  0
LINE
  5
10C
330
1F
100
AcDbEntity
  8
GR1_01
 62
     4
100
AcDbLine
 10
794.4945221554959
 20
131.9472408476867
 30
0.0
 11
756.4944821554961
 21
131.9472408476867
 31
0.0
  0
LINE
  5
10D
330
1F
100
AcDbEntity
  8
GR1_01
 62
     4
100
AcDbLine
 10
794.4945221554959
 20
135.3472008476869
 30
0.0
 11
754.8024821554963
 21
135.3472008476869
 31
0.0
  0
LINE
  5
10E
330
1F
100
AcDbEntity
  8
GR1_01
 62
     4
100
AcDbLine
 10
794.4945221554959
 20
140.3472408476867
 30
0.0
 11
754.5845021554959
 21
140.3472408476867
 31
0.0
  0
LINE
  5
10F
330
1F
100
AcDbEntity
  8
GR1_01
 62
     4
100
AcDbLine
 10
754.5845021554959
 20
140.3472408476867
 30
0.0
 11
754.8024821554963
 21
135.3472008476869
 31
0.0
  0
LINE
  5
110
330
1F
100
AcDbEntity
  8
GR1_01
 62
     4
100
AcDbLine
 10
754.8024821554963
 20
135.3472008476869
 30
0.0
 11
756.4944821554961
 21
131.9472408476867
 31
0.0
  0
LINE
  5
111
330
1F
100
AcDbEntity
  8
GR1_01
 62
     4
100
AcDbLine
 10
756.4944821554961
 20
131.9472408476867
 30
0.0
 11
756.4944821554961
 21
129.3472008476869
 31
0.0
  0
CIRCLE
  5
112
330
1F
100
AcDbEntity
  8
GR1_01
 62
     7
100
AcDbCircle
 10
784.494502155495
 20
169.3472208476868
 30
0.0
 40
0.75
  0
CIRCLE
  5
113
330
1F
100
AcDbEntity
  8
GR1_01
 62
     7
100
AcDbCircle
 10
764.4945221554959
 20
169.3472208476868
 30
0.0
 40
0.75
  0
CIRCLE
  5
114
330
1F
100
AcDbEntity
  8
GR1_01
 62
     7
100
AcDbCircle
 10
764.4945221554959
 20
149.3472408476867
 30
0.0
 40
0.75
  0
CIRCLE
  5
115
330
1F
100
AcDbEntity
  8
GR1_01
 62
     7
100
AcDbCircle
 10
784.494502155495
 20
149.3472408476867
 30
0.0
 40
0.75
  0
INSERT
  5
119
330
1F
100
AcDbEntity
  8
GR1_01
 62
     7
100
AcDbBlockReference
  2
BLKF023
 10
0.0
 20
0.0
 30
0.0
  0
INSERT
  5
1BD
330
1F
100
AcDbEntity
  8
GR1_01
 62
     7
100
AcDbBlockReference
  2
BLKF024
 10
0.0
 20
0.0
 30
0.0
  0
LINE
  5
25E
330
1F
100
AcDbEntity
  8
GR1_01
 62
     7
100
AcDbLine
 10
672.5626976453198
 20
177.2572008476866
 30
0.0
 11
669.123797645321
 21
177.2572008476866
 31
0.0
  0
LINE
  5
25F
330
1F
100
AcDbEntity
  8
GR1_01
 62
     7
100
AcDbLine
 10
672.5563976453217
 20
177.3472008476869
 30
0.0
 11
669.123797645321
 21
177.3472008476869
 31
0.0
  0
LINE
  5
260
330
1F
100
AcDbEntity
  8
GR1_01
 62
     7
100
AcDbLine
 10
673.6603976453197
 20
161.437240847687
 30
0.0
 11
669.123797645321
 21
161.437240847687
 31
0.0
  0
LINE
  5
261
330
1F
100
AcDbEntity
  8
GR1_01
 62
     7
100
AcDbLine
 10
669.123797645321
 20
161.3472408476867
 30
0.0
 11
673.6666376453214
 21
161.3472408476867
 31
0.0
  0
LINE
  5
262
330
1F
100
AcDbEntity
  8
GR1_01
 62
     7
100
AcDbLine
 10
673.9504376453203
 20
157.2572208476865
 30
0.0
 11
669.123797645321
 21
157.2572208476865
 31
0.0
  0
LINE
  5
263
330
1F
100
AcDbEntity
  8
GR1_01
 62
     7
100
AcDbLine
 10
669.123797645321
 20
157.3472208476868
 30
0.0
 11
673.9441976453209
 21
157.3472208476868
 31
0.0
  0
LINE
  5
264
330
1F
100
AcDbEntity
  8
GR1_01
 62
     4
100
AcDbLine
 10
754.5845021554959
 20
111.3575730040084
 30
0.0
 11
754.6745021554962
 21
111.3575730040084
 31
0.0
  0
LINE
  5
265
330
1F
100
AcDbEntity
  8
GR1_01
 62
     4
100
AcDbLine
 10
756.584482155496
 20
66.1779930040092
 30
0.0
 11
754.6745021554962
 21
111.3575730040084
 31
0.0
  0
LINE
  5
266
330
1F
100
AcDbEntity
  8
GR1_01
 62
     4
100
AcDbLine
 10
754.5845021554959
 20
111.3575730040084
 30
0.0
 11
754.5845021554959
 21
116.0579730040079
 31
0.0
  0
LINE
  5
267
330
1F
100
AcDbEntity
  8
GR1_01
 62
     7
100
AcDbLine
 10
754.5845021554959
 20
116.0579730040079
 30
0.0
 11
794.584482155496
 21
116.0579730040079
 31
0.0
  0
LINE
  5
268
330
1F
100
AcDbEntity
  8
GR1_01
 62
     4
100
AcDbLine
 10
794.584482155496
 20
116.0579730040079
 30
0.0
 11
794.4644821554955
 21
116.1779730040082
 31
0.0
  0
LINE
  5
269
330
1F
100
AcDbEntity
  8
GR1_01
 62
     4
100
AcDbLine
 10
754.7045021554958
 20
116.1779730040082
 30
0.0
 11
754.5845021554959
 21
116.0579730040079
 31
0.0
  0
LINE
  5
26A
330
1F
100
AcDbEntity
  8
GR1_01
 62
     7
100
AcDbLine
 10
669.2437976453214
 20
129.3472008476869
 30
0.0
 11
669.2437976453214
 21
209.3472408476866
 31
0.0
  0
LINE
  5
26B
330
1F
100
AcDbEntity
  8
GR1_01
 62
     4
100
AcDbLine
 10
669.123797645321
 20
209.2272408476868
 30
0.0
 11
669.2437976453214
 21
209.3472408476866
 31
0.0
  0
LINE
  5
26C
330
1F
100
AcDbEntity
  8
GR1_01
 62
     4
100
AcDbLine
 10
669.2437976453214
 20
129.3472008476869
 30
0.0
 11
669.123797645321
 21
129.4672008476868
 31
0.0
  0
LINE
  5
26D
330
1F
100
AcDbEntity
  8
GR1_01
 62
     4
100
AcDbLine
 10
671.6037776453219
 20
209.3472408476866
 30
0.0
 11
671.7237776453201
 21
209.2272408476868
 31
0.0
  0
LINE
  5
26E
330
1F
100
AcDbEntity
  8
GR1_01
 62
     7
100
AcDbLine
 10
671.7237776453201
 20
209.2272408476868
 30
0.0
 11
669.123797645321
 21
209.2272408476868
 31
0.0
  0
LINE
  5
26F
330
1F
100
AcDbEntity
  8
GR1_01
 62
     7
100
AcDbLine
 10
794.4644821554955
 20
116.1779730040082
 30
0.0
 11
794.4644821554955
 21
113.6979930040074
 31
0.0
  0
LINE
  5
270
330
1F
100
AcDbEntity
  8
GR1_01
 62
     7
100
AcDbLine
 10
754.7045021554958
 20
113.6979930040074
 30
0.0
 11
754.7045021554958
 21
116.0579730040079
 31
0.0
  0
LINE
  5
271
330
1F
100
AcDbEntity
  8
GR1_01
 62
     7
100
AcDbLine
 10
754.7045021554958
 20
113.6979930040074
 30
0.0
 11
794.4644821554955
 21
113.6979930040074
 31
0.0
  0
LINE
  5
272
330
1F
100
AcDbEntity
  8
GR1_01
 62
     7
100
AcDbLine
 10
794.4644821554955
 20
113.6979930040074
 30
0.0
 11
794.584482155496
 21
113.5779930040092
 31
0.0
  0
LINE
  5
273
330
1F
100
AcDbEntity
  8
GR1_01
 62
     7
100
AcDbLine
 10
754.7045021554958
 20
113.6979930040074
 30
0.0
 11
754.5845021554959
 21
113.5779930040092
 31
0.0
  0
LINE
  5
274
330
1F
100
AcDbEntity
  8
GR1_01
 62
     4
100
AcDbLine
 10
754.494502155495
 20
209.2272408476868
 30
0.0
 11
754.6145021554953
 21
209.3472408476866
 31
0.0
  0
LINE
  5
275
330
1F
100
AcDbEntity
  8
GR1_01
 62
     4
100
AcDbLine
 10
794.3745221554954
 20
209.3472408476866
 30
0.0
 11
794.4945221554959
 21
209.2272408476868
 31
0.0
  0
LINE
  5
276
330
1F
100
AcDbEntity
  8
GR1_01
 62
     7
100
AcDbLine
 10
754.494502155495
 20
209.2272408476868
 30
0.0
 11
794.4945221554959
 21
209.2272408476868
 31
0.0
  0
LINE
  5
277
330
1F
100
AcDbEntity
  8
GR1_01
 62
     4
100
AcDbLine
 10
754.494502155495
 20
189.3472008476869
 30
0.0
 11
794.4945221554959
 21
189.3472008476869
 31
0.0
  0
LINE
  5
279
330
1F
100
AcDbEntity
  8
GR1_01
  6
020-1-TENSEN1
 62
     7
100
AcDbLine
 10
669.123797645321
 20
170.1472008476869
 30
0.0
 11
673.0594976453206
 21
170.0972208476868
 31
0.0
  0
LINE
  5
27A
330
1F
100
AcDbEntity
  8
GR1_01
  6
020-1-TENSEN1
 62
     7
100
AcDbLine
 10
669.123797645321
 20
168.5472408476867
 30
0.0
 11
673.1635976453211
 21
168.5972208476868
 31
0.0
  0
LINE
  5
27B
330
1F
100
AcDbEntity
  8
GR1_01
  6
020-1-TENSEN1
 62
     7
100
AcDbLine
 10
669.123797645321
 20
150.1472208476868
 30
0.0
 11
674.4472376453211
 21
150.0972408476867
 31
0.0
  0
LINE
  5
27C
330
1F
100
AcDbEntity
  8
GR1_01
  6
020-1-TENSEN1
 62
     7
100
AcDbLine
 10
669.123797645321
 20
148.547200847687
 30
0.0
 11
674.5513376453215
 21
148.5972408476867
 31
0.0
  0
CIRCLE
  5
27D
330
1F
100
AcDbEntity
  8
GR1_01
 62
     7
100
AcDbCircle
 10
784.494502155495
 20
185.3472408476867
 30
0.0
 40
0.19998
  0
CIRCLE
  5
27E
330
1F
100
AcDbEntity
  8
GR1_01
 62
     7
100
AcDbCircle
 10
764.4945221554959
 20
185.3472408476867
 30
0.0
 40
0.19998
  0
CIRCLE
  5
27F
330
1F
100
AcDbEntity
  8
GR1_01
 62
     7
100
AcDbCircle
 10
784.494502155495
 20
185.3472408476867
 30
0.0
 40
1.27998
  0
CIRCLE
  5
280
330
1F
100
AcDbEntity
  8
GR1_01
 62
     7
100
AcDbCircle
 10
764.4945221554959
 20
185.3472408476867
 30
0.0
 40
1.27998
  0
LINE
  5
281
330
1F
100
AcDbEntity
  8
GR1_01
 62
     4
100
AcDbLine
 10
754.494502155495
 20
147.3472008476869
 30
0.0
 11
754.5845021554959
 21
147.2572008476866
 31
0.0
  0
LINE
  5
282
330
1F
100
AcDbEntity
  8
GR1_01
 62
     4
100
AcDbLine
 10
754.494502155495
 20
147.3472008476869
 30
0.0
 11
754.494502155495
 21
151.3472208476868
 31
0.0
  0
LINE
  5
283
330
1F
100
AcDbEntity
  8
GR1_01
 62
     4
100
AcDbLine
 10
754.494502155495
 20
151.3472208476868
 30
0.0
 11
754.5845021554959
 21
151.4372208476866
 31
0.0
  0
LINE
  5
284
330
1F
100
AcDbEntity
  8
GR1_01
 62
     4
100
AcDbLine
 10
754.5845021554959
 20
151.4372208476866
 30
0.0
 11
754.5845021554959
 21
167.1672408476865
 31
0.0
  0
TEXT
  5
285
330
1F
100
AcDbEntity
  8
GR1_01
 62
     7
100
AcDbText
 10
746.6845313215256
 20
57.1780078125
 30
0.0
 40
3.5
  1
１００
 41
0.8117646890528062
  7
FX_VECTOR
 72
     5
 11
753.5845311784744
 21
57.1780078125
 31
0.0
100
AcDbText
  0
LINE
  5
286
330
1F
100
AcDbEntity
  8
GR1_01
 62
     7
100
AcDbLine
 10
754.5845021554958
 20
56.1779930040092
 30
0.0
 11
756.584482155496
 21
56.1779930040092
 31
0.0
  0
LINE
  5
287
330
1F
100
AcDbEntity
  8
GR1_01
 62
     7
100
AcDbLine
 10
754.5845021554958
 20
109.3575730040084
 30
0.0
 11
754.5845021554958
 21
55.1779930040092
 31
0.0
  0
LINE
  5
288
330
1F
100
AcDbEntity
  8
GR1_01
 62
     7
100
AcDbLine
 10
756.584482155496
 20
64.1779930040092
 30
0.0
 11
756.5844821554958
 21
55.17799300400919
 31
0.0
  0
LINE
  5
289
330
1F
100
AcDbEntity
  8
GR1_01
 62
     7
100
AcDbLine
 10
745.6845021554957
 20
56.1779930040092
 30
0.0
 11
754.5845021554958
 21
56.1779930040092
 31
0.0
  0
INSERT
  5
28A
330
1F
100
AcDbEntity
  8
GR1_01
 62
     7
100
AcDbBlockReference
  2
FXTIP_ARROW_E
 10
754.5845021554958
 20
56.1779930040092
 30
0.0
 41
2.0
 42
2.0
 50
360.0
  0
TEXT
  5
28B
330
1F
100
AcDbEntity
  8
GR1_01
 62
     7
100
AcDbText
 10
770.9845313453675
 20
57.1780078125
 30
0.0
 40
3.5
  1
１９００
 41
0.7999999834143597
  7
FX_VECTOR
 72
     5
 11
780.1845311546326
 21
57.1780078125
 31
0.0
100
AcDbText
  0
LINE
  5
28C
330
1F
100
AcDbEntity
  8
GR1_01
 62
     7
100
AcDbLine
 10
756.584482155496
 20
56.1779930040092
 30
0.0
 11
794.584482155496
 21
56.1779930040092
 31
0.0
  0
INSERT
  5
28D
330
1F
100
AcDbEntity
  8
GR1_01
 62
     7
100
AcDbBlockReference
  2
FXTIP_ARROW_S
 10
756.584482155496
 20
56.1779930040092
 30
0.0
 41
2.0
 42
2.0
 50
180.0
  0
INSERT
  5
28E
330
1F
100
AcDbEntity
  8
GR1_01
 62
     7
100
AcDbBlockReference
  2
FXTIP_ARROW_E
 10
794.584482155496
 20
56.1779930040092
 30
0.0
 41
2.0
 42
2.0
 50
360.0
  0
LINE
  5
28F
330
1F
100
AcDbEntity
  8
GR1_01
 62
     7
100
AcDbLine
 10
794.584482155496
 20
64.1779930040092
 30
0.0
 11
794.584482155496
 21
55.1779930040092
 31
0.0
  0
TEXT
  5
290
330
1F
100
AcDbEntity
  8
GR1_01
 62
     7
100
AcDbText
 10
803.584453125
 20
86.57795907974243
 30
0.0
 40
3.5
  1
２５００
 50
90.0
 41
0.7999999834143597
  7
FX_VECTOR
 72
     5
 11
803.584453125
 21
95.77795888900756
 31
0.0
100
AcDbText
  0
LINE
  5
291
330
1F
100
AcDbEntity
  8
GR1_01
 62
     7
100
AcDbLine
 10
804.584482155496
 20
66.17799300400941
 30
0.0
 11
804.584482155496
 21
116.1779730040085
 31
0.0
  0
INSERT
  5
292
330
1F
100
AcDbEntity
  8
GR1_01
 62
     7
100
AcDbBlockReference
  2
FXTIP_ARROW_S
 10
804.584482155496
 20
66.17799300400941
 30
0.0
 41
2.0
 42
2.0
 50
270.0
  0
INSERT
  5
293
330
1F
100
AcDbEntity
  8
GR1_01
 62
     7
100
AcDbBlockReference
  2
FXTIP_ARROW_E
 10
804.584482155496
 20
116.1779730040085
 30
0.0
 41
2.0
 42
2.0
 50
90.0
  0
LINE
  5
294
330
1F
100
AcDbEntity
  8
GR1_01
 62
     7
100
AcDbLine
 10
796.4644821554955
 20
116.1779730040084
 30
0.0
 11
805.584482155496
 21
116.1779730040084
 31
0.0
  0
LINE
  5
295
330
1F
100
AcDbEntity
  8
GR1_01
 62
     7
100
AcDbLine
 10
796.584482155496
 20
66.17799300400924
 30
0.0
 11
805.584482155496
 21
66.17799300400944
 31
0.0
  0
CIRCLE
  5
296
330
1F
100
AcDbEntity
  8
GR1_01
 62
     4
370
    50
100
AcDbCircle
 10
792.4945221554959
 20
179.3472008476869
 30
0.0
 40
0.16
  0
CIRCLE
  5
297
330
1F
100
AcDbEntity
  8
GR1_01
 62
     4
370
    50
100
AcDbCircle
 10
792.4945221554959
 20
159.3472008476869
 30
0.0
 40
0.16
  0
CIRCLE
  5
298
330
1F
100
AcDbEntity
  8
GR1_01
 62
     4
370
    50
100
AcDbCircle
 10
756.494502155495
 20
179.3472008476869
 30
0.0
 40
0.16
  0
CIRCLE
  5
299
330
1F
100
AcDbEntity
  8
GR1_01
 62
     4
370
    50
100
AcDbCircle
 10
756.494502155495
 20
159.3472008476869
 30
0.0
 40
0.16
  0
TEXT
  5
29A
330
1F
100
AcDbEntity
  8
GR1_01
 62
     7
100
AcDbText
 10
672.7237500715256
 20
220.3472265625
 30
0.0
 40
3.5
  1
１３０
 41
0.8117646890528062
  7
FX_VECTOR
 72
     5
 11
679.6237499284745
 21
220.3472265625
 31
0.0
100
AcDbText
  0
LINE
  5
29B
330
1F
100
AcDbEntity
  8
GR1_01
 62
     7
100
AcDbLine
 10
669.123797645321
 20
219.3472408476866
 30
0.0
 11
671.7237776453202
 21
219.3472408476866
 31
0.0
  0
LINE
  5
29C
330
1F
100
AcDbEntity
  8
GR1_01
 62
     7
100
AcDbLine
 10
669.123797645321
 20
211.2272408476868
 30
0.0
 11
669.123797645321
 21
220.3472408476866
 31
0.0
  0
LINE
  5
29D
330
1F
100
AcDbEntity
  8
GR1_01
 62
     7
100
AcDbLine
 10
671.7237776453202
 20
211.2272408476868
 30
0.0
 11
671.7237776453202
 21
220.3472408476866
 31
0.0
  0
LINE
  5
29E
330
1F
100
AcDbEntity
  8
GR1_01
 62
     7
100
AcDbLine
 10
663.123797645321
 20
219.3472408476866
 30
0.0
 11
669.123797645321
 21
219.3472408476866
 31
0.0
  0
INSERT
  5
29F
330
1F
100
AcDbEntity
  8
GR1_01
 62
     7
100
AcDbBlockReference
  2
FXTIP_ARROW_E
 10
669.123797645321
 20
219.3472408476866
 30
0.0
 41
2.0
 42
2.0
 50
360.0
  0
LINE
  5
2A0
330
1F
100
AcDbEntity
  8
GR1_01
 62
     7
100
AcDbLine
 10
671.7237776453202
 20
219.3472408476866
 30
0.0
 11
680.6237776453203
 21
219.3472408476866
 31
0.0
  0
INSERT
  5
2A1
330
1F
100
AcDbEntity
  8
GR1_01
 62
     7
100
AcDbBlockReference
  2
FXTIP_ARROW_S
 10
671.7237776453202
 20
219.3472408476866
 30
0.0
 41
2.0
 42
2.0
 50
180.0
  0
TEXT
  5
2A2
330
1F
100
AcDbEntity
  8
GR1_01
 62
     7
100
AcDbText
 10
803.49453125
 20
164.7472266578674
 30
0.0
 40
3.5
  1
４０００
 50
90.0
 41
0.7999999834143597
  7
FX_VECTOR
 72
     5
 11
803.49453125
 21
173.9472264671326
 31
0.0
100
AcDbText
  0
LINE
  5
2A3
330
1F
100
AcDbEntity
  8
GR1_01
 62
     7
100
AcDbLine
 10
804.4945221554962
 20
129.347200847687
 30
0.0
 11
804.4945221554962
 21
209.3472408476866
 31
0.0
  0
INSERT
  5
2A4
330
1F
100
AcDbEntity
  8
GR1_01
 62
     7
100
AcDbBlockReference
  2
FXTIP_ARROW_S
 10
804.4945221554962
 20
129.347200847687
 30
0.0
 41
2.0
 42
2.0
 50
270.0
  0
INSERT
  5
2A5
330
1F
100
AcDbEntity
  8
GR1_01
 62
     7
100
AcDbBlockReference
  2
FXTIP_ARROW_E
 10
804.4945221554962
 20
209.3472408476866
 30
0.0
 41
2.0
 42
2.0
 50
90.0
  0
LINE
  5
2A6
330
1F
100
AcDbEntity
  8
GR1_01
 62
     7
100
AcDbLine
 10
796.4945221554962
 20
129.347200847687
 30
0.0
 11
805.4945221554962
 21
129.347200847687
 31
0.0
  0
LINE
  5
2A7
330
1F
100
AcDbEntity
  8
GR1_01
 62
     7
100
AcDbLine
 10
796.3745221554952
 20
209.3472408476866
 30
0.0
 11
805.4945221554962
 21
209.3472408476867
 31
0.0
  0
TEXT
  5
2A8
330
1F
100
AcDbEntity
  8
GR1_01
 62
     7
100
AcDbText
 10
658.24375
 20
194.7472266578674
 30
0.0
 40
3.5
  1
１０００
 50
90.0
 41
0.7999999834143597
  7
FX_VECTOR
 72
     5
 11
658.24375
 21
203.9472264671326
 31
0.0
100
AcDbText
  0
LINE
  5
2A9
330
1F
100
AcDbEntity
  8
GR1_01
 62
     7
100
AcDbLine
 10
659.2437976453214
 20
189.3472008476872
 30
0.0
 11
659.2437976453214
 21
209.3472408476866
 31
0.0
  0
INSERT
  5
2AA
330
1F
100
AcDbEntity
  8
GR1_01
 62
     7
100
AcDbBlockReference
  2
FXTIP_ARROW_S
 10
659.2437976453214
 20
189.3472008476872
 30
0.0
 41
2.0
 42
2.0
 50
270.0
  0
INSERT
  5
2AB
330
1F
100
AcDbEntity
  8
GR1_01
 62
     7
100
AcDbBlockReference
  2
FXTIP_ARROW_E
 10
659.2437976453214
 20
209.3472408476866
 30
0.0
 41
2.0
 42
2.0
 50
90.0
  0
LINE
  5
2AC
330
1F
100
AcDbEntity
  8
GR1_01
 62
     7
100
AcDbLine
 10
667.123797645321
 20
189.3472008476872
 30
0.0
 11
658.2437976453211
 21
189.3472008476872
 31
0.0
  0
LINE
  5
2AD
330
1F
100
AcDbEntity
  8
GR1_01
 62
     7
100
AcDbLine
 10
667.2437976453215
 20
209.3472408476866
 30
0.0
 11
658.2437976453214
 21
209.3472408476866
 31
0.0
  0
TEXT
  5
2AE
330
1F
100
AcDbEntity
  8
GR1_01
 62
     7
100
AcDbText
 10
652.24375
 20
164.7472266578674
 30
0.0
 40
3.5
  1
４０００
 50
90.0
 41
0.7999999834143597
  7
FX_VECTOR
 72
     5
 11
652.24375
 21
173.9472264671326
 31
0.0
100
AcDbText
  0
LINE
  5
2AF
330
1F
100
AcDbEntity
  8
GR1_01
 62
     7
100
AcDbLine
 10
653.2437976453214
 20
129.3472008476869
 30
0.0
 11
653.2437976453214
 21
209.3472408476866
 31
0.0
  0
INSERT
  5
2B0
330
1F
100
AcDbEntity
  8
GR1_01
 62
     7
100
AcDbBlockReference
  2
FXTIP_ARROW_S
 10
653.2437976453214
 20
129.3472008476869
 30
0.0
 41
2.0
 42
2.0
 50
270.0
  0
INSERT
  5
2B1
330
1F
100
AcDbEntity
  8
GR1_01
 62
     7
100
AcDbBlockReference
  2
FXTIP_ARROW_E
 10
653.2437976453214
 20
209.3472408476866
 30
0.0
 41
2.0
 42
2.0
 50
90.0
  0
LINE
  5
2B2
330
1F
100
AcDbEntity
  8
GR1_01
 62
     7
100
AcDbLine
 10
667.2437976453215
 20
129.3472008476869
 30
0.0
 11
652.2437976453211
 21
129.3472008476869
 31
0.0
  0
LINE
  5
2B3
330
1F
100
AcDbEntity
  8
GR1_01
 62
     7
100
AcDbLine
 10
667.2437976453215
 20
209.3472408476866
 30
0.0
 11
652.2437976453211
 21
209.3472408476866
 31
0.0
  0
TEXT
  5
2B4
330
1F
100
AcDbEntity
  8
GR1_01
 62
     7
100
AcDbText
 10
658.123828125
 20
136.3471973371506
 30
0.0
 40
3.5
  1
３００
 50
90.0
 41
0.8117646890528062
  7
FX_VECTOR
 72
     5
 11
658.123828125
 21
143.2471971940994
 31
0.0
100
AcDbText
  0
LINE
  5
2B5
330
1F
100
AcDbEntity
  8
GR1_01
 62
     7
100
AcDbLine
 10
659.123797645321
 20
129.3472008476869
 30
0.0
 11
659.123797645321
 21
135.3472008476869
 31
0.0
  0
LINE
  5
2B6
330
1F
100
AcDbEntity
  8
GR1_01
 62
     7
100
AcDbLine
 10
667.2437976453215
 20
129.3472008476869
 30
0.0
 11
658.1237976453209
 21
129.3472008476869
 31
0.0
  0
LINE
  5
2B7
330
1F
100
AcDbEntity
  8
GR1_01
 62
     7
100
AcDbLine
 10
667.1237976453211
 20
135.3472008476869
 30
0.0
 11
658.123797645321
 21
135.3472008476869
 31
0.0
  0
LINE
  5
2B8
330
1F
100
AcDbEntity
  8
GR1_01
 62
     7
100
AcDbLine
 10
659.123797645321
 20
123.3472008476869
 30
0.0
 11
659.123797645321
 21
129.3472008476869
 31
0.0
  0
INSERT
  5
2B9
330
1F
100
AcDbEntity
  8
GR1_01
 62
     7
100
AcDbBlockReference
  2
FXTIP_ARROW_E
 10
659.123797645321
 20
129.3472008476869
 30
0.0
 41
2.0
 42
2.0
 50
90.0
  0
LINE
  5
2BA
330
1F
100
AcDbEntity
  8
GR1_01
 62
     7
100
AcDbLine
 10
659.123797645321
 20
135.3472008476869
 30
0.0
 11
659.123797645321
 21
144.2472008476869
 31
0.0
  0
INSERT
  5
2BB
330
1F
100
AcDbEntity
  8
GR1_01
 62
     7
100
AcDbBlockReference
  2
FXTIP_ARROW_S
 10
659.123797645321
 20
135.3472008476869
 30
0.0
 41
2.0
 42
2.0
 50
270.0
  0
TEXT
  5
2BC
330
1F
100
AcDbEntity
  8
GR1_01
 62
     7
100
AcDbText
 10
681.1237500715256
 20
151.347236328125
 30
0.0
 40
3.5
  1
２５０
 41
0.8117646890528062
  7
FX_VECTOR
 72
     5
 11
688.0237499284744
 21
151.347236328125
 31
0.0
100
AcDbText
  0
LINE
  5
2BD
330
1F
100
AcDbEntity
  8
GR1_01
 62
     7
100
AcDbLine
 10
675.1237976453211
 20
150.3472408476864
 30
0.0
 11
680.12377764532
 21
150.3472408476864
 31
0.0
  0
LINE
  5
2BE
330
1F
100
AcDbEntity
  8
GR1_01
 62
     7
100
AcDbLine
 10
675.1237976453211
 20
142.3472408476864
 30
0.0
 11
675.123797645321
 21
151.3472408476864
 31
0.0
  0
LINE
  5
2BF
330
1F
100
AcDbEntity
  8
GR1_01
 62
     7
100
AcDbLine
 10
680.12377764532
 20
137.3472008476869
 30
0.0
 11
680.12377764532
 21
151.3472408476864
 31
0.0
  0
LINE
  5
2C0
330
1F
100
AcDbEntity
  8
GR1_01
 62
     7
100
AcDbLine
 10
669.1237976453211
 20
150.3472408476864
 30
0.0
 11
675.1237976453211
 21
150.3472408476864
 31
0.0
  0
INSERT
  5
2C1
330
1F
100
AcDbEntity
  8
GR1_01
 62
     7
100
AcDbBlockReference
  2
FXTIP_ARROW_E
 10
675.1237976453211
 20
150.3472408476864
 30
0.0
 41
2.0
 42
2.0
 50
360.0
  0
LINE
  5
2C2
330
1F
100
AcDbEntity
  8
GR1_01
 62
     7
100
AcDbLine
 10
680.12377764532
 20
150.3472408476864
 30
0.0
 11
689.0237776453201
 21
150.3472408476864
 31
0.0
  0
INSERT
  5
2C3
330
1F
100
AcDbEntity
  8
GR1_01
 62
     7
100
AcDbBlockReference
  2
FXTIP_ARROW_S
 10
680.12377764532
 20
150.3472408476864
 30
0.0
 41
2.0
 42
2.0
 50
180.0
  0
TEXT
  5
2C4
330
1F
100
AcDbEntity
  8
GR1_01
 62
     7
100
AcDbText
 10
689.12375
 20
141.3472363996506
 30
0.0
 40
3.5
  1
２５０
 50
90.0
 41
0.8117646890528062
  7
FX_VECTOR
 72
     5
 11
689.12375
 21
148.2472362565994
 31
0.0
100
AcDbText
  0
LINE
  5
2C5
330
1F
100
AcDbEntity
  8
GR1_01
 62
     7
100
AcDbLine
 10
690.12377764532
 20
135.3472008476869
 30
0.0
 11
690.12377764532
 21
140.3472408476864
 31
0.0
  0
LINE
  5
2C6
330
1F
100
AcDbEntity
  8
GR1_01
 62
     7
100
AcDbLine
 10
682.12377764532
 20
135.3472008476869
 30
0.0
 11
691.12377764532
 21
135.3472008476869
 31
0.0
  0
LINE
  5
2C7
330
1F
100
AcDbEntity
  8
GR1_01
 62
     7
100
AcDbLine
 10
677.1237976453211
 20
140.3472408476864
 30
0.0
 11
691.12377764532
 21
140.3472408476864
 31
0.0
  0
LINE
  5
2C8
330
1F
100
AcDbEntity
  8
GR1_01
 62
     7
100
AcDbLine
 10
690.12377764532
 20
129.3472008476869
 30
0.0
 11
690.12377764532
 21
135.3472008476869
 31
0.0
  0
INSERT
  5
2C9
330
1F
100
AcDbEntity
  8
GR1_01
 62
     7
100
AcDbBlockReference
  2
FXTIP_ARROW_E
 10
690.12377764532
 20
135.3472008476869
 30
0.0
 41
2.0
 42
2.0
 50
90.0
  0
LINE
  5
2CA
330
1F
100
AcDbEntity
  8
GR1_01
 62
     7
100
AcDbLine
 10
690.12377764532
 20
140.3472408476864
 30
0.0
 11
690.12377764532
 21
149.2472408476864
 31
0.0
  0
INSERT
  5
2CB
330
1F
100
AcDbEntity
  8
GR1_01
 62
     7
100
AcDbBlockReference
  2
FXTIP_ARROW_S
 10
690.12377764532
 20
140.3472408476864
 30
0.0
 41
2.0
 42
2.0
 50
270.0
  0
TEXT
  5
2CC
330
1F
100
AcDbEntity
  8
GR1_01
 62
     7
100
AcDbText
 10
676.1237500715256
 20
120.347197265625
 30
0.0
 40
3.5
  1
３００
 41
0.8117646890528062
  7
FX_VECTOR
 72
     5
 11
683.0237499284744
 21
120.347197265625
 31
0.0
100
AcDbText
  0
LINE
  5
2CD
330
1F
100
AcDbEntity
  8
GR1_01
 62
     7
100
AcDbLine
 10
669.1237976453209
 20
119.3472008476869
 30
0.0
 11
675.123797645321
 21
119.3472008476869
 31
0.0
  0
LINE
  5
2CE
330
1F
100
AcDbEntity
  8
GR1_01
 62
     7
100
AcDbLine
 10
669.123797645321
 20
127.467200847687
 30
0.0
 11
669.123797645321
 21
118.3472008476869
 31
0.0
  0
LINE
  5
2CF
330
1F
100
AcDbEntity
  8
GR1_01
 62
     7
100
AcDbLine
 10
675.1237976453211
 20
138.3472408476864
 30
0.0
 11
675.1237976453211
 21
118.3472008476869
 31
0.0
  0
LINE
  5
2D0
330
1F
100
AcDbEntity
  8
GR1_01
 62
     7
100
AcDbLine
 10
663.1237976453209
 20
119.3472008476869
 30
0.0
 11
669.1237976453209
 21
119.3472008476869
 31
0.0
  0
INSERT
  5
2D1
330
1F
100
AcDbEntity
  8
GR1_01
 62
     7
100
AcDbBlockReference
  2
FXTIP_ARROW_E
 10
669.1237976453209
 20
119.3472008476869
 30
0.0
 41
2.0
 42
2.0
 50
360.0
  0
LINE
  5
2D2
330
1F
100
AcDbEntity
  8
GR1_01
 62
     7
100
AcDbLine
 10
675.123797645321
 20
119.3472008476869
 30
0.0
 11
684.023797645321
 21
119.3472008476869
 31
0.0
  0
INSERT
  5
2D3
330
1F
100
AcDbEntity
  8
GR1_01
 62
     7
100
AcDbBlockReference
  2
FXTIP_ARROW_S
 10
675.123797645321
 20
119.3472008476869
 30
0.0
 41
2.0
 42
2.0
 50
180.0
  0
TEXT
  5
2D4
330
1F
100
AcDbEntity
  8
GR1_01
 62
     7
100
AcDbText
 10
689.5237500953674
 20
114.347197265625
 30
0.0
 40
3.5
  1
２５００
 41
0.7999999834143597
  7
FX_VECTOR
 72
     5
 11
698.7237499046325
 21
114.347197265625
 31
0.0
100
AcDbText
  0
LINE
  5
2D5
330
1F
100
AcDbEntity
  8
GR1_01
 62
     7
100
AcDbLine
 10
669.123797645321
 20
113.3472008476869
 30
0.0
 11
719.12377764532
 21
113.3472008476869
 31
0.0
  0
INSERT
  5
2D6
330
1F
100
AcDbEntity
  8
GR1_01
 62
     7
100
AcDbBlockReference
  2
FXTIP_ARROW_S
 10
669.123797645321
 20
113.3472008476869
 30
0.0
 41
2.0
 42
2.0
 50
180.0
  0
INSERT
  5
2D7
330
1F
100
AcDbEntity
  8
GR1_01
 62
     7
100
AcDbBlockReference
  2
FXTIP_ARROW_E
 10
719.12377764532
 20
113.3472008476869
 30
0.0
 41
2.0
 42
2.0
 50
360.0
  0
LINE
  5
2D8
330
1F
100
AcDbEntity
  8
GR1_01
 62
     7
100
AcDbLine
 10
669.123797645321
 20
127.467200847687
 30
0.0
 11
669.123797645321
 21
112.3472008476869
 31
0.0
  0
LINE
  5
2D9
330
1F
100
AcDbEntity
  8
GR1_01
 62
     7
100
AcDbLine
 10
719.12377764532
 20
127.3472008476869
 30
0.0
 11
719.12377764532
 21
112.3472008476869
 31
0.0
  0
TEXT
  5
2DA
330
1F
100
AcDbEntity
  8
GR1_01
 62
     7
100
AcDbText
 10
707.2237500715256
 20
120.347197265625
 30
0.0
 40
3.5
  1
２００
 41
0.8117646890528062
  7
FX_VECTOR
 72
     5
 11
714.1237499284745
 21
120.347197265625
 31
0.0
100
AcDbText
  0
LINE
  5
2DB
330
1F
100
AcDbEntity
  8
GR1_01
 62
     7
100
AcDbLine
 10
715.123757645321
 20
119.3472008476869
 30
0.0
 11
719.12377764532
 21
119.3472008476869
 31
0.0
  0
LINE
  5
2DC
330
1F
100
AcDbEntity
  8
GR1_01
 62
     7
100
AcDbLine
 10
715.1237576453212
 20
129.9472408476867
 30
0.0
 11
715.1237576453209
 21
118.3472008476869
 31
0.0
  0
LINE
  5
2DD
330
1F
100
AcDbEntity
  8
GR1_01
 62
     7
100
AcDbLine
 10
719.12377764532
 20
127.3472008476869
 30
0.0
 11
719.12377764532
 21
118.3472008476869
 31
0.0
  0
LINE
  5
2DE
330
1F
100
AcDbEntity
  8
GR1_01
 62
     7
100
AcDbLine
 10
719.12377764532
 20
119.3472008476869
 30
0.0
 11
725.12377764532
 21
119.3472008476869
 31
0.0
  0
INSERT
  5
2DF
330
1F
100
AcDbEntity
  8
GR1_01
 62
     7
100
AcDbBlockReference
  2
FXTIP_ARROW_S
 10
719.12377764532
 20
119.3472008476869
 30
0.0
 41
2.0
 42
2.0
 50
180.0
  0
LINE
  5
2E0
330
1F
100
AcDbEntity
  8
GR1_01
 62
     7
100
AcDbLine
 10
706.223757645321
 20
119.3472008476869
 30
0.0
 11
715.123757645321
 21
119.3472008476869
 31
0.0
  0
INSERT
  5
2E1
330
1F
100
AcDbEntity
  8
GR1_01
 62
     7
100
AcDbBlockReference
  2
FXTIP_ARROW_E
 10
715.123757645321
 20
119.3472008476869
 30
0.0
 41
2.0
 42
2.0
 50
360.0
  0
TEXT
  5
2E2
330
1F
100
AcDbEntity
  8
GR1_01
 62
     7
100
AcDbText
 10
728.12375
 20
132.9472363996506
 30
0.0
 40
3.5
  1
１３０
 50
90.0
 41
0.8117646890528062
  7
FX_VECTOR
 72
     5
 11
728.12375
 21
139.8472362565994
 31
0.0
100
AcDbText
  0
LINE
  5
2E3
330
1F
100
AcDbEntity
  8
GR1_01
 62
     7
100
AcDbLine
 10
729.12377764532
 20
129.3472008476869
 30
0.0
 11
729.12377764532
 21
131.9472408476867
 31
0.0
  0
LINE
  5
2E4
330
1F
100
AcDbEntity
  8
GR1_01
 62
     7
100
AcDbLine
 10
721.12377764532
 20
129.3472008476869
 30
0.0
 11
730.1237776453199
 21
129.3472008476869
 31
0.0
  0
LINE
  5
2E5
330
1F
100
AcDbEntity
  8
GR1_01
 62
     7
100
AcDbLine
 10
721.12377764532
 20
131.9472408476867
 30
0.0
 11
730.1237776453199
 21
131.9472408476866
 31
0.0
  0
LINE
  5
2E6
330
1F
100
AcDbEntity
  8
GR1_01
 62
     7
100
AcDbLine
 10
729.12377764532
 20
123.3472008476869
 30
0.0
 11
729.12377764532
 21
129.3472008476869
 31
0.0
  0
INSERT
  5
2E7
330
1F
100
AcDbEntity
  8
GR1_01
 62
     7
100
AcDbBlockReference
  2
FXTIP_ARROW_E
 10
729.12377764532
 20
129.3472008476869
 30
0.0
 41
2.0
 42
2.0
 50
90.0
  0
LINE
  5
2E8
330
1F
100
AcDbEntity
  8
GR1_01
 62
     7
100
AcDbLine
 10
729.12377764532
 20
131.9472408476867
 30
0.0
 11
729.12377764532
 21
140.8472408476867
 31
0.0
  0
INSERT
  5
2E9
330
1F
100
AcDbEntity
  8
GR1_01
 62
     7
100
AcDbBlockReference
  2
FXTIP_ARROW_S
 10
729.12377764532
 20
131.9472408476867
 30
0.0
 41
2.0
 42
2.0
 50
270.0
  0
TEXT
  5
2EA
330
1F
100
AcDbEntity
  8
GR1_01
 62
     7
100
AcDbText
 10
743.58453125
 20
134.7472168922424
 30
0.0
 40
3.5
  1
１０００
 50
90.0
 41
0.7999999834143597
  7
FX_VECTOR
 72
     5
 11
743.58453125
 21
143.9472167015076
 31
0.0
100
AcDbText
  0
LINE
  5
2EB
330
1F
100
AcDbEntity
  8
GR1_01
 62
     7
100
AcDbLine
 10
744.5845021554959
 20
129.3472008476869
 30
0.0
 11
744.5845021554959
 21
149.3472408476867
 31
0.0
  0
INSERT
  5
2EC
330
1F
100
AcDbEntity
  8
GR1_01
 62
     7
100
AcDbBlockReference
  2
FXTIP_ARROW_S
 10
744.5845021554959
 20
129.3472008476869
 30
0.0
 41
2.0
 42
2.0
 50
270.0
  0
INSERT
  5
2ED
330
1F
100
AcDbEntity
  8
GR1_01
 62
     7
100
AcDbBlockReference
  2
FXTIP_ARROW_E
 10
744.5845021554959
 20
149.3472408476867
 30
0.0
 41
2.0
 42
2.0
 50
90.0
  0
LINE
  5
2EE
330
1F
100
AcDbEntity
  8
GR1_01
 62
     7
100
AcDbLine
 10
752.5845021554959
 20
129.3472008476869
 30
0.0
 11
743.5845021554959
 21
129.347200847687
 31
0.0
  0
LINE
  5
2EF
330
1F
100
AcDbEntity
  8
GR1_01
 62
     7
100
AcDbLine
 10
761.7445221554959
 20
149.3472408476867
 30
0.0
 11
743.5845021554959
 21
149.3472408476867
 31
0.0
  0
TEXT
  5
2F0
330
1F
100
AcDbEntity
  8
GR1_01
 62
     7
100
AcDbText
 10
743.58453125
 20
154.7472266578674
 30
0.0
 40
3.5
  1
１０００
 50
90.0
 41
0.7999999834143597
  7
FX_VECTOR
 72
     5
 11
743.58453125
 21
163.9472264671326
 31
0.0
100
AcDbText
  0
LINE
  5
2F1
330
1F
100
AcDbEntity
  8
GR1_01
 62
     7
100
AcDbLine
 10
744.5845021554959
 20
149.3472408476867
 30
0.0
 11
744.5845021554959
 21
169.3472208476868
 31
0.0
  0
INSERT
  5
2F2
330
1F
100
AcDbEntity
  8
GR1_01
 62
     7
100
AcDbBlockReference
  2
FXTIP_ARROW_S
 10
744.5845021554959
 20
149.3472408476867
 30
0.0
 41
2.0
 42
2.0
 50
270.0
  0
INSERT
  5
2F3
330
1F
100
AcDbEntity
  8
GR1_01
 62
     7
100
AcDbBlockReference
  2
FXTIP_ARROW_E
 10
744.5845021554959
 20
169.3472208476868
 30
0.0
 41
2.0
 42
2.0
 50
90.0
  0
LINE
  5
2F4
330
1F
100
AcDbEntity
  8
GR1_01
 62
     7
100
AcDbLine
 10
761.7445221554959
 20
169.3472208476868
 30
0.0
 11
743.5845021554959
 21
169.3472208476868
 31
0.0
  0
TEXT
  5
2F5
330
1F
100
AcDbEntity
  8
GR1_01
 62
     7
100
AcDbText
 10
769.8945313453675
 20
220.3472460929472
 30
0.0
 40
3.5
  1
２０００
 41
0.7999999834143597
  7
FX_VECTOR
 72
     5
 11
779.0945311546326
 21
220.3472460945529
 31
0.0
100
AcDbText
  0
LINE
  5
2F6
330
1F
100
AcDbEntity
  8
GR1_01
 62
     7
100
AcDbLine
 10
754.494502155495
 20
219.3472408476866
 30
0.0
 11
794.4945221554959
 21
219.3472408476866
 31
0.0
  0
INSERT
  5
2F7
330
1F
100
AcDbEntity
  8
GR1_01
 62
     7
100
AcDbBlockReference
  2
FXTIP_ARROW_S
 10
754.494502155495
 20
219.3472408476866
 30
0.0
 41
2.0
 42
2.0
 50
180.0
  0
INSERT
  5
2F8
330
1F
100
AcDbEntity
  8
GR1_01
 62
     7
100
AcDbBlockReference
  2
FXTIP_ARROW_E
 10
794.4945221554959
 20
219.3472408476866
 30
0.0
 41
2.0
 42
2.0
 50
360.0
  0
LINE
  5
2F9
330
1F
100
AcDbEntity
  8
GR1_01
 62
     7
100
AcDbLine
 10
754.494502155495
 20
211.2272408476868
 30
0.0
 11
754.494502155495
 21
220.3472408476866
 31
0.0
  0
LINE
  5
2FA
330
1F
100
AcDbEntity
  8
GR1_01
 62
     7
100
AcDbLine
 10
794.4945221554959
 20
211.2272408476868
 30
0.0
 11
794.4945221554958
 21
220.3472408476866
 31
0.0
  0
LINE
  5
2FC
330
1F
100
AcDbEntity
  8
GR1_01
  6
点線
 62
     7
100
AcDbLine
 10
785.244502155495
 20
116.1779730040082
 30
0.0
 11
785.244502155495
 21
110.1779730040082
 31
0.0
  0
LINE
  5
2FD
330
1F
100
AcDbEntity
  8
GR1_01
  6
点線
 62
     7
100
AcDbLine
 10
783.744502155495
 20
116.1779730040082
 30
0.0
 11
783.7445021554952
 21
110.1779730040082
 31
0.0
  0
LINE
  5
2FE
330
1F
100
AcDbEntity
  8
GR1_01
  6
点線
 62
     7
100
AcDbLine
 10
765.2445221554959
 20
116.1779730040082
 30
0.0
 11
765.2445221554959
 21
110.1779730040082
 31
0.0
  0
LINE
  5
2FF
330
1F
100
AcDbEntity
  8
GR1_01
  6
点線
 62
     7
100
AcDbLine
 10
763.7445221554959
 20
116.1779730040082
 30
0.0
 11
763.7445221554959
 21
110.1779730040082
 31
0.0
  0
TEXT
  5
300
330
1F
100
AcDbEntity
  8
GR1_01
 62
     7
100
AcDbText
 10
746.5945313215256
 20
143.2788964837729
 30
0.0
 40
3.5
  1
４．５
 41
0.8117646890528062
  7
FX_VECTOR
 72
     5
 11
753.4945311784744
 21
143.2788964849771
 31
0.0
100
AcDbText
  0
LINE
  5
301
330
1F
100
AcDbEntity
  8
GR1_01
 62
     7
100
AcDbLine
 10
754.494502155495
 20
142.2788972019327
 30
0.0
 11
754.5845021554959
 21
142.2788972019327
 31
0.0
  0
LINE
  5
302
330
1F
100
AcDbEntity
  8
GR1_01
 62
     7
100
AcDbLine
 10
754.494502155495
 20
145.3472008476869
 30
0.0
 11
754.494502155495
 21
141.2788972019327
 31
0.0
  0
LINE
  5
303
330
1F
100
AcDbEntity
  8
GR1_01
 62
     7
100
AcDbLine
 10
754.5845021554959
 20
145.2572008476866
 30
0.0
 11
754.5845021554959
 21
141.2788972019327
 31
0.0
  0
LINE
  5
304
330
1F
100
AcDbEntity
  8
GR1_01
 62
     7
100
AcDbLine
 10
754.5845021554959
 20
142.2788972019327
 30
0.0
 11
760.5845021554959
 21
142.2788972019327
 31
0.0
  0
INSERT
  5
305
330
1F
100
AcDbEntity
  8
GR1_01
 62
     7
100
AcDbBlockReference
  2
FXTIP_ARROW_S
 10
754.5845021554959
 20
142.2788972019327
 30
0.0
 41
2.0
 42
2.0
 50
180.0
  0
LINE
  5
306
330
1F
100
AcDbEntity
  8
GR1_01
 62
     7
100
AcDbLine
 10
745.594502155495
 20
142.2788972019327
 30
0.0
 11
754.494502155495
 21
142.2788972019327
 31
0.0
  0
INSERT
  5
307
330
1F
100
AcDbEntity
  8
GR1_01
 62
     7
100
AcDbBlockReference
  2
FXTIP_ARROW_E
 10
754.494502155495
 20
142.2788972019327
 30
0.0
 41
2.0
 42
2.0
 50
360.0
  0
LINE
  5
308
330
1F
100
AcDbEntity
  8
GR1_01
 62
     7
100
AcDbLine
 10
764.7870422986196
 20
186.0857245822685
 30
0.0
 11
761.7552060383636
 21
191.6980834262022
 31
0.0
  0
INSERT
  5
309
330
1F
100
AcDbEntity
  8
GR1_01
 62
     7
100
AcDbBlockReference
  2
FXTIP_ARROW_S
 10
764.7870422986196
 20
186.0857245822685
 30
0.0
 41
2.0
 42
2.0
 50
298.3782338225665
  0
LINE
  5
30A
330
1F
100
AcDbEntity
  8
GR1_01
 62
     7
100
AcDbLine
 10
761.7552060383636
 20
191.6980834262022
 30
0.0
 11
793.6552060383635
 21
191.6980834262022
 31
0.0
  0
TEXT
  5
30B
330
1F
100
AcDbEntity
  8
GR1_01
 62
     7
100
AcDbText
 10
762.7552346849442
 20
192.09810546875
 30
0.0
 40
3.5
  1
デーハアンカー（２－８ｔ）
 41
0.7766233605223817
  7
FX_VECTOR
 72
     5
 11
792.6552340650559
 21
192.09810546875
 31
0.0
100
AcDbText
  0
LINE
  5
30D
330
1F
100
AcDbEntity
  8
GR1_01
  6
一点鎖線
 62
     7
100
AcDbLine
 10
782.9661556438081
 20
169.3472208476868
 30
0.0
 11
786.022848667182
 21
169.3472208476868
 31
0.0
  0
LINE
  5
30E
330
1F
100
AcDbEntity
  8
GR1_01
  6
一点鎖線
 62
     7
100
AcDbLine
 10
784.494502155495
 20
167.8188743359998
 30
0.0
 11
784.494502155495
 21
170.8755673593739
 31
0.0
  0
LINE
  5
30F
330
1F
100
AcDbEntity
  8
GR1_01
 62
     7
100
AcDbLine
 10
784.2187096696292
 20
170.0142802016641
 30
0.0
 11
781.8718206185772
 21
173.2534331437234
 31
0.0
  0
INSERT
  5
310
330
1F
100
AcDbEntity
  8
GR1_01
 62
     7
100
AcDbBlockReference
  2
FXTIP_ARROW_S
 10
784.2187096696292
 20
170.0142802016641
 30
0.0
 41
2.0
 42
2.0
 50
305.9247533874658
  0
LINE
  5
311
330
1F
100
AcDbEntity
  8
GR1_01
 62
     7
100
AcDbLine
 10
781.8718206185772
 20
173.2534331437234
 30
0.0
 11
768.3718206185772
 21
173.2534331437234
 31
0.0
  0
TEXT
  5
312
330
1F
100
AcDbEntity
  8
GR1_01
 62
     7
100
AcDbText
 10
769.3717969942093
 20
173.6534375
 30
0.0
 40
3.5
  1
４－φ７５
 41
0.7931034318332014
  7
FX_VECTOR
 72
     5
 11
780.8717967557907
 21
173.6534375
 31
0.0
100
AcDbText
  0
CIRCLE
  5
313
330
1F
100
AcDbEntity
  8
GR1_01
 62
     7
100
AcDbCircle
 10
784.584462155496
 20
84.57801300400898
 30
0.0
 40
1.27998
  0
CIRCLE
  5
314
330
1F
100
AcDbEntity
  8
GR1_01
 62
     7
100
AcDbCircle
 10
764.584482155496
 20
84.57801300400898
 30
0.0
 40
1.27998
  0
LINE
  5
315
330
1F
100
AcDbEntity
  8
GR1_01
 62
     7
100
AcDbLine
 10
764.8211764187407
 20
85.3141552299455
 30
0.0
 11
759.4078487825925
 21
92.35733848492431
 31
0.0
  0
INSERT
  5
316
330
1F
100
AcDbEntity
  8
GR1_01
 62
     7
100
AcDbBlockReference
  2
FXTIP_ARROW_S
 10
764.8211764187407
 20
85.3141552299455
 30
0.0
 41
2.0
 42
2.0
 50
307.5455575430201
  0
LINE
  5
317
330
1F
100
AcDbEntity
  8
GR1_01
 62
     7
100
AcDbLine
 10
759.4078487825925
 20
92.35733848492431
 30
0.0
 11
791.3078487825925
 21
92.35733848492431
 31
0.0
  0
TEXT
  5
318
330
1F
100
AcDbEntity
  8
GR1_01
 62
     7
100
AcDbText
 10
760.4078909349441
 20
92.757353515625
 30
0.0
 40
3.5
  1
デーハアンカー（２－８ｔ）
 41
0.7766233605223817
  7
FX_VECTOR
 72
     5
 11
790.3078903150558
 21
92.757353515625
 31
0.0
100
AcDbText
  0
CIRCLE
  5
319
330
1F
100
AcDbEntity
  8
GR1_01
 62
     7
100
AcDbCircle
 10
784.584462155495
 20
84.57801300400898
 30
0.0
 40
0.19998
  0
CIRCLE
  5
31A
330
1F
100
AcDbEntity
  8
GR1_01
 62
     7
100
AcDbCircle
 10
764.584482155496
 20
84.57801300400898
 30
0.0
 40
0.19998
  0
LINE
  5
31B
330
1F
100
AcDbEntity
  8
GR1_01
 62
     4
100
AcDbLine
 10
829.8652466656708
 20
131.9472408476867
 30
0.0
 11
829.8652466656708
 21
129.3472008476869
 31
0.0
  0
LINE
  5
31C
330
1F
100
AcDbEntity
  8
GR1_01
 62
     4
100
AcDbLine
 10
829.8652466656708
 20
129.3472008476869
 30
0.0
 11
879.7452266656696
 21
129.3472008476869
 31
0.0
  0
LINE
  5
31D
330
1F
100
AcDbEntity
  8
GR1_01
 62
     4
100
AcDbLine
 10
879.86522666567
 20
129.4672008476868
 30
0.0
 11
879.86522666567
 21
209.2272408476868
 31
0.0
  0
LINE
  5
31E
330
1F
100
AcDbEntity
  8
GR1_01
 62
     4
100
AcDbLine
 10
879.7452266656696
 20
209.3472408476866
 30
0.0
 11
877.3852466656691
 21
209.3472408476866
 31
0.0
  0
LINE
  5
31F
330
1F
100
AcDbEntity
  8
GR1_01
 62
     4
100
AcDbLine
 10
877.2652466656709
 20
209.2272408476868
 30
0.0
 11
877.2652466656709
 21
189.3472008476869
 31
0.0
  0
LINE
  5
320
330
1F
100
AcDbEntity
  8
GR1_01
 62
     4
100
AcDbLine
 10
877.2652466656709
 20
189.3472008476869
 30
0.0
 11
873.8652266656698
 21
140.3472408476865
 31
0.0
  0
LINE
  5
321
330
1F
100
AcDbEntity
  8
GR1_01
 62
     4
100
AcDbLine
 10
873.86522666567
 20
140.3472408476867
 30
0.0
 11
868.8652466656708
 21
135.3472008476869
 31
0.0
  0
LINE
  5
322
330
1F
100
AcDbEntity
  8
GR1_01
 62
     4
100
AcDbLine
 10
868.8652466656708
 20
135.3472008476869
 30
0.0
 11
833.8652666656698
 21
131.9472408476867
 31
0.0
  0
LINE
  5
323
330
1F
100
AcDbEntity
  8
GR1_01
 62
     4
100
AcDbLine
 10
833.8652666656698
 20
131.9472408476867
 30
0.0
 11
829.8652466656708
 21
131.9472408476867
 31
0.0
  0
LINE
  5
324
330
1F
100
AcDbEntity
  8
GR1_01
 62
     7
100
AcDbLine
 10
879.7452266656696
 20
129.3472008476869
 30
0.0
 11
879.7452266656696
 21
209.3472408476866
 31
0.0
  0
LINE
  5
325
330
1F
100
AcDbEntity
  8
GR1_01
 62
     4
100
AcDbLine
 10
879.86522666567
 20
209.2272408476868
 30
0.0
 11
879.7452266656696
 21
209.3472408476866
 31
0.0
  0
LINE
  5
326
330
1F
100
AcDbEntity
  8
GR1_01
 62
     4
100
AcDbLine
 10
879.7452266656696
 20
129.3472008476869
 30
0.0
 11
879.86522666567
 21
129.4672008476868
 31
0.0
  0
LINE
  5
327
330
1F
100
AcDbEntity
  8
GR1_01
 62
     4
100
AcDbLine
 10
877.3852466656691
 20
209.3472408476866
 30
0.0
 11
877.2652466656709
 21
209.2272408476868
 31
0.0
  0
LINE
  5
328
330
1F
100
AcDbEntity
  8
GR1_01
 62
     7
100
AcDbLine
 10
877.2652466656709
 20
209.2272408476868
 30
0.0
 11
879.86522666567
 21
209.2272408476868
 31
0.0
  0
LINE
  5
329
330
1F
100
AcDbEntity
  8
GR1_01
  6
020-1-TENSEN1
 62
     7
100
AcDbLine
 10
879.86522666567
 20
170.1472008476869
 30
0.0
 11
875.9295266656704
 21
170.0972208476868
 31
0.0
  0
LINE
  5
32A
330
1F
100
AcDbEntity
  8
GR1_01
  6
020-1-TENSEN1
 62
     7
100
AcDbLine
 10
879.86522666567
 20
168.5472408476867
 30
0.0
 11
875.8254266656699
 21
168.5972208476868
 31
0.0
  0
LINE
  5
32B
330
1F
100
AcDbEntity
  8
GR1_01
  6
020-1-TENSEN1
 62
     7
100
AcDbLine
 10
879.86522666567
 20
150.1472208476868
 30
0.0
 11
874.5417866656699
 21
150.0972408476867
 31
0.0
  0
LINE
  5
32C
330
1F
100
AcDbEntity
  8
GR1_01
  6
020-1-TENSEN1
 62
     7
100
AcDbLine
 10
879.86522666567
 20
148.547200847687
 30
0.0
 11
874.4376866656695
 21
148.5972408476867
 31
0.0
  0
TEXT
  5
32D
330
1F
100
AcDbEntity
  8
GR1_01
 62
     7
100
AcDbText
 10
869.3653125715256
 20
220.3472265625
 30
0.0
 40
3.5
  1
１３０
 41
0.8117646890528062
  7
FX_VECTOR
 72
     5
 11
876.2653124284744
 21
220.3472265625
 31
0.0
100
AcDbText
  0
LINE
  5
32E
330
1F
100
AcDbEntity
  8
GR1_01
 62
     7
100
AcDbLine
 10
877.2652466656707
 20
219.3472408476866
 30
0.0
 11
879.86522666567
 21
219.3472408476866
 31
0.0
  0
LINE
  5
32F
330
1F
100
AcDbEntity
  8
GR1_01
 62
     7
100
AcDbLine
 10
879.86522666567
 20
211.2272408476868
 30
0.0
 11
879.86522666567
 21
220.3472408476866
 31
0.0
  0
LINE
  5
330
330
1F
100
AcDbEntity
  8
GR1_01
 62
     7
100
AcDbLine
 10
877.2652466656707
 20
211.2272408476868
 30
0.0
 11
877.2652466656707
 21
220.3472408476866
 31
0.0
  0
LINE
  5
331
330
1F
100
AcDbEntity
  8
GR1_01
 62
     7
100
AcDbLine
 10
879.86522666567
 20
219.3472408476866
 30
0.0
 11
885.86522666567
 21
219.3472408476866
 31
0.0
  0
INSERT
  5
332
330
1F
100
AcDbEntity
  8
GR1_01
 62
     7
100
AcDbBlockReference
  2
FXTIP_ARROW_S
 10
879.86522666567
 20
219.3472408476866
 30
0.0
 41
2.0
 42
2.0
 50
180.0
  0
LINE
  5
333
330
1F
100
AcDbEntity
  8
GR1_01
 62
     7
100
AcDbLine
 10
868.3652466656707
 20
219.3472408476866
 30
0.0
 11
877.2652466656707
 21
219.3472408476866
 31
0.0
  0
INSERT
  5
334
330
1F
100
AcDbEntity
  8
GR1_01
 62
     7
100
AcDbBlockReference
  2
FXTIP_ARROW_E
 10
877.2652466656707
 20
219.3472408476866
 30
0.0
 41
2.0
 42
2.0
 50
360.0
  0
TEXT
  5
335
330
1F
100
AcDbEntity
  8
GR1_01
 62
     7
100
AcDbText
 10
888.74515625
 20
194.7472266578674
 30
0.0
 40
3.5
  1
１０００
 50
90.0
 41
0.7999999834143597
  7
FX_VECTOR
 72
     5
 11
888.74515625
 21
203.9472264671326
 31
0.0
100
AcDbText
  0
LINE
  5
336
330
1F
100
AcDbEntity
  8
GR1_01
 62
     7
100
AcDbLine
 10
889.7452266656696
 20
189.3472008476872
 30
0.0
 11
889.7452266656696
 21
209.3472408476866
 31
0.0
  0
INSERT
  5
337
330
1F
100
AcDbEntity
  8
GR1_01
 62
     7
100
AcDbBlockReference
  2
FXTIP_ARROW_S
 10
889.7452266656696
 20
189.3472008476872
 30
0.0
 41
2.0
 42
2.0
 50
270.0
  0
INSERT
  5
338
330
1F
100
AcDbEntity
  8
GR1_01
 62
     7
100
AcDbBlockReference
  2
FXTIP_ARROW_E
 10
889.7452266656696
 20
209.3472408476866
 30
0.0
 41
2.0
 42
2.0
 50
90.0
  0
LINE
  5
339
330
1F
100
AcDbEntity
  8
GR1_01
 62
     7
100
AcDbLine
 10
881.86522666567
 20
189.3472008476872
 30
0.0
 11
890.7452266656697
 21
189.3472008476872
 31
0.0
  0
LINE
  5
33A
330
1F
100
AcDbEntity
  8
GR1_01
 62
     7
100
AcDbLine
 10
881.7452266656695
 20
209.3472408476866
 30
0.0
 11
890.7452266656696
 21
209.3472408476866
 31
0.0
  0
TEXT
  5
33B
330
1F
100
AcDbEntity
  8
GR1_01
 62
     7
100
AcDbText
 10
894.74515625
 20
164.7472266578674
 30
0.0
 40
3.5
  1
４０００
 50
90.0
 41
0.7999999834143597
  7
FX_VECTOR
 72
     5
 11
894.74515625
 21
173.9472264671326
 31
0.0
100
AcDbText
  0
LINE
  5
33C
330
1F
100
AcDbEntity
  8
GR1_01
 62
     7
100
AcDbLine
 10
895.7452266656696
 20
129.3472008476869
 30
0.0
 11
895.7452266656696
 21
209.3472408476866
 31
0.0
  0
INSERT
  5
33D
330
1F
100
AcDbEntity
  8
GR1_01
 62
     7
100
AcDbBlockReference
  2
FXTIP_ARROW_S
 10
895.7452266656696
 20
129.3472008476869
 30
0.0
 41
2.0
 42
2.0
 50
270.0
  0
INSERT
  5
33E
330
1F
100
AcDbEntity
  8
GR1_01
 62
     7
100
AcDbBlockReference
  2
FXTIP_ARROW_E
 10
895.7452266656696
 20
209.3472408476866
 30
0.0
 41
2.0
 42
2.0
 50
90.0
  0
LINE
  5
33F
330
1F
100
AcDbEntity
  8
GR1_01
 62
     7
100
AcDbLine
 10
881.7452266656695
 20
129.3472008476869
 30
0.0
 11
896.7452266656697
 21
129.3472008476869
 31
0.0
  0
LINE
  5
340
330
1F
100
AcDbEntity
  8
GR1_01
 62
     7
100
AcDbLine
 10
881.7452266656695
 20
209.3472408476866
 30
0.0
 11
896.7452266656697
 21
209.3472408476866
 31
0.0
  0
TEXT
  5
341
330
1F
100
AcDbEntity
  8
GR1_01
 62
     7
100
AcDbText
 10
850.2653125953675
 20
114.347197265625
 30
0.0
 40
3.5
  1
２５００
 41
0.7999999834143597
  7
FX_VECTOR
 72
     5
 11
859.4653124046326
 21
114.347197265625
 31
0.0
100
AcDbText
  0
LINE
  5
342
330
1F
100
AcDbEntity
  8
GR1_01
 62
     7
100
AcDbLine
 10
829.8652466656708
 20
113.3472008476869
 30
0.0
 11
879.86522666567
 21
113.3472008476869
 31
0.0
  0
INSERT
  5
343
330
1F
100
AcDbEntity
  8
GR1_01
 62
     7
100
AcDbBlockReference
  2
FXTIP_ARROW_S
 10
829.8652466656708
 20
113.3472008476869
 30
0.0
 41
2.0
 42
2.0
 50
180.0
  0
INSERT
  5
344
330
1F
100
AcDbEntity
  8
GR1_01
 62
     7
100
AcDbBlockReference
  2
FXTIP_ARROW_E
 10
879.86522666567
 20
113.3472008476869
 30
0.0
 41
2.0
 42
2.0
 50
360.0
  0
LINE
  5
345
330
1F
100
AcDbEntity
  8
GR1_01
 62
     7
100
AcDbLine
 10
879.86522666567
 20
127.467200847687
 30
0.0
 11
879.86522666567
 21
112.3472008476869
 31
0.0
  0
LINE
  5
346
330
1F
100
AcDbEntity
  8
GR1_01
 62
     7
100
AcDbLine
 10
829.8652466656708
 20
127.3472008476869
 30
0.0
 11
829.8652466656708
 21
112.3472008476869
 31
0.0
  0
TEXT
  5
347
330
1F
100
AcDbEntity
  8
GR1_01
 62
     7
100
AcDbText
 10
834.8653125715256
 20
120.347197265625
 30
0.0
 40
3.5
  1
２００
 41
0.8117646890528062
  7
FX_VECTOR
 72
     5
 11
841.7653124284744
 21
120.347197265625
 31
0.0
100
AcDbText
  0
LINE
  5
348
330
1F
100
AcDbEntity
  8
GR1_01
 62
     7
100
AcDbLine
 10
829.8652466656708
 20
119.3472008476869
 30
0.0
 11
833.8652666656699
 21
119.3472008476869
 31
0.0
  0
LINE
  5
349
330
1F
100
AcDbEntity
  8
GR1_01
 62
     7
100
AcDbLine
 10
833.8652666656698
 20
129.9472408476867
 30
0.0
 11
833.8652666656701
 21
118.3472008476869
 31
0.0
  0
LINE
  5
34A
330
1F
100
AcDbEntity
  8
GR1_01
 62
     7
100
AcDbLine
 10
829.8652466656708
 20
127.3472008476869
 30
0.0
 11
829.8652466656708
 21
118.3472008476869
 31
0.0
  0
LINE
  5
34B
330
1F
100
AcDbEntity
  8
GR1_01
 62
     7
100
AcDbLine
 10
823.8652466656708
 20
119.3472008476869
 30
0.0
 11
829.8652466656708
 21
119.3472008476869
 31
0.0
  0
INSERT
  5
34C
330
1F
100
AcDbEntity
  8
GR1_01
 62
     7
100
AcDbBlockReference
  2
FXTIP_ARROW_E
 10
829.8652466656708
 20
119.3472008476869
 30
0.0
 41
2.0
 42
2.0
 50
360.0
  0
LINE
  5
34D
330
1F
100
AcDbEntity
  8
GR1_01
 62
     7
100
AcDbLine
 10
833.8652666656699
 20
119.3472008476869
 30
0.0
 11
842.76526666567
 21
119.3472008476869
 31
0.0
  0
INSERT
  5
34E
330
1F
100
AcDbEntity
  8
GR1_01
 62
     7
100
AcDbBlockReference
  2
FXTIP_ARROW_S
 10
833.8652666656699
 20
119.3472008476869
 30
0.0
 41
2.0
 42
2.0
 50
180.0
  0
TEXT
  5
34F
330
1F
100
AcDbEntity
  8
GR1_01
 62
     7
100
AcDbText
 10
818.86515625
 20
132.9472363996506
 30
0.0
 40
3.5
  1
１３０
 50
90.0
 41
0.8117646890528062
  7
FX_VECTOR
 72
     5
 11
818.86515625
 21
139.8472362565994
 31
0.0
100
AcDbText
  0
LINE
  5
350
330
1F
100
AcDbEntity
  8
GR1_01
 62
     7
100
AcDbLine
 10
819.8652466656708
 20
129.3472008476869
 30
0.0
 11
819.8652466656708
 21
131.9472408476867
 31
0.0
  0
LINE
  5
351
330
1F
100
AcDbEntity
  8
GR1_01
 62
     7
100
AcDbLine
 10
827.8652466656708
 20
129.3472008476869
 30
0.0
 11
818.8652466656711
 21
129.3472008476869
 31
0.0
  0
LINE
  5
352
330
1F
100
AcDbEntity
  8
GR1_01
 62
     7
100
AcDbLine
 10
827.8652466656708
 20
131.9472408476867
 30
0.0
 11
818.8652466656711
 21
131.9472408476866
 31
0.0
  0
LINE
  5
353
330
1F
100
AcDbEntity
  8
GR1_01
 62
     7
100
AcDbLine
 10
819.8652466656708
 20
123.3472008476869
 30
0.0
 11
819.8652466656708
 21
129.3472008476869
 31
0.0
  0
INSERT
  5
354
330
1F
100
AcDbEntity
  8
GR1_01
 62
     7
100
AcDbBlockReference
  2
FXTIP_ARROW_E
 10
819.8652466656708
 20
129.3472008476869
 30
0.0
 41
2.0
 42
2.0
 50
90.0
  0
LINE
  5
355
330
1F
100
AcDbEntity
  8
GR1_01
 62
     7
100
AcDbLine
 10
819.8652466656708
 20
131.9472408476867
 30
0.0
 11
819.8652466656708
 21
140.8472408476867
 31
0.0
  0
INSERT
  5
356
330
1F
100
AcDbEntity
  8
GR1_01
 62
     7
100
AcDbBlockReference
  2
FXTIP_ARROW_S
 10
819.8652466656708
 20
131.9472408476867
 30
0.0
 41
2.0
 42
2.0
 50
270.0
  0
CIRCLE
  5
357
330
1F
100
AcDbEntity
  8
GR1_01
 62
     2
100
AcDbCircle
 10
878.0652266656709
 20
170.5477608476868
 30
0.0
 40
1.27998
  0
CIRCLE
  5
358
330
1F
100
AcDbEntity
  8
GR1_01
 62
     2
100
AcDbCircle
 10
861.6959066656713
 20
131.9471808476868
 30
0.0
 40
1.27998
  0
CIRCLE
  5
359
330
1F
100
AcDbEntity
  8
GR1_01
 62
     2
100
AcDbCircle
 10
878.0652266656709
 20
170.5477608476868
 30
0.0
 40
0.19998
  0
CIRCLE
  5
35A
330
1F
100
AcDbEntity
  8
GR1_01
 62
     2
100
AcDbCircle
 10
861.6959066656713
 20
131.9471808476868
 30
0.0
 40
0.19998
  0
LINE
  5
35B
330
1F
100
AcDbEntity
  8
GR1_01
  6
一点鎖線
 62
     7
100
AcDbLine
 10
762.9661756438089
 20
169.3472208476868
 30
0.0
 11
766.0228686671829
 21
169.3472208476868
 31
0.0
  0
LINE
  5
35C
330
1F
100
AcDbEntity
  8
GR1_01
  6
一点鎖線
 62
     7
100
AcDbLine
 10
764.4945221554959
 20
167.8188743359998
 30
0.0
 11
764.4945221554959
 21
170.8755673593739
 31
0.0
  0
LINE
  5
35D
330
1F
100
AcDbEntity
  8
GR1_01
  6
一点鎖線
 62
     7
100
AcDbLine
 10
782.9661556438081
 20
149.3472408476867
 30
0.0
 11
786.022848667182
 21
149.3472408476867
 31
0.0
  0
LINE
  5
35E
330
1F
100
AcDbEntity
  8
GR1_01
  6
一点鎖線
 62
     7
100
AcDbLine
 10
784.494502155495
 20
147.8188943359997
 30
0.0
 11
784.494502155495
 21
150.8755873593737
 31
0.0
  0
LINE
  5
35F
330
1F
100
AcDbEntity
  8
GR1_01
  6
一点鎖線
 62
     7
100
AcDbLine
 10
762.9661756438089
 20
149.3472408476867
 30
0.0
 11
766.0228686671829
 21
149.3472408476867
 31
0.0
  0
LINE
  5
360
330
1F
100
AcDbEntity
  8
GR1_01
  6
一点鎖線
 62
     7
100
AcDbLine
 10
764.4945221554959
 20
147.8188943359997
 30
0.0
 11
764.4945221554959
 21
150.8755873593737
 31
0.0
  0
LINE
  5
361
330
1F
100
AcDbEntity
  8
GR1_01
 62
     7
100
AcDbLine
 10
877.0947914011249
 20
171.3823890270131
 30
0.0
 11
869.8760071130683
 21
177.5909441026656
 31
0.0
  0
INSERT
  5
362
330
1F
100
AcDbEntity
  8
GR1_01
 62
     7
100
AcDbBlockReference
  2
FXTIP_ARROW_S
 10
877.0947914011249
 20
171.3823890270131
 30
0.0
 41
2.0
 42
2.0
 50
319.3026413017677
  0
LINE
  5
363
330
1F
100
AcDbEntity
  8
GR1_01
 62
     7
100
AcDbLine
 10
869.8760071130683
 20
177.5909441026656
 30
0.0
 11
837.9760071130684
 21
177.5909441026656
 31
0.0
  0
TEXT
  5
364
330
1F
100
AcDbEntity
  8
GR1_01
 62
     7
100
AcDbText
 10
838.9759378099442
 20
177.99095703125
 30
0.0
 40
3.5
  1
デーハアンカー（２－８ｔ）
 41
0.7766233605223817
  7
FX_VECTOR
 72
     5
 11
868.8759371900559
 21
177.99095703125
 31
0.0
100
AcDbText
  0
LINE
  5
365
330
1F
100
AcDbEntity
  8
GR1_01
 62
     7
100
AcDbLine
 10
756.3988201625476
 20
179.4754387368835
 30
0.0
 11
750.0511862667812
 21
184.6834795553119
 31
0.0
  0
INSERT
  5
366
330
1F
100
AcDbEntity
  8
GR1_01
 62
     7
100
AcDbBlockReference
  2
FXTIP_ARROW_S
 10
756.3988201625476
 20
179.4754387368835
 30
0.0
 41
2.0
 42
2.0
 50
320.632161818425
  0
LINE
  5
367
330
1F
100
AcDbEntity
  8
GR1_01
 62
     7
100
AcDbLine
 10
750.0511862667812
 20
184.6834795553119
 30
0.0
 11
715.8511862667812
 21
184.6834795553119
 31
0.0
  0
TEXT
  5
368
330
1F
100
AcDbEntity
  8
GR1_01
 62
     7
100
AcDbText
 10
716.851094083786
 20
185.08349609375
 30
0.0
 40
3.5
  1
連結用インサート　４－Ｍ１６
 41
0.7759035983717585
  7
FX_VECTOR
 72
     5
 11
749.051093416214
 21
185.08349609375
 31
0.0
100
AcDbText
  0
ENDSEC
  0
SECTION
  2
OBJECTS
  0
DICTIONARY
  5
C
330
0
100
AcDbDictionary
281
     1
  3
ACAD_DETAILVIEWSTYLE
350
3A6
  3
ACAD_GROUP
350
D
  3
ACAD_LAYOUT
350
1A
  3
ACAD_MATERIAL
350
43
  3
ACAD_MLEADERSTYLE
350
3A5
  3
ACAD_MLINESTYLE
350
17
  3
ACAD_PLOTSETTINGS
350
19
  3
ACAD_PLOTSTYLENAME
350
E
  3
ACAD_SCALELIST
350
47
  3
ACAD_SECTIONVIEWSTYLE
350
3A7
  3
ACAD_TABLESTYLE
350
3A4
  3
ACAD_VISUALSTYLE
350
2A
  3
AcDbVariableDictionary
350
36B
  0
DICTIONARY
  5
369
330
8
100
AcDbDictionary
280
     1
281
     1
  3
ACAD_XREC_ROUNDTRIP
360
36A
  0
DICTIONARY
  5
3A6
102
{ACAD_REACTORS
330
C
102
}
330
C
100
AcDbDictionary
281
     1
  0
DICTIONARY
  5
D
102
{ACAD_REACTORS
330
C
102
}
330
C
100
AcDbDictionary
281
     1
  0
DICTIONARY
  5
1A
102
{ACAD_REACTORS
330
C
102
}
330
C
100
AcDbDictionary
281
     1
  3
Layout1
350
1E
  3
Layout2
350
26
  3
Model
350
22
  0
DICTIONARY
  5
43
102
{ACAD_REACTORS
330
C
102
}
330
C
100
AcDbDictionary
281
     1
  3
ByBlock
350
45
  3
ByLayer
350
44
  3
Global
350
46
  0
DICTIONARY
  5
3A5
102
{ACAD_REACTORS
330
C
102
}
330
C
100
AcDbDictionary
281
     1
  0
DICTIONARY
  5
17
102
{ACAD_REACTORS
330
C
102
}
330
C
100
AcDbDictionary
281
     1
  3
Standard
350
18
  0
DICTIONARY
  5
19
102
{ACAD_REACTORS
330
C
102
}
330
C
100
AcDbDictionary
281
     1
  0
ACDBDICTIONARYWDFLT
  5
E
102
{ACAD_REACTORS
330
C
102
}
330
C
100
AcDbDictionary
281
     1
  3
Normal
350
F
100
AcDbDictionaryWithDefault
340
F
  0
DICTIONARY
  5
47
102
{ACAD_REACTORS
330
C
102
}
330
C
100
AcDbDictionary
281
     1
  3
A0
350
48
  3
A1
350
49
  3
A2
350
4A
  3
A3
350
4B
  3
A4
350
4C
  3
A5
350
4D
  3
A6
350
4E
  3
A7
350
4F
  3
A8
350
50
  3
A9
350
51
  3
B0
350
52
  3
B1
350
53
  3
B2
350
54
  3
B3
350
55
  3
B4
350
56
  3
B5
350
57
  3
B6
350
58
  3
B7
350
59
  3
B8
350
5A
  3
B9
350
5B
  3
C0
350
5C
  3
C1
350
5D
  3
C2
350
5E
  3
C3
350
5F
  3
C4
350
60
  3
C5
350
61
  3
C6
350
62
  3
C7
350
63
  3
C8
350
64
  3
C9
350
65
  3
D0
350
66
  3
D1
350
67
  3
D2
350
68
  0
DICTIONARY
  5
3A7
102
{ACAD_REACTORS
330
C
102
}
330
C
100
AcDbDictionary
281
     1
  0
DICTIONARY
  5
3A4
102
{ACAD_REACTORS
330
C
102
}
330
C
100
AcDbDictionary
281
     1
  0
DICTIONARY
  5
2A
102
{ACAD_REACTORS
330
C
102
}
330
C
100
AcDbDictionary
281
     1
  3
2dWireframe
350
2F
  3
Basic
350
32
  3
Brighten
350
36
  3
ColorChange
350
3A
  3
Conceptual
350
34
  3
Dim
350
35
  3
EdgeColorOff
350
3D
  3
Facepattern
350
39
  3
Flat
350
2B
  3
FlatWithEdges
350
2C
  3
Gouraud
350
2D
  3
GouraudWithEdges
350
2E
  3
Hidden
350
31
  3
JitterOff
350
3B
  3
Linepattern
350
38
  3
OverhangOff
350
3C
  3
Realistic
350
33
  3
Shaded
350
42
  3
Shaded with edges
350
41
  3
Shades of Gray
350
3E
  3
Sketchy
350
3F
  3
Thicken
350
37
  3
Wireframe
350
30
  3
X-Ray
350
40
  0
DICTIONARY
  5
36B
102
{ACAD_REACTORS
330
C
102
}
330
C
100
AcDbDictionary
281
     1
  3
CANNOSCALE
350
36C
  3
MSLTSCALE
350
36D
  0
XRECORD
  5
36A
102
{ACAD_REACTORS
330
369
102
}
330
369
100
AcDbXrecord
280
     1
102
VTR_0.000_0.000_1.000_1.000_GRIDDISPLAY
 70
     3
102
VTR_0.000_0.000_1.000_1.000_GRIDMAJOR
 70
     5
102
VTR_0.000_0.000_1.000_1.000_DEFAULTLIGHTING
280
     1
102
VTR_0.000_0.000_1.000_1.000_DEFAULTLIGHTINGTYPE
 70
     1
102
VTR_0.000_0.000_1.000_1.000_BRIGHTNESS
141
0.0
102
VTR_0.000_0.000_1.000_1.000_CONTRAST
142
0.0
  0
LAYOUT
  5
1E
102
{ACAD_REACTORS
330
1A
102
}
330
1A
100
AcDbPlotSettings
  1

  2
none_device
  4

  6

 40
0.0
 41
0.0
 42
0.0
 43
0.0
 44
0.0
 45
0.0
 46
0.0
 47
0.0
 48
0.0
 49
0.0
140
0.0
141
0.0
142
1.0
143
1.0
 70
   688
 72
     1
 73
     0
 74
     5
  7

 75
    16
 76
     0
 77
     2
 78
   300
147
1.0
148
0.0
149
0.0
100
AcDbLayout
  1
Layout1
 70
     1
 71
     1
 10
0.0
 20
0.0
 11
420.0
 21
297.0
 12
0.0
 22
0.0
 32
0.0
 14
1.000000000000000E+20
 24
1.000000000000000E+20
 34
1.000000000000000E+20
 15
-1.000000000000000E+20
 25
-1.000000000000000E+20
 35
-1.000000000000000E+20
146
0.0
 13
0.0
 23
0.0
 33
0.0
 16
1.0
 26
0.0
 36
0.0
 17
0.0
 27
1.0
 37
0.0
 76
     0
330
1B
  0
LAYOUT
  5
26
102
{ACAD_REACTORS
330
1A
102
}
330
1A
100
AcDbPlotSettings
  1

  2
none_device
  4

  6

 40
0.0
 41
0.0
 42
0.0
 43
0.0
 44
0.0
 45
0.0
 46
0.0
 47
0.0
 48
0.0
 49
0.0
140
0.0
141
0.0
142
1.0
143
1.0
 70
   688
 72
     1
 73
     0
 74
     5
  7

 75
    16
 76
     0
 77
     2
 78
   300
147
1.0
148
0.0
149
0.0
100
AcDbLayout
  1
Layout2
 70
     1
 71
     2
 10
0.0
 20
0.0
 11
0.0
 21
0.0
 12
0.0
 22
0.0
 32
0.0
 14
0.0
 24
0.0
 34
0.0
 15
0.0
 25
0.0
 35
0.0
146
0.0
 13
0.0
 23
0.0
 33
0.0
 16
1.0
 26
0.0
 36
0.0
 17
0.0
 27
1.0
 37
0.0
 76
     0
330
23
  0
LAYOUT
  5
22
102
{ACAD_REACTORS
330
1A
102
}
330
1A
100
AcDbPlotSettings
  1

  2
none_device
  4
Letter_(8.50_x_11.00_Inches)
  6

 40
6.35
 41
6.35
 42
6.35000508
 43
6.35000508
 44
215.9
 45
279.4
 46
0.0
 47
0.0
 48
0.0
 49
0.0
140
0.0
141
0.0
142
1.0
143
1.0
 70
  1712
 72
     1
 73
     0
 74
     0
  7

 75
     0
 76
     0
 77
     2
 78
   300
147
1.0
148
0.0
149
0.0
100
AcDbLayout
  1
Model
 70
     1
 71
     0
 10
591.7209567771588
 20
8.110360254358852
 11
962.9709641969546
 21
270.610365500679
 12
591.7209567771588
 22
8.110360254358852
 32
0.0
 14
591.7209567771588
 24
8.110360254358852
 34
0.0
 15
962.9709641969546
 25
270.610365500679
 35
0.0
146
0.0
 13
0.0
 23
0.0
 33
0.0
 16
1.0
 26
0.0
 36
0.0
 17
0.0
 27
1.0
 37
0.0
 76
     0
330
1F
331
29
  0
MATERIAL
  5
45
102
{ACAD_REACTORS
330
43
102
}
102
{ACAD_XDICTIONARY
360
3A0
102
}
330
43
100
AcDbMaterial
  1
ByBlock
  0
MATERIAL
  5
44
102
{ACAD_REACTORS
330
43
102
}
102
{ACAD_XDICTIONARY
360
39E
102
}
330
43
100
AcDbMaterial
  1
ByLayer
  0
MATERIAL
  5
46
102
{ACAD_REACTORS
330
43
102
}
102
{ACAD_XDICTIONARY
360
3A2
102
}
330
43
100
AcDbMaterial
  1
Global
  0
MLINESTYLE
  5
18
102
{ACAD_REACTORS
330
17
102
}
330
17
100
AcDbMlineStyle
  2
Standard
 70
     0
  3

 62
   256
 51
90.0
 52
90.0
 71
     2
 49
0.5
 62
   256
  6
BYLAYER
 49
-0.5
 62
   256
  6
BYLAYER
  0
ACDBPLACEHOLDER
  5
F
102
{ACAD_REACTORS
330
E
102
}
330
E
  0
SCALE
  5
48
102
{ACAD_REACTORS
330
47
102
}
330
47
100
AcDbScale
 70
     0
300
1:1
140
1.0
141
1.0
290
     1
  0
SCALE
  5
49
102
{ACAD_REACTORS
330
47
102
}
330
47
100
AcDbScale
 70
     0
300
1:2
140
1.0
141
2.0
290
     0
  0
SCALE
  5
4A
102
{ACAD_REACTORS
330
47
102
}
330
47
100
AcDbScale
 70
     0
300
1:4
140
1.0
141
4.0
290
     0
  0
SCALE
  5
4B
102
{ACAD_REACTORS
330
47
102
}
330
47
100
AcDbScale
 70
     0
300
1:5
140
1.0
141
5.0
290
     0
  0
SCALE
  5
4C
102
{ACAD_REACTORS
330
47
102
}
330
47
100
AcDbScale
 70
     0
300
1:8
140
1.0
141
8.0
290
     0
  0
SCALE
  5
4D
102
{ACAD_REACTORS
330
47
102
}
330
47
100
AcDbScale
 70
     0
300
1:10
140
1.0
141
10.0
290
     0
  0
SCALE
  5
4E
102
{ACAD_REACTORS
330
47
102
}
330
47
100
AcDbScale
 70
     0
300
1:16
140
1.0
141
16.0
290
     0
  0
SCALE
  5
4F
102
{ACAD_REACTORS
330
47
102
}
330
47
100
AcDbScale
 70
     0
300
1:20
140
1.0
141
20.0
290
     0
  0
SCALE
  5
50
102
{ACAD_REACTORS
330
47
102
}
330
47
100
AcDbScale
 70
     0
300
1:30
140
1.0
141
30.0
290
     0
  0
SCALE
  5
51
102
{ACAD_REACTORS
330
47
102
}
330
47
100
AcDbScale
 70
     0
300
1:40
140
1.0
141
40.0
290
     0
  0
SCALE
  5
52
102
{ACAD_REACTORS
330
47
102
}
330
47
100
AcDbScale
 70
     0
300
1:50
140
1.0
141
50.0
290
     0
  0
SCALE
  5
53
102
{ACAD_REACTORS
330
47
102
}
330
47
100
AcDbScale
 70
     0
300
1:100
140
1.0
141
100.0
290
     0
  0
SCALE
  5
54
102
{ACAD_REACTORS
330
47
102
}
330
47
100
AcDbScale
 70
     0
300
2:1
140
2.0
141
1.0
290
     0
  0
SCALE
  5
55
102
{ACAD_REACTORS
330
47
102
}
330
47
100
AcDbScale
 70
     0
300
4:1
140
4.0
141
1.0
290
     0
  0
SCALE
  5
56
102
{ACAD_REACTORS
330
47
102
}
330
47
100
AcDbScale
 70
     0
300
8:1
140
8.0
141
1.0
290
     0
  0
SCALE
  5
57
102
{ACAD_REACTORS
330
47
102
}
330
47
100
AcDbScale
 70
     0
300
10:1
140
10.0
141
1.0
290
     0
  0
SCALE
  5
58
102
{ACAD_REACTORS
330
47
102
}
330
47
100
AcDbScale
 70
     0
300
100:1
140
100.0
141
1.0
290
     0
  0
SCALE
  5
59
102
{ACAD_REACTORS
330
47
102
}
330
47
100
AcDbScale
 70
     0
300
1/128" = 1'-0"
140
0.0078125
141
12.0
290
     0
  0
SCALE
  5
5A
102
{ACAD_REACTORS
330
47
102
}
330
47
100
AcDbScale
 70
     0
300
1/64" = 1'-0"
140
0.015625
141
12.0
290
     0
  0
SCALE
  5
5B
102
{ACAD_REACTORS
330
47
102
}
330
47
100
AcDbScale
 70
     0
300
1/32" = 1'-0"
140
0.03125
141
12.0
290
     0
  0
SCALE
  5
5C
102
{ACAD_REACTORS
330
47
102
}
330
47
100
AcDbScale
 70
     0
300
1/16" = 1'-0"
140
0.0625
141
12.0
290
     0
  0
SCALE
  5
5D
102
{ACAD_REACTORS
330
47
102
}
330
47
100
AcDbScale
 70
     0
300
3/32" = 1'-0"
140
0.09375
141
12.0
290
     0
  0
SCALE
  5
5E
102
{ACAD_REACTORS
330
47
102
}
330
47
100
AcDbScale
 70
     0
300
1/8" = 1'-0"
140
0.125
141
12.0
290
     0
  0
SCALE
  5
5F
102
{ACAD_REACTORS
330
47
102
}
330
47
100
AcDbScale
 70
     0
300
3/16" = 1'-0"
140
0.1875
141
12.0
290
     0
  0
SCALE
  5
60
102
{ACAD_REACTORS
330
47
102
}
330
47
100
AcDbScale
 70
     0
300
1/4" = 1'-0"
140
0.25
141
12.0
290
     0
  0
SCALE
  5
61
102
{ACAD_REACTORS
330
47
102
}
330
47
100
AcDbScale
 70
     0
300
3/8" = 1'-0"
140
0.375
141
12.0
290
     0
  0
SCALE
  5
62
102
{ACAD_REACTORS
330
47
102
}
330
47
100
AcDbScale
 70
     0
300
1/2" = 1'-0"
140
0.5
141
12.0
290
     0
  0
SCALE
  5
63
102
{ACAD_REACTORS
330
47
102
}
330
47
100
AcDbScale
 70
     0
300
3/4" = 1'-0"
140
0.75
141
12.0
290
     0
  0
SCALE
  5
64
102
{ACAD_REACTORS
330
47
102
}
330
47
100
AcDbScale
 70
     0
300
1" = 1'-0"
140
1.0
141
12.0
290
     0
  0
SCALE
  5
65
102
{ACAD_REACTORS
330
47
102
}
330
47
100
AcDbScale
 70
     0
300
1-1/2" = 1'-0"
140
1.5
141
12.0
290
     0
  0
SCALE
  5
66
102
{ACAD_REACTORS
330
47
102
}
330
47
100
AcDbScale
 70
     0
300
3" = 1'-0"
140
3.0
141
12.0
290
     0
  0
SCALE
  5
67
102
{ACAD_REACTORS
330
47
102
}
330
47
100
AcDbScale
 70
     0
300
6" = 1'-0"
140
6.0
141
12.0
290
     0
  0
SCALE
  5
68
102
{ACAD_REACTORS
330
47
102
}
330
47
100
AcDbScale
 70
     0
300
1'-0" = 1'-0"
140
12.0
141
12.0
290
     0
  0
VISUALSTYLE
  5
2F
102
{ACAD_REACTORS
330
2A
102
}
102
{ACAD_XDICTIONARY
360
376
102
}
330
2A
100
AcDbVisualStyle
  2
2dWireframe
 70
     4
 71
     0
 72
     2
 73
     0
 90
        0
 40
0.6
 41
30.0
 62
     5
 63
     7
421
 16777215
 74
     1
 91
        4
 64
     7
 65
   257
 75
     1
175
     1
 42
1.0
 92
        0
 66
   257
 43
1.0
 76
     1
 77
     6
 78
     2
 67
     7
 79
     5
170
     0
171
     0
290
     0
174
     0
 93
        1
 44
0.0
173
     0
291
     0
 45
0.0
1001
ACAD
1000
AcDbSavedByObjectVersion
1070
     0
  0
VISUALSTYLE
  5
32
102
{ACAD_REACTORS
330
2A
102
}
102
{ACAD_XDICTIONARY
360
37C
102
}
330
2A
100
AcDbVisualStyle
  2
Basic
 70
     7
 71
     1
 72
     0
 73
     1
 90
        0
 40
0.6
 41
30.0
 62
     5
 63
     7
421
 16777215
 74
     0
 91
        4
 64
     7
 65
   257
 75
     1
175
     1
 42
1.0
 92
        8
 66
     7
 43
1.0
 76
     1
 77
     6
 78
     2
 67
     7
 79
     5
170
     0
171
     0
290
     0
174
     0
 93
        1
 44
0.0
173
     0
291
     1
 45
0.0
1001
ACAD
1000
AcDbSavedByObjectVersion
1070
     0
  0
VISUALSTYLE
  5
36
102
{ACAD_REACTORS
330
2A
102
}
102
{ACAD_XDICTIONARY
360
384
102
}
330
2A
100
AcDbVisualStyle
  2
Brighten
 70
    12
 71
     2
 72
     2
 73
     0
 90
        0
 40
0.6
 41
30.0
 62
     5
 63
     7
421
 16777215
 74
     1
 91
        4
 64
     7
 65
   257
 75
     1
175
     1
 42
1.0
 92
        8
 66
     7
 43
1.0
 76
     1
 77
     6
 78
     2
 67
     7
 79
     5
170
     0
171
     0
290
     0
174
     0
 93
        1
 44
50.0
173
     0
291
     1
 45
0.0
1001
ACAD
1000
AcDbSavedByObjectVersion
1070
     0
  0
VISUALSTYLE
  5
3A
102
{ACAD_REACTORS
330
2A
102
}
102
{ACAD_XDICTIONARY
360
38C
102
}
330
2A
100
AcDbVisualStyle
  2
ColorChange
 70
    16
 71
     2
 72
     2
 73
     3
 90
        0
 40
0.6
 41
30.0
 62
     5
 63
     8
421
  8421504
 74
     1
 91
        4
 64
     7
 65
   257
 75
     1
175
     1
 42
1.0
 92
        8
 66
     8
424
  8421504
 43
1.0
 76
     1
 77
     6
 78
     2
 67
     7
 79
     5
170
     0
171
     0
290
     0
174
     0
 93
        1
 44
0.0
173
     0
291
     1
 45
0.0
1001
ACAD
1000
AcDbSavedByObjectVersion
1070
     0
  0
VISUALSTYLE
  5
34
102
{ACAD_REACTORS
330
2A
102
}
102
{ACAD_XDICTIONARY
360
380
102
}
330
2A
100
AcDbVisualStyle
  2
Conceptual
 70
     9
 71
     3
 72
     2
 73
     0
 90
        0
 40
0.6
 41
30.0
 62
     5
 63
     7
421
 16777215
 74
     2
 91
        2
 64
     7
 65
   257
 75
     1
175
     1
 42
179.0
 92
        8
 66
     7
 43
1.0
 76
     1
 77
     6
 78
     2
 67
     7
 79
     3
170
     0
171
     0
290
     0
174
     0
 93
        1
 44
0.0
173
     0
291
     0
 45
0.0
1001
ACAD
1000
AcDbSavedByObjectVersion
1070
     0
  0
VISUALSTYLE
  5
35
102
{ACAD_REACTORS
330
2A
102
}
102
{ACAD_XDICTIONARY
360
382
102
}
330
2A
100
AcDbVisualStyle
  2
Dim
 70
    11
 71
     2
 72
     2
 73
     0
 90
        0
 40
0.6
 41
30.0
 62
     5
 63
     7
421
 16777215
 74
     1
 91
        4
 64
     7
 65
   257
 75
     1
175
     1
 42
1.0
 92
        8
 66
     7
 43
1.0
 76
     1
 77
     6
 78
     2
 67
     7
 79
     5
170
     0
171
     0
290
     0
174
     0
 93
        1
 44
-50.0
173
     0
291
     1
 45
0.0
1001
ACAD
1000
AcDbSavedByObjectVersion
1070
     0
  0
VISUALSTYLE
  5
3D
102
{ACAD_REACTORS
330
2A
102
}
102
{ACAD_XDICTIONARY
360
392
102
}
330
2A
100
AcDbVisualStyle
  2
EdgeColorOff
 70
    22
 71
     2
 72
     2
 73
     0
 90
        0
 40
0.6
 41
30.0
 62
     5
 63
     7
421
 16777215
 74
     1
 91
        4
 64
     7
 65
   257
 75
     1
175
     1
 42
1.0
 92
        8
 66
     7
 43
1.0
 76
     1
 77
     6
 78
     2
 67
     7
 79
     5
170
     0
171
     0
290
     0
174
     0
 93
        1
 44
0.0
173
     0
291
     1
 45
0.0
1001
ACAD
1000
AcDbSavedByObjectVersion
1070
     0
  0
VISUALSTYLE
  5
39
102
{ACAD_REACTORS
330
2A
102
}
102
{ACAD_XDICTIONARY
360
38A
102
}
330
2A
100
AcDbVisualStyle
  2
Facepattern
 70
    15
 71
     2
 72
     2
 73
     0
 90
        0
 40
0.6
 41
30.0
 62
     5
 63
     7
421
 16777215
 74
     1
 91
        4
 64
     7
 65
   257
 75
     1
175
     1
 42
1.0
 92
        8
 66
     7
 43
1.0
 76
     1
 77
     6
 78
     2
 67
     7
 79
     5
170
     0
171
     0
290
     0
174
     0
 93
        1
 44
0.0
173
     0
291
     1
 45
0.0
1001
ACAD
1000
AcDbSavedByObjectVersion
1070
     0
  0
VISUALSTYLE
  5
2B
102
{ACAD_REACTORS
330
2A
102
}
102
{ACAD_XDICTIONARY
360
36E
102
}
330
2A
100
AcDbVisualStyle
  2
Flat
 70
     0
 71
     2
 72
     1
 73
     1
 90
        2
 40
0.6
 41
30.0
 62
     5
 63
     7
421
 16777215
 74
     0
 91
        0
 64
     7
 65
   257
 75
     1
175
     1
 42
1.0
 92
        8
 66
     7
 43
1.0
 76
     1
 77
     6
 78
     2
 67
     7
 79
     5
170
     0
171
     0
290
     0
174
     0
 93
       13
 44
0.0
173
     0
291
     1
 45
0.0
1001
ACAD
1000
AcDbSavedByObjectVersion
1070
     0
  0
VISUALSTYLE
  5
2C
102
{ACAD_REACTORS
330
2A
102
}
102
{ACAD_XDICTIONARY
360
370
102
}
330
2A
100
AcDbVisualStyle
  2
FlatWithEdges
 70
     1
 71
     2
 72
     1
 73
     1
 90
        2
 40
0.6
 41
30.0
 62
     5
 63
     7
421
 16777215
 74
     1
 91
        0
 64
     7
 65
   257
 75
     1
175
     1
 42
1.0
 92
        0
 66
   257
 43
1.0
 76
     1
 77
     6
 78
     2
 67
     7
 79
     5
170
     0
171
     0
290
     0
174
     0
 93
       13
 44
0.0
173
     0
291
     1
 45
0.0
1001
ACAD
1000
AcDbSavedByObjectVersion
1070
     0
  0
VISUALSTYLE
  5
2D
102
{ACAD_REACTORS
330
2A
102
}
102
{ACAD_XDICTIONARY
360
372
102
}
330
2A
100
AcDbVisualStyle
  2
Gouraud
 70
     2
 71
     2
 72
     2
 73
     1
 90
        2
 40
0.6
 41
30.0
 62
     5
 63
     7
421
 16777215
 74
     0
 91
        0
 64
     7
 65
   257
 75
     1
175
     1
 42
1.0
 92
        0
 66
     7
 43
1.0
 76
     1
 77
     6
 78
     2
 67
     7
 79
     5
170
     0
171
     0
290
     0
174
     0
 93
       13
 44
0.0
173
     0
291
     1
 45
0.0
1001
ACAD
1000
AcDbSavedByObjectVersion
1070
     0
  0
VISUALSTYLE
  5
2E
102
{ACAD_REACTORS
330
2A
102
}
102
{ACAD_XDICTIONARY
360
374
102
}
330
2A
100
AcDbVisualStyle
  2
GouraudWithEdges
 70
     3
 71
     2
 72
     2
 73
     1
 90
        2
 40
0.6
 41
30.0
 62
     5
 63
     7
421
 16777215
 74
     1
 91
        0
 64
     7
 65
   257
 75
     1
175
     1
 42
1.0
 92
        0
 66
   257
 43
1.0
 76
     1
 77
     6
 78
     2
 67
     7
 79
     5
170
     0
171
     0
290
     0
174
     0
 93
       13
 44
0.0
173
     0
291
     1
 45
0.0
1001
ACAD
1000
AcDbSavedByObjectVersion
1070
     0
  0
VISUALSTYLE
  5
31
102
{ACAD_REACTORS
330
2A
102
}
102
{ACAD_XDICTIONARY
360
37A
102
}
330
2A
100
AcDbVisualStyle
  2
Hidden
 70
     6
 71
     1
 72
     2
 73
     2
 90
        0
 40
0.6
 41
30.0
 62
     5
 63
     7
421
 16777215
 74
     2
 91
        2
 64
     7
 65
   257
 75
     2
175
     1
 42
40.0
 92
        0
 66
   257
 43
1.0
 76
     1
 77
     6
 78
     2
 67
     7
 79
     3
170
     0
171
     0
290
     0
174
     0
 93
        1
 44
0.0
173
     0
291
     0
 45
0.0
1001
ACAD
1000
AcDbSavedByObjectVersion
1070
     0
  0
VISUALSTYLE
  5
3B
102
{ACAD_REACTORS
330
2A
102
}
102
{ACAD_XDICTIONARY
360
38E
102
}
330
2A
100
AcDbVisualStyle
  2
JitterOff
 70
    20
 71
     2
 72
     2
 73
     0
 90
        0
 40
0.6
 41
30.0
 62
     5
 63
     7
421
 16777215
 74
     1
 91
        4
 64
     7
 65
   257
 75
     1
175
     1
 42
1.0
 92
       10
 66
     7
 43
1.0
 76
     1
 77
     6
 78
     2
 67
     7
 79
     5
170
     0
171
     0
290
     0
174
     0
 93
        1
 44
0.0
173
     0
291
     1
 45
0.0
1001
ACAD
1000
AcDbSavedByObjectVersion
1070
     0
  0
VISUALSTYLE
  5
38
102
{ACAD_REACTORS
330
2A
102
}
102
{ACAD_XDICTIONARY
360
388
102
}
330
2A
100
AcDbVisualStyle
  2
Linepattern
 70
    14
 71
     2
 72
     2
 73
     0
 90
        0
 40
0.6
 41
30.0
 62
     5
 63
     7
421
 16777215
 74
     1
 91
        4
 64
     7
 65
   257
 75
     7
175
     7
 42
1.0
 92
        8
 66
     7
 43
1.0
 76
     1
 77
     6
 78
     2
 67
     7
 79
     5
170
     0
171
     0
290
     0
174
     0
 93
        1
 44
0.0
173
     0
291
     1
 45
0.0
1001
ACAD
1000
AcDbSavedByObjectVersion
1070
     0
  0
VISUALSTYLE
  5
3C
102
{ACAD_REACTORS
330
2A
102
}
102
{ACAD_XDICTIONARY
360
390
102
}
330
2A
100
AcDbVisualStyle
  2
OverhangOff
 70
    21
 71
     2
 72
     2
 73
     0
 90
        0
 40
0.6
 41
30.0
 62
     5
 63
     7
421
 16777215
 74
     1
 91
        4
 64
     7
 65
   257
 75
     1
175
     1
 42
1.0
 92
        9
 66
     7
 43
1.0
 76
     1
 77
     6
 78
     2
 67
     7
 79
     5
170
     0
171
     0
290
     0
174
     0
 93
        1
 44
0.0
173
     0
291
     1
 45
0.0
1001
ACAD
1000
AcDbSavedByObjectVersion
1070
     0
  0
VISUALSTYLE
  5
33
102
{ACAD_REACTORS
330
2A
102
}
102
{ACAD_XDICTIONARY
360
37E
102
}
330
2A
100
AcDbVisualStyle
  2
Realistic
 70
     8
 71
     2
 72
     3
 73
     0
 90
        2
 40
0.6
 41
30.0
 62
     5
 63
     7
421
 16777215
 74
     0
 91
        0
 64
     7
 65
   257
 75
     1
175
     1
 42
1.0
 92
        8
 66
   257
 43
1.0
 76
     1
 77
     6
 78
     2
 67
     7
 79
     3
170
     0
171
     0
290
     0
174
     0
 93
       13
 44
0.0
173
     0
291
     0
 45
0.0
1001
ACAD
1000
AcDbSavedByObjectVersion
1070
     0
  0
VISUALSTYLE
  5
42
102
{ACAD_REACTORS
330
2A
102
}
102
{ACAD_XDICTIONARY
360
39C
102
}
330
2A
100
AcDbVisualStyle
  2
Shaded
 70
    27
 71
     2
 72
     2
 73
     1
 90
        2
 40
0.6
 41
30.0
 62
     5
 63
     7
421
 16777215
 74
     0
 91
        4
 64
     7
 65
   257
 75
     1
175
     1
 42
1.0
 92
        8
 66
   257
 43
1.0
 76
     1
 77
     6
 78
     2
 67
     8
425
  7895160
 79
     3
170
     0
171
     0
290
     0
174
     0
 93
        5
 44
0.0
173
     0
291
     0
 45
0.0
1001
ACAD
1000
AcDbSavedByObjectVersion
1070
     0
  0
VISUALSTYLE
  5
41
102
{ACAD_REACTORS
330
2A
102
}
102
{ACAD_XDICTIONARY
360
39A
102
}
330
2A
100
AcDbVisualStyle
  2
Shaded with edges
 70
    26
 71
     2
 72
     2
 73
     1
 90
        2
 40
0.6
 41
30.0
 62
     5
 63
     7
421
 16777215
 74
     1
 91
       10
 64
     7
 65
   257
 75
     2
175
     1
 42
1.0
 92
        8
 66
   257
 43
1.0
 76
     1
 77
     6
 78
     2
 67
     7
 79
     3
170
     0
171
     0
290
     0
174
     0
 93
        5
 44
0.0
173
     0
291
     0
 45
0.0
1001
ACAD
1000
AcDbSavedByObjectVersion
1070
     0
  0
VISUALSTYLE
  5
3E
102
{ACAD_REACTORS
330
2A
102
}
102
{ACAD_XDICTIONARY
360
394
102
}
330
2A
100
AcDbVisualStyle
  2
Shades of Gray
 70
    23
 71
     2
 72
     2
 73
     3
 90
        0
 40
0.6
 41
30.0
 62
     5
 63
     7
421
 16777215
 74
     2
 91
        2
 64
     7
 65
     7
 75
     1
175
     1
 42
40.0
 92
        8
 66
     7
 43
1.0
 76
     1
 77
     6
 78
     2
 67
     7
 79
     3
170
     0
171
     0
290
     0
174
     0
 93
        1
 44
0.0
173
     0
291
     0
 45
0.0
1001
ACAD
1000
AcDbSavedByObjectVersion
1070
     0
  0
VISUALSTYLE
  5
3F
102
{ACAD_REACTORS
330
2A
102
}
102
{ACAD_XDICTIONARY
360
396
102
}
330
2A
100
AcDbVisualStyle
  2
Sketchy
 70
    24
 71
     1
 72
     2
 73
     2
 90
        0
 40
0.6
 41
30.0
 62
     5
 63
     7
421
 16777215
 74
     2
 91
        2
 64
     7
 65
     7
 75
     1
175
     1
 42
40.0
 92
       11
 66
     7
 43
1.0
 76
     1
 77
     6
 78
     2
 67
     7
 79
     6
170
     0
171
     0
290
     0
174
     0
 93
        1
 44
0.0
173
     0
291
     0
 45
0.0
1001
ACAD
1000
AcDbSavedByObjectVersion
1070
     0
  0
VISUALSTYLE
  5
37
102
{ACAD_REACTORS
330
2A
102
}
102
{ACAD_XDICTIONARY
360
386
102
}
330
2A
100
AcDbVisualStyle
  2
Thicken
 70
    13
 71
     2
 72
     2
 73
     0
 90
        0
 40
0.6
 41
30.0
 62
     5
 63
     7
421
 16777215
 74
     1
 91
        4
 64
     7
 65
   257
 75
     1
175
     1
 42
1.0
 92
       12
 66
     7
 43
1.0
 76
     1
 77
     6
 78
     2
 67
     7
 79
     5
170
     0
171
     0
290
     0
174
     0
 93
        1
 44
0.0
173
     0
291
     1
 45
0.0
1001
ACAD
1000
AcDbSavedByObjectVersion
1070
     0
  0
VISUALSTYLE
  5
30
102
{ACAD_REACTORS
330
2A
102
}
102
{ACAD_XDICTIONARY
360
378
102
}
330
2A
100
AcDbVisualStyle
  2
Wireframe
 70
     5
 71
     0
 72
     2
 73
     0
 90
        0
 40
0.6
 41
30.0
 62
     5
 63
     7
421
 16777215
 74
     1
 91
        4
 64
     7
 65
   257
 75
     1
175
     1
 42
1.0
 92
        0
 66
   257
 43
1.0
 76
     1
 77
     6
 78
     2
 67
     7
 79
     3
170
     0
171
     0
290
     0
174
     0
 93
        1
 44
0.0
173
     0
291
     0
 45
0.0
1001
ACAD
1000
AcDbSavedByObjectVersion
1070
     0
  0
VISUALSTYLE
  5
40
102
{ACAD_REACTORS
330
2A
102
}
102
{ACAD_XDICTIONARY
360
398
102
}
330
2A
100
AcDbVisualStyle
  2
X-Ray
 70
    25
 71
     2
 72
     2
 73
     1
 90
        1
 40
0.5
 41
30.0
 62
     5
 63
     7
421
 16777215
 74
     1
 91
        0
 64
     7
 65
   257
 75
     1
175
     1
 42
1.0
 92
        8
 66
     7
 43
1.0
 76
     1
 77
     6
 78
     2
 67
     7
 79
     3
170
     0
171
     0
290
     0
174
     0
 93
       13
 44
0.0
173
     0
291
     0
 45
0.0
1001
ACAD
1000
AcDbSavedByObjectVersion
1070
     0
  0
DICTIONARYVAR
  5
36C
102
{ACAD_REACTORS
330
36B
102
}
330
36B
100
DictionaryVariables
280
     0
  1
1:1
  0
DICTIONARYVAR
  5
36D
102
{ACAD_REACTORS
330
36B
102
}
330
36B
100
DictionaryVariables
280
     0
  1
1
  0
DICTIONARY
  5
3A0
330
45
100
AcDbDictionary
280
     1
281
     1
  3
ACAD_XREC_ROUNDTRIP
360
3A1
  0
DICTIONARY
  5
39E
330
44
100
AcDbDictionary
280
     1
281
     1
  3
ACAD_XREC_ROUNDTRIP
360
39F
  0
DICTIONARY
  5
3A2
330
46
100
AcDbDictionary
280
     1
281
     1
  3
ACAD_XREC_ROUNDTRIP
360
3A3
  0
DICTIONARY
  5
376
330
2F
100
AcDbDictionary
280
     1
281
     1
  3
ACAD_XREC_ROUNDTRIP
360
377
  0
DICTIONARY
  5
37C
330
32
100
AcDbDictionary
280
     1
281
     1
  3
ACAD_XREC_ROUNDTRIP
360
37D
  0
DICTIONARY
  5
384
330
36
100
AcDbDictionary
280
     1
281
     1
  3
ACAD_XREC_ROUNDTRIP
360
385
  0
DICTIONARY
  5
38C
330
3A
100
AcDbDictionary
280
     1
281
     1
  3
ACAD_XREC_ROUNDTRIP
360
38D
  0
DICTIONARY
  5
380
330
34
100
AcDbDictionary
280
     1
281
     1
  3
ACAD_XREC_ROUNDTRIP
360
381
  0
DICTIONARY
  5
382
330
35
100
AcDbDictionary
280
     1
281
     1
  3
ACAD_XREC_ROUNDTRIP
360
383
  0
DICTIONARY
  5
392
330
3D
100
AcDbDictionary
280
     1
281
     1
  3
ACAD_XREC_ROUNDTRIP
360
393
  0
DICTIONARY
  5
38A
330
39
100
AcDbDictionary
280
     1
281
     1
  3
ACAD_XREC_ROUNDTRIP
360
38B
  0
DICTIONARY
  5
36E
330
2B
100
AcDbDictionary
280
     1
281
     1
  3
ACAD_XREC_ROUNDTRIP
360
36F
  0
DICTIONARY
  5
370
330
2C
100
AcDbDictionary
280
     1
281
     1
  3
ACAD_XREC_ROUNDTRIP
360
371
  0
DICTIONARY
  5
372
330
2D
100
AcDbDictionary
280
     1
281
     1
  3
ACAD_XREC_ROUNDTRIP
360
373
  0
DICTIONARY
  5
374
330
2E
100
AcDbDictionary
280
     1
281
     1
  3
ACAD_XREC_ROUNDTRIP
360
375
  0
DICTIONARY
  5
37A
330
31
100
AcDbDictionary
280
     1
281
     1
  3
ACAD_XREC_ROUNDTRIP
360
37B
  0
DICTIONARY
  5
38E
330
3B
100
AcDbDictionary
280
     1
281
     1
  3
ACAD_XREC_ROUNDTRIP
360
38F
  0
DICTIONARY
  5
388
330
38
100
AcDbDictionary
280
     1
281
     1
  3
ACAD_XREC_ROUNDTRIP
360
389
  0
DICTIONARY
  5
390
330
3C
100
AcDbDictionary
280
     1
281
     1
  3
ACAD_XREC_ROUNDTRIP
360
391
  0
DICTIONARY
  5
37E
330
33
100
AcDbDictionary
280
     1
281
     1
  3
ACAD_XREC_ROUNDTRIP
360
37F
  0
DICTIONARY
  5
39C
330
42
100
AcDbDictionary
280
     1
281
     1
  3
ACAD_XREC_ROUNDTRIP
360
39D
  0
DICTIONARY
  5
39A
330
41
100
AcDbDictionary
280
     1
281
     1
  3
ACAD_XREC_ROUNDTRIP
360
39B
  0
DICTIONARY
  5
394
330
3E
100
AcDbDictionary
280
     1
281
     1
  3
ACAD_XREC_ROUNDTRIP
360
395
  0
DICTIONARY
  5
396
330
3F
100
AcDbDictionary
280
     1
281
     1
  3
ACAD_XREC_ROUNDTRIP
360
397
  0
DICTIONARY
  5
386
330
37
100
AcDbDictionary
280
     1
281
     1
  3
ACAD_XREC_ROUNDTRIP
360
387
  0
DICTIONARY
  5
378
330
30
100
AcDbDictionary
280
     1
281
     1
  3
ACAD_XREC_ROUNDTRIP
360
379
  0
DICTIONARY
  5
398
330
40
100
AcDbDictionary
280
     1
281
     1
  3
ACAD_XREC_ROUNDTRIP
360
399
  0
XRECORD
  5
3A1
102
{ACAD_REACTORS
330
3A0
102
}
330
3A0
100
AcDbXrecord
280
     1
102
MATERIAL
148
0.0
149
0.0
149
0.0
 93
        0
 94
      127
282
     0
 72
     1
 77
     1
171
     1
175
     1
179
     1
273
     0
  0
XRECORD
  5
39F
102
{ACAD_REACTORS
330
39E
102
}
330
39E
100
AcDbXrecord
280
     1
102
MATERIAL
148
0.0
149
0.0
149
0.0
 93
        0
 94
      127
282
     0
 72
     1
 77
     1
171
     1
175
     1
179
     1
273
     0
  0
XRECORD
  5
3A3
102
{ACAD_REACTORS
330
3A2
102
}
330
3A2
100
AcDbXrecord
280
     1
102
MATERIAL
148
0.0
149
0.0
149
0.0
 93
        0
 94
      127
282
     0
 72
     1
 77
     1
171
     1
175
     1
179
     1
273
     0
  0
XRECORD
  5
377
102
{ACAD_REACTORS
330
376
102
}
330
376
100
AcDbXrecord
280
     1
102
RTVSPropertyOp0
 70
     1
102
RTVSPropertyOp1
 70
     1
102
RTVSPropertyOp2
 70
     1
102
RTVSPropertyOp3
 70
     1
102
RTVSPropertyOp4
 70
     1
102
RTVSPropertyOp5
 70
     1
102
RTVSPropertyOp6
 70
     1
102
RTVSPropertyOp7
 70
     1
102
RTVSPropertyOp8
 70
     1
102
RTVSPropertyOp9
 70
     1
102
RTVSPropertyOp10
 70
     1
102
RTVSPropertyOp11
 70
     1
102
RTVSPropertyOp12
 70
     1
102
RTVSPropertyOp13
 70
     1
102
RTVSPropertyOp14
 70
     1
102
RTVSPropertyOp15
 70
     1
102
RTVSPropertyOp16
 70
     1
102
RTVSPropertyOp17
 70
     1
102
RTVSPropertyOp18
 70
     1
102
RTVSPropertyOp19
 70
     1
102
RTVSPropertyOp20
 70
     1
102
RTVSPropertyOp21
 70
     1
102
RTVSPropertyOp22
 70
     1
102
RTVSPropertyOp23
 70
     1
102
RTVSPropertyOp24
 70
     1
102
RTVSPropertyOp25
 70
     1
102
RTVSPropertyOp26
 70
     1
102
RTVSPropertyOp27
 70
     1
102
RTVSPropertyOp28
 70
     1
102
RTVSPropertyOp29
 70
     1
102
RTVSPropertyOp30
 70
     1
102
RTVSPropertyOp31
 70
     1
102
RTVSPropertyOp32
 70
     1
102
RTVSPropertyOp33
 70
     1
102
RTVSPropertyOp34
 70
     1
102
RTVSPropertyOp35
 70
     1
102
RTVSPropertyOp36
 70
     1
102
RTVSPropertyOp37
 70
     1
102
RTVSPropertyOp38
 70
     1
102
RTVSPropertyOp39
 70
     1
102
RTVSPropertyOp40
 70
     1
102
RTVSPropertyOp41
 70
     1
102
RTVSPropertyOp42
 70
     1
102
RTVSPropertyOp43
 70
     1
102
RTVSPropertyOp44
 70
     1
102
RTVSPropertyOp45
 70
     1
102
RTVSPropertyOp46
 70
     1
102
RTVSPropertyOp47
 70
     1
102
RTVSPropertyOp48
 70
     1
102
RTVSPropertyOp49
 70
     1
102
RTVSPropertyOp50
 70
     1
102
RTVSPropertyOp51
 70
     0
102
RTVSPropertyOp52
 70
     0
102
RTVSPropertyOp53
 70
     1
102
RTVSPropertyOp54
 70
     1
102
RTVSPropertyOp55
 70
     1
102
RTVSPropertyOp56
 70
     1
102
RTVSPropertyOp57
 70
     1
102
RTVSPost2010Prop28
280
     1
102
RTVSPost2010PropOp28
 70
     1
102
RTVSPost2010Prop29
280
     1
102
RTVSPost2010PropOp29
 70
     1
102
RTVSPost2010Prop30
280
     0
102
RTVSPost2010PropOp30
 70
     1
102
RTVSPost2010Prop31
280
     0
102
RTVSPost2010PropOp31
 70
     1
102
RTVSPost2010Prop32
280
     0
102
RTVSPost2010PropOp32
 70
     1
102
RTVSPost2010Prop33
280
     0
102
RTVSPost2010PropOp33
 70
     1
102
RTVSPost2010Prop34
280
     0
102
RTVSPost2010PropOp34
 70
     1
102
RTVSPost2010Prop35
280
     0
102
RTVSPost2010PropOp35
 70
     1
102
RTVSPost2010Prop36
280
     0
102
RTVSPost2010PropOp36
 70
     1
102
RTVSPost2010Prop37
 90
       50
102
RTVSPost2010PropOp37
 70
     1
102
RTVSPost2010Prop38
140
0.0
102
RTVSPost2010PropOp38
 70
     1
102
RTVSPost2010Prop39
140
1.0
102
RTVSPost2010PropOp39
 70
     1
102
RTVSPost2010Prop40
 90
        0
102
RTVSPost2010PropOp40
 70
     1
102
RTVSPost2010Prop41ColorIndex
 90
       18
102
RTVSPost2010Prop41ColorRGB
 90
        0
102
RTVSPost2010PropOp41
 70
     1
102
RTVSPost2010Prop42
 90
       50
102
RTVSPost2010PropOp42
 70
     1
102
RTVSPost2010Prop43
 90
        3
102
RTVSPost2010PropOp43
 70
     1
102
RTVSPost2010Prop44ColorIndex
 90
        5
102
RTVSPost2010Prop44ColorRGB
 90
      255
102
RTVSPost2010PropOp44
 70
     1
102
RTVSPost2010Prop45
280
     0
102
RTVSPost2010PropOp45
 70
     1
102
RTVSPost2010Prop46
 90
       50
102
RTVSPost2010PropOp46
 70
     1
102
RTVSPost2010Prop47
 90
       50
102
RTVSPost2010PropOp47
 70
     1
102
RTVSPost2010Prop48
 90
       50
102
RTVSPost2010PropOp48
 70
     1
102
RTVSPost2010Prop49
280
     0
102
RTVSPost2010PropOp49
 70
     1
102
RTVSPost2010Prop50
 90
       50
102
RTVSPost2010PropOp50
 70
     1
102
RTVSPost2010Prop51ColorIndex
 90
      256
102
RTVSPost2010Prop51ColorRGB
 90
-16777216
102
RTVSPost2010PropOp51
 70
     0
102
RTVSPost2010Prop52
140
1.0
102
RTVSPost2010PropOp52
 70
     0
102
RTVSPost2010Prop53
 90
        2
102
RTVSPost2010PropOp53
 70
     1
102
RTVSPost2010Prop54
  1
strokes_ogs.tif
102
RTVSPost2010PropOp54
 70
     1
102
RTVSPost2010Prop55
280
     0
102
RTVSPost2010PropOp55
 70
     1
102
RTVSPost2010Prop56
140
1.0
102
RTVSPost2010PropOp56
 70
     1
102
RTVSPost2010Prop57
140
1.0
102
RTVSPost2010PropOp57
 70
     1
  0
XRECORD
  5
37D
102
{ACAD_REACTORS
330
37C
102
}
330
37C
100
AcDbXrecord
280
     1
102
RTVSPropertyOp0
 70
     1
102
RTVSPropertyOp1
 70
     1
102
RTVSPropertyOp2
 70
     1
102
RTVSPropertyOp3
 70
     1
102
RTVSPropertyOp4
 70
     1
102
RTVSPropertyOp5
 70
     1
102
RTVSPropertyOp6
 70
     1
102
RTVSPropertyOp7
 70
     1
102
RTVSPropertyOp8
 70
     1
102
RTVSPropertyOp9
 70
     1
102
RTVSPropertyOp10
 70
     1
102
RTVSPropertyOp11
 70
     1
102
RTVSPropertyOp12
 70
     1
102
RTVSPropertyOp13
 70
     1
102
RTVSPropertyOp14
 70
     1
102
RTVSPropertyOp15
 70
     1
102
RTVSPropertyOp16
 70
     1
102
RTVSPropertyOp17
 70
     1
102
RTVSPropertyOp18
 70
     1
102
RTVSPropertyOp19
 70
     1
102
RTVSPropertyOp20
 70
     1
102
RTVSPropertyOp21
 70
     1
102
RTVSPropertyOp22
 70
     1
102
RTVSPropertyOp23
 70
     1
102
RTVSPropertyOp24
 70
     1
102
RTVSPropertyOp25
 70
     1
102
RTVSPropertyOp26
 70
     1
102
RTVSPropertyOp27
 70
     1
102
RTVSPropertyOp28
 70
     1
102
RTVSPropertyOp29
 70
     1
102
RTVSPropertyOp30
 70
     1
102
RTVSPropertyOp31
 70
     1
102
RTVSPropertyOp32
 70
     1
102
RTVSPropertyOp33
 70
     1
102
RTVSPropertyOp34
 70
     1
102
RTVSPropertyOp35
 70
     1
102
RTVSPropertyOp36
 70
     1
102
RTVSPropertyOp37
 70
     1
102
RTVSPropertyOp38
 70
     1
102
RTVSPropertyOp39
 70
     1
102
RTVSPropertyOp40
 70
     1
102
RTVSPropertyOp41
 70
     1
102
RTVSPropertyOp42
 70
     1
102
RTVSPropertyOp43
 70
     1
102
RTVSPropertyOp44
 70
     1
102
RTVSPropertyOp45
 70
     1
102
RTVSPropertyOp46
 70
     1
102
RTVSPropertyOp47
 70
     1
102
RTVSPropertyOp48
 70
     1
102
RTVSPropertyOp49
 70
     1
102
RTVSPropertyOp50
 70
     1
102
RTVSPropertyOp51
 70
     0
102
RTVSPropertyOp52
 70
     0
102
RTVSPropertyOp53
 70
     1
102
RTVSPropertyOp54
 70
     1
102
RTVSPropertyOp55
 70
     1
102
RTVSPropertyOp56
 70
     1
102
RTVSPropertyOp57
 70
     1
102
RTVSPost2010Prop28
280
     0
102
RTVSPost2010PropOp28
 70
     1
102
RTVSPost2010Prop29
280
     1
102
RTVSPost2010PropOp29
 70
     1
102
RTVSPost2010Prop30
280
     1
102
RTVSPost2010PropOp30
 70
     1
102
RTVSPost2010Prop31
280
     0
102
RTVSPost2010PropOp31
 70
     1
102
RTVSPost2010Prop32
280
     0
102
RTVSPost2010PropOp32
 70
     1
102
RTVSPost2010Prop33
280
     0
102
RTVSPost2010PropOp33
 70
     1
102
RTVSPost2010Prop34
280
     0
102
RTVSPost2010PropOp34
 70
     1
102
RTVSPost2010Prop35
280
     0
102
RTVSPost2010PropOp35
 70
     1
102
RTVSPost2010Prop36
280
     0
102
RTVSPost2010PropOp36
 70
     1
102
RTVSPost2010Prop37
 90
       50
102
RTVSPost2010PropOp37
 70
     1
102
RTVSPost2010Prop38
140
0.0
102
RTVSPost2010PropOp38
 70
     1
102
RTVSPost2010Prop39
140
1.0
102
RTVSPost2010PropOp39
 70
     1
102
RTVSPost2010Prop40
 90
        0
102
RTVSPost2010PropOp40
 70
     1
102
RTVSPost2010Prop41ColorIndex
 90
       18
102
RTVSPost2010Prop41ColorRGB
 90
        0
102
RTVSPost2010PropOp41
 70
     1
102
RTVSPost2010Prop42
 90
       50
102
RTVSPost2010PropOp42
 70
     1
102
RTVSPost2010Prop43
 90
        3
102
RTVSPost2010PropOp43
 70
     1
102
RTVSPost2010Prop44ColorIndex
 90
        5
102
RTVSPost2010Prop44ColorRGB
 90
      255
102
RTVSPost2010PropOp44
 70
     1
102
RTVSPost2010Prop45
280
     0
102
RTVSPost2010PropOp45
 70
     1
102
RTVSPost2010Prop46
 90
       50
102
RTVSPost2010PropOp46
 70
     1
102
RTVSPost2010Prop47
 90
       50
102
RTVSPost2010PropOp47
 70
     1
102
RTVSPost2010Prop48
 90
       50
102
RTVSPost2010PropOp48
 70
     1
102
RTVSPost2010Prop49
280
     0
102
RTVSPost2010PropOp49
 70
     1
102
RTVSPost2010Prop50
 90
       50
102
RTVSPost2010PropOp50
 70
     1
102
RTVSPost2010Prop51ColorIndex
 90
      256
102
RTVSPost2010Prop51ColorRGB
 90
-16777216
102
RTVSPost2010PropOp51
 70
     0
102
RTVSPost2010Prop52
140
1.0
102
RTVSPost2010PropOp52
 70
     0
102
RTVSPost2010Prop53
 90
        2
102
RTVSPost2010PropOp53
 70
     1
102
RTVSPost2010Prop54
  1
strokes_ogs.tif
102
RTVSPost2010PropOp54
 70
     1
102
RTVSPost2010Prop55
280
     0
102
RTVSPost2010PropOp55
 70
     1
102
RTVSPost2010Prop56
140
1.0
102
RTVSPost2010PropOp56
 70
     1
102
RTVSPost2010Prop57
140
1.0
102
RTVSPost2010PropOp57
 70
     1
  0
XRECORD
  5
385
102
{ACAD_REACTORS
330
384
102
}
330
384
100
AcDbXrecord
280
     1
102
RTVSPropertyOp0
 70
     1
102
RTVSPropertyOp1
 70
     1
102
RTVSPropertyOp2
 70
     1
102
RTVSPropertyOp3
 70
     1
102
RTVSPropertyOp4
 70
     1
102
RTVSPropertyOp5
 70
     1
102
RTVSPropertyOp6
 70
     1
102
RTVSPropertyOp7
 70
     1
102
RTVSPropertyOp8
 70
     1
102
RTVSPropertyOp9
 70
     1
102
RTVSPropertyOp10
 70
     1
102
RTVSPropertyOp11
 70
     1
102
RTVSPropertyOp12
 70
     1
102
RTVSPropertyOp13
 70
     1
102
RTVSPropertyOp14
 70
     1
102
RTVSPropertyOp15
 70
     1
102
RTVSPropertyOp16
 70
     1
102
RTVSPropertyOp17
 70
     1
102
RTVSPropertyOp18
 70
     1
102
RTVSPropertyOp19
 70
     1
102
RTVSPropertyOp20
 70
     1
102
RTVSPropertyOp21
 70
     1
102
RTVSPropertyOp22
 70
     1
102
RTVSPropertyOp23
 70
     1
102
RTVSPropertyOp24
 70
     1
102
RTVSPropertyOp25
 70
     1
102
RTVSPropertyOp26
 70
     1
102
RTVSPropertyOp27
 70
     1
102
RTVSPropertyOp28
 70
     1
102
RTVSPropertyOp29
 70
     1
102
RTVSPropertyOp30
 70
     1
102
RTVSPropertyOp31
 70
     1
102
RTVSPropertyOp32
 70
     1
102
RTVSPropertyOp33
 70
     1
102
RTVSPropertyOp34
 70
     1
102
RTVSPropertyOp35
 70
     1
102
RTVSPropertyOp36
 70
     1
102
RTVSPropertyOp37
 70
     1
102
RTVSPropertyOp38
 70
     1
102
RTVSPropertyOp39
 70
     1
102
RTVSPropertyOp40
 70
     1
102
RTVSPropertyOp41
 70
     1
102
RTVSPropertyOp42
 70
     1
102
RTVSPropertyOp43
 70
     1
102
RTVSPropertyOp44
 70
     1
102
RTVSPropertyOp45
 70
     1
102
RTVSPropertyOp46
 70
     1
102
RTVSPropertyOp47
 70
     1
102
RTVSPropertyOp48
 70
     1
102
RTVSPropertyOp49
 70
     1
102
RTVSPropertyOp50
 70
     1
102
RTVSPropertyOp51
 70
     0
102
RTVSPropertyOp52
 70
     0
102
RTVSPropertyOp53
 70
     1
102
RTVSPropertyOp54
 70
     1
102
RTVSPropertyOp55
 70
     1
102
RTVSPropertyOp56
 70
     1
102
RTVSPropertyOp57
 70
     1
102
RTVSPost2010Prop28
280
     0
102
RTVSPost2010PropOp28
 70
     1
102
RTVSPost2010Prop29
280
     1
102
RTVSPost2010PropOp29
 70
     1
102
RTVSPost2010Prop30
280
     1
102
RTVSPost2010PropOp30
 70
     1
102
RTVSPost2010Prop31
280
     0
102
RTVSPost2010PropOp31
 70
     1
102
RTVSPost2010Prop32
280
     0
102
RTVSPost2010PropOp32
 70
     1
102
RTVSPost2010Prop33
280
     0
102
RTVSPost2010PropOp33
 70
     1
102
RTVSPost2010Prop34
280
     0
102
RTVSPost2010PropOp34
 70
     1
102
RTVSPost2010Prop35
280
     0
102
RTVSPost2010PropOp35
 70
     1
102
RTVSPost2010Prop36
280
     0
102
RTVSPost2010PropOp36
 70
     1
102
RTVSPost2010Prop37
 90
       50
102
RTVSPost2010PropOp37
 70
     1
102
RTVSPost2010Prop38
140
0.0
102
RTVSPost2010PropOp38
 70
     1
102
RTVSPost2010Prop39
140
1.0
102
RTVSPost2010PropOp39
 70
     1
102
RTVSPost2010Prop40
 90
        0
102
RTVSPost2010PropOp40
 70
     1
102
RTVSPost2010Prop41ColorIndex
 90
       18
102
RTVSPost2010Prop41ColorRGB
 90
        0
102
RTVSPost2010PropOp41
 70
     1
102
RTVSPost2010Prop42
 90
       50
102
RTVSPost2010PropOp42
 70
     1
102
RTVSPost2010Prop43
 90
        3
102
RTVSPost2010PropOp43
 70
     1
102
RTVSPost2010Prop44ColorIndex
 90
        5
102
RTVSPost2010Prop44ColorRGB
 90
      255
102
RTVSPost2010PropOp44
 70
     1
102
RTVSPost2010Prop45
280
     0
102
RTVSPost2010PropOp45
 70
     1
102
RTVSPost2010Prop46
 90
       50
102
RTVSPost2010PropOp46
 70
     1
102
RTVSPost2010Prop47
 90
       50
102
RTVSPost2010PropOp47
 70
     1
102
RTVSPost2010Prop48
 90
       50
102
RTVSPost2010PropOp48
 70
     1
102
RTVSPost2010Prop49
280
     0
102
RTVSPost2010PropOp49
 70
     1
102
RTVSPost2010Prop50
 90
       50
102
RTVSPost2010PropOp50
 70
     1
102
RTVSPost2010Prop51ColorIndex
 90
      256
102
RTVSPost2010Prop51ColorRGB
 90
-16777216
102
RTVSPost2010PropOp51
 70
     0
102
RTVSPost2010Prop52
140
1.0
102
RTVSPost2010PropOp52
 70
     0
102
RTVSPost2010Prop53
 90
        2
102
RTVSPost2010PropOp53
 70
     1
102
RTVSPost2010Prop54
  1
strokes_ogs.tif
102
RTVSPost2010PropOp54
 70
     1
102
RTVSPost2010Prop55
280
     0
102
RTVSPost2010PropOp55
 70
     1
102
RTVSPost2010Prop56
140
1.0
102
RTVSPost2010PropOp56
 70
     1
102
RTVSPost2010Prop57
140
1.0
102
RTVSPost2010PropOp57
 70
     1
  0
XRECORD
  5
38D
102
{ACAD_REACTORS
330
38C
102
}
330
38C
100
AcDbXrecord
280
     1
102
RTVSPropertyOp0
 70
     1
102
RTVSPropertyOp1
 70
     1
102
RTVSPropertyOp2
 70
     1
102
RTVSPropertyOp3
 70
     1
102
RTVSPropertyOp4
 70
     1
102
RTVSPropertyOp5
 70
     1
102
RTVSPropertyOp6
 70
     1
102
RTVSPropertyOp7
 70
     1
102
RTVSPropertyOp8
 70
     1
102
RTVSPropertyOp9
 70
     1
102
RTVSPropertyOp10
 70
     1
102
RTVSPropertyOp11
 70
     1
102
RTVSPropertyOp12
 70
     1
102
RTVSPropertyOp13
 70
     1
102
RTVSPropertyOp14
 70
     1
102
RTVSPropertyOp15
 70
     1
102
RTVSPropertyOp16
 70
     1
102
RTVSPropertyOp17
 70
     1
102
RTVSPropertyOp18
 70
     1
102
RTVSPropertyOp19
 70
     1
102
RTVSPropertyOp20
 70
     1
102
RTVSPropertyOp21
 70
     1
102
RTVSPropertyOp22
 70
     1
102
RTVSPropertyOp23
 70
     1
102
RTVSPropertyOp24
 70
     1
102
RTVSPropertyOp25
 70
     1
102
RTVSPropertyOp26
 70
     1
102
RTVSPropertyOp27
 70
     1
102
RTVSPropertyOp28
 70
     1
102
RTVSPropertyOp29
 70
     1
102
RTVSPropertyOp30
 70
     1
102
RTVSPropertyOp31
 70
     1
102
RTVSPropertyOp32
 70
     1
102
RTVSPropertyOp33
 70
     1
102
RTVSPropertyOp34
 70
     1
102
RTVSPropertyOp35
 70
     1
102
RTVSPropertyOp36
 70
     1
102
RTVSPropertyOp37
 70
     1
102
RTVSPropertyOp38
 70
     1
102
RTVSPropertyOp39
 70
     1
102
RTVSPropertyOp40
 70
     1
102
RTVSPropertyOp41
 70
     1
102
RTVSPropertyOp42
 70
     1
102
RTVSPropertyOp43
 70
     1
102
RTVSPropertyOp44
 70
     1
102
RTVSPropertyOp45
 70
     1
102
RTVSPropertyOp46
 70
     1
102
RTVSPropertyOp47
 70
     1
102
RTVSPropertyOp48
 70
     1
102
RTVSPropertyOp49
 70
     1
102
RTVSPropertyOp50
 70
     1
102
RTVSPropertyOp51
 70
     0
102
RTVSPropertyOp52
 70
     0
102
RTVSPropertyOp53
 70
     1
102
RTVSPropertyOp54
 70
     1
102
RTVSPropertyOp55
 70
     1
102
RTVSPropertyOp56
 70
     1
102
RTVSPropertyOp57
 70
     1
102
RTVSPost2010Prop28
280
     0
102
RTVSPost2010PropOp28
 70
     1
102
RTVSPost2010Prop29
280
     1
102
RTVSPost2010PropOp29
 70
     1
102
RTVSPost2010Prop30
280
     1
102
RTVSPost2010PropOp30
 70
     1
102
RTVSPost2010Prop31
280
     0
102
RTVSPost2010PropOp31
 70
     1
102
RTVSPost2010Prop32
280
     0
102
RTVSPost2010PropOp32
 70
     1
102
RTVSPost2010Prop33
280
     0
102
RTVSPost2010PropOp33
 70
     1
102
RTVSPost2010Prop34
280
     0
102
RTVSPost2010PropOp34
 70
     1
102
RTVSPost2010Prop35
280
     0
102
RTVSPost2010PropOp35
 70
     1
102
RTVSPost2010Prop36
280
     0
102
RTVSPost2010PropOp36
 70
     1
102
RTVSPost2010Prop37
 90
       50
102
RTVSPost2010PropOp37
 70
     1
102
RTVSPost2010Prop38
140
0.0
102
RTVSPost2010PropOp38
 70
     1
102
RTVSPost2010Prop39
140
1.0
102
RTVSPost2010PropOp39
 70
     1
102
RTVSPost2010Prop40
 90
        0
102
RTVSPost2010PropOp40
 70
     1
102
RTVSPost2010Prop41ColorIndex
 90
       18
102
RTVSPost2010Prop41ColorRGB
 90
        0
102
RTVSPost2010PropOp41
 70
     1
102
RTVSPost2010Prop42
 90
       50
102
RTVSPost2010PropOp42
 70
     1
102
RTVSPost2010Prop43
 90
        3
102
RTVSPost2010PropOp43
 70
     1
102
RTVSPost2010Prop44ColorIndex
 90
        5
102
RTVSPost2010Prop44ColorRGB
 90
      255
102
RTVSPost2010PropOp44
 70
     1
102
RTVSPost2010Prop45
280
     0
102
RTVSPost2010PropOp45
 70
     1
102
RTVSPost2010Prop46
 90
       50
102
RTVSPost2010PropOp46
 70
     1
102
RTVSPost2010Prop47
 90
       50
102
RTVSPost2010PropOp47
 70
     1
102
RTVSPost2010Prop48
 90
       50
102
RTVSPost2010PropOp48
 70
     1
102
RTVSPost2010Prop49
280
     0
102
RTVSPost2010PropOp49
 70
     1
102
RTVSPost2010Prop50
 90
       50
102
RTVSPost2010PropOp50
 70
     1
102
RTVSPost2010Prop51ColorIndex
 90
      256
102
RTVSPost2010Prop51ColorRGB
 90
-16777216
102
RTVSPost2010PropOp51
 70
     0
102
RTVSPost2010Prop52
140
1.0
102
RTVSPost2010PropOp52
 70
     0
102
RTVSPost2010Prop53
 90
        2
102
RTVSPost2010PropOp53
 70
     1
102
RTVSPost2010Prop54
  1
strokes_ogs.tif
102
RTVSPost2010PropOp54
 70
     1
102
RTVSPost2010Prop55
280
     0
102
RTVSPost2010PropOp55
 70
     1
102
RTVSPost2010Prop56
140
1.0
102
RTVSPost2010PropOp56
 70
     1
102
RTVSPost2010Prop57
140
1.0
102
RTVSPost2010PropOp57
 70
     1
  0
XRECORD
  5
381
102
{ACAD_REACTORS
330
380
102
}
330
380
100
AcDbXrecord
280
     1
102
RTVSPropertyOp0
 70
     1
102
RTVSPropertyOp1
 70
     1
102
RTVSPropertyOp2
 70
     1
102
RTVSPropertyOp3
 70
     1
102
RTVSPropertyOp4
 70
     1
102
RTVSPropertyOp5
 70
     1
102
RTVSPropertyOp6
 70
     1
102
RTVSPropertyOp7
 70
     1
102
RTVSPropertyOp8
 70
     1
102
RTVSPropertyOp9
 70
     1
102
RTVSPropertyOp10
 70
     1
102
RTVSPropertyOp11
 70
     1
102
RTVSPropertyOp12
 70
     1
102
RTVSPropertyOp13
 70
     1
102
RTVSPropertyOp14
 70
     1
102
RTVSPropertyOp15
 70
     1
102
RTVSPropertyOp16
 70
     1
102
RTVSPropertyOp17
 70
     1
102
RTVSPropertyOp18
 70
     1
102
RTVSPropertyOp19
 70
     1
102
RTVSPropertyOp20
 70
     1
102
RTVSPropertyOp21
 70
     1
102
RTVSPropertyOp22
 70
     1
102
RTVSPropertyOp23
 70
     1
102
RTVSPropertyOp24
 70
     1
102
RTVSPropertyOp25
 70
     1
102
RTVSPropertyOp26
 70
     1
102
RTVSPropertyOp27
 70
     1
102
RTVSPropertyOp28
 70
     1
102
RTVSPropertyOp29
 70
     1
102
RTVSPropertyOp30
 70
     1
102
RTVSPropertyOp31
 70
     1
102
RTVSPropertyOp32
 70
     1
102
RTVSPropertyOp33
 70
     1
102
RTVSPropertyOp34
 70
     1
102
RTVSPropertyOp35
 70
     1
102
RTVSPropertyOp36
 70
     1
102
RTVSPropertyOp37
 70
     1
102
RTVSPropertyOp38
 70
     1
102
RTVSPropertyOp39
 70
     1
102
RTVSPropertyOp40
 70
     1
102
RTVSPropertyOp41
 70
     1
102
RTVSPropertyOp42
 70
     1
102
RTVSPropertyOp43
 70
     1
102
RTVSPropertyOp44
 70
     1
102
RTVSPropertyOp45
 70
     1
102
RTVSPropertyOp46
 70
     1
102
RTVSPropertyOp47
 70
     1
102
RTVSPropertyOp48
 70
     1
102
RTVSPropertyOp49
 70
     1
102
RTVSPropertyOp50
 70
     1
102
RTVSPropertyOp51
 70
     0
102
RTVSPropertyOp52
 70
     0
102
RTVSPropertyOp53
 70
     1
102
RTVSPropertyOp54
 70
     1
102
RTVSPropertyOp55
 70
     1
102
RTVSPropertyOp56
 70
     1
102
RTVSPropertyOp57
 70
     1
102
RTVSPost2010Prop28
280
     0
102
RTVSPost2010PropOp28
 70
     1
102
RTVSPost2010Prop29
280
     1
102
RTVSPost2010PropOp29
 70
     1
102
RTVSPost2010Prop30
280
     1
102
RTVSPost2010PropOp30
 70
     1
102
RTVSPost2010Prop31
280
     0
102
RTVSPost2010PropOp31
 70
     1
102
RTVSPost2010Prop32
280
     0
102
RTVSPost2010PropOp32
 70
     1
102
RTVSPost2010Prop33
280
     0
102
RTVSPost2010PropOp33
 70
     1
102
RTVSPost2010Prop34
280
     0
102
RTVSPost2010PropOp34
 70
     1
102
RTVSPost2010Prop35
280
     0
102
RTVSPost2010PropOp35
 70
     1
102
RTVSPost2010Prop36
280
     0
102
RTVSPost2010PropOp36
 70
     1
102
RTVSPost2010Prop37
 90
       50
102
RTVSPost2010PropOp37
 70
     1
102
RTVSPost2010Prop38
140
0.0
102
RTVSPost2010PropOp38
 70
     1
102
RTVSPost2010Prop39
140
1.0
102
RTVSPost2010PropOp39
 70
     1
102
RTVSPost2010Prop40
 90
        0
102
RTVSPost2010PropOp40
 70
     1
102
RTVSPost2010Prop41ColorIndex
 90
       18
102
RTVSPost2010Prop41ColorRGB
 90
        0
102
RTVSPost2010PropOp41
 70
     1
102
RTVSPost2010Prop42
 90
       50
102
RTVSPost2010PropOp42
 70
     1
102
RTVSPost2010Prop43
 90
        3
102
RTVSPost2010PropOp43
 70
     1
102
RTVSPost2010Prop44ColorIndex
 90
        5
102
RTVSPost2010Prop44ColorRGB
 90
      255
102
RTVSPost2010PropOp44
 70
     1
102
RTVSPost2010Prop45
280
     0
102
RTVSPost2010PropOp45
 70
     1
102
RTVSPost2010Prop46
 90
       50
102
RTVSPost2010PropOp46
 70
     1
102
RTVSPost2010Prop47
 90
       50
102
RTVSPost2010PropOp47
 70
     1
102
RTVSPost2010Prop48
 90
       50
102
RTVSPost2010PropOp48
 70
     1
102
RTVSPost2010Prop49
280
     0
102
RTVSPost2010PropOp49
 70
     1
102
RTVSPost2010Prop50
 90
       50
102
RTVSPost2010PropOp50
 70
     1
102
RTVSPost2010Prop51ColorIndex
 90
      256
102
RTVSPost2010Prop51ColorRGB
 90
-16777216
102
RTVSPost2010PropOp51
 70
     0
102
RTVSPost2010Prop52
140
1.0
102
RTVSPost2010PropOp52
 70
     0
102
RTVSPost2010Prop53
 90
        2
102
RTVSPost2010PropOp53
 70
     1
102
RTVSPost2010Prop54
  1
strokes_ogs.tif
102
RTVSPost2010PropOp54
 70
     1
102
RTVSPost2010Prop55
280
     0
102
RTVSPost2010PropOp55
 70
     1
102
RTVSPost2010Prop56
140
1.0
102
RTVSPost2010PropOp56
 70
     1
102
RTVSPost2010Prop57
140
1.0
102
RTVSPost2010PropOp57
 70
     1
  0
XRECORD
  5
383
102
{ACAD_REACTORS
330
382
102
}
330
382
100
AcDbXrecord
280
     1
102
RTVSPropertyOp0
 70
     1
102
RTVSPropertyOp1
 70
     1
102
RTVSPropertyOp2
 70
     1
102
RTVSPropertyOp3
 70
     1
102
RTVSPropertyOp4
 70
     1
102
RTVSPropertyOp5
 70
     1
102
RTVSPropertyOp6
 70
     1
102
RTVSPropertyOp7
 70
     1
102
RTVSPropertyOp8
 70
     1
102
RTVSPropertyOp9
 70
     1
102
RTVSPropertyOp10
 70
     1
102
RTVSPropertyOp11
 70
     1
102
RTVSPropertyOp12
 70
     1
102
RTVSPropertyOp13
 70
     1
102
RTVSPropertyOp14
 70
     1
102
RTVSPropertyOp15
 70
     1
102
RTVSPropertyOp16
 70
     1
102
RTVSPropertyOp17
 70
     1
102
RTVSPropertyOp18
 70
     1
102
RTVSPropertyOp19
 70
     1
102
RTVSPropertyOp20
 70
     1
102
RTVSPropertyOp21
 70
     1
102
RTVSPropertyOp22
 70
     1
102
RTVSPropertyOp23
 70
     1
102
RTVSPropertyOp24
 70
     1
102
RTVSPropertyOp25
 70
     1
102
RTVSPropertyOp26
 70
     1
102
RTVSPropertyOp27
 70
     1
102
RTVSPropertyOp28
 70
     1
102
RTVSPropertyOp29
 70
     1
102
RTVSPropertyOp30
 70
     1
102
RTVSPropertyOp31
 70
     1
102
RTVSPropertyOp32
 70
     1
102
RTVSPropertyOp33
 70
     1
102
RTVSPropertyOp34
 70
     1
102
RTVSPropertyOp35
 70
     1
102
RTVSPropertyOp36
 70
     1
102
RTVSPropertyOp37
 70
     1
102
RTVSPropertyOp38
 70
     1
102
RTVSPropertyOp39
 70
     1
102
RTVSPropertyOp40
 70
     1
102
RTVSPropertyOp41
 70
     1
102
RTVSPropertyOp42
 70
     1
102
RTVSPropertyOp43
 70
     1
102
RTVSPropertyOp44
 70
     1
102
RTVSPropertyOp45
 70
     1
102
RTVSPropertyOp46
 70
     1
102
RTVSPropertyOp47
 70
     1
102
RTVSPropertyOp48
 70
     1
102
RTVSPropertyOp49
 70
     1
102
RTVSPropertyOp50
 70
     1
102
RTVSPropertyOp51
 70
     0
102
RTVSPropertyOp52
 70
     0
102
RTVSPropertyOp53
 70
     1
102
RTVSPropertyOp54
 70
     1
102
RTVSPropertyOp55
 70
     1
102
RTVSPropertyOp56
 70
     1
102
RTVSPropertyOp57
 70
     1
102
RTVSPost2010Prop28
280
     0
102
RTVSPost2010PropOp28
 70
     1
102
RTVSPost2010Prop29
280
     1
102
RTVSPost2010PropOp29
 70
     1
102
RTVSPost2010Prop30
280
     1
102
RTVSPost2010PropOp30
 70
     1
102
RTVSPost2010Prop31
280
     0
102
RTVSPost2010PropOp31
 70
     1
102
RTVSPost2010Prop32
280
     0
102
RTVSPost2010PropOp32
 70
     1
102
RTVSPost2010Prop33
280
     0
102
RTVSPost2010PropOp33
 70
     1
102
RTVSPost2010Prop34
280
     0
102
RTVSPost2010PropOp34
 70
     1
102
RTVSPost2010Prop35
280
     0
102
RTVSPost2010PropOp35
 70
     1
102
RTVSPost2010Prop36
280
     0
102
RTVSPost2010PropOp36
 70
     1
102
RTVSPost2010Prop37
 90
       50
102
RTVSPost2010PropOp37
 70
     1
102
RTVSPost2010Prop38
140
0.0
102
RTVSPost2010PropOp38
 70
     1
102
RTVSPost2010Prop39
140
1.0
102
RTVSPost2010PropOp39
 70
     1
102
RTVSPost2010Prop40
 90
        0
102
RTVSPost2010PropOp40
 70
     1
102
RTVSPost2010Prop41ColorIndex
 90
       18
102
RTVSPost2010Prop41ColorRGB
 90
        0
102
RTVSPost2010PropOp41
 70
     1
102
RTVSPost2010Prop42
 90
       50
102
RTVSPost2010PropOp42
 70
     1
102
RTVSPost2010Prop43
 90
        3
102
RTVSPost2010PropOp43
 70
     1
102
RTVSPost2010Prop44ColorIndex
 90
        5
102
RTVSPost2010Prop44ColorRGB
 90
      255
102
RTVSPost2010PropOp44
 70
     1
102
RTVSPost2010Prop45
280
     0
102
RTVSPost2010PropOp45
 70
     1
102
RTVSPost2010Prop46
 90
       50
102
RTVSPost2010PropOp46
 70
     1
102
RTVSPost2010Prop47
 90
       50
102
RTVSPost2010PropOp47
 70
     1
102
RTVSPost2010Prop48
 90
       50
102
RTVSPost2010PropOp48
 70
     1
102
RTVSPost2010Prop49
280
     0
102
RTVSPost2010PropOp49
 70
     1
102
RTVSPost2010Prop50
 90
       50
102
RTVSPost2010PropOp50
 70
     1
102
RTVSPost2010Prop51ColorIndex
 90
      256
102
RTVSPost2010Prop51ColorRGB
 90
-16777216
102
RTVSPost2010PropOp51
 70
     0
102
RTVSPost2010Prop52
140
1.0
102
RTVSPost2010PropOp52
 70
     0
102
RTVSPost2010Prop53
 90
        2
102
RTVSPost2010PropOp53
 70
     1
102
RTVSPost2010Prop54
  1
strokes_ogs.tif
102
RTVSPost2010PropOp54
 70
     1
102
RTVSPost2010Prop55
280
     0
102
RTVSPost2010PropOp55
 70
     1
102
RTVSPost2010Prop56
140
1.0
102
RTVSPost2010PropOp56
 70
     1
102
RTVSPost2010Prop57
140
1.0
102
RTVSPost2010PropOp57
 70
     1
  0
XRECORD
  5
393
102
{ACAD_REACTORS
330
392
102
}
330
392
100
AcDbXrecord
280
     1
102
RTVSPropertyOp0
 70
     0
102
RTVSPropertyOp1
 70
     0
102
RTVSPropertyOp2
 70
     0
102
RTVSPropertyOp3
 70
     0
102
RTVSPropertyOp4
 70
     0
102
RTVSPropertyOp5
 70
     0
102
RTVSPropertyOp6
 70
     0
102
RTVSPropertyOp7
 70
     0
102
RTVSPropertyOp8
 70
     0
102
RTVSPropertyOp9
 70
     0
102
RTVSPropertyOp10
 70
     0
102
RTVSPropertyOp11
 70
     0
102
RTVSPropertyOp12
 70
     0
102
RTVSPropertyOp13
 70
     0
102
RTVSPropertyOp14
 70
     2
102
RTVSPropertyOp15
 70
     0
102
RTVSPropertyOp16
 70
     0
102
RTVSPropertyOp17
 70
     0
102
RTVSPropertyOp18
 70
     0
102
RTVSPropertyOp19
 70
     0
102
RTVSPropertyOp20
 70
     0
102
RTVSPropertyOp21
 70
     0
102
RTVSPropertyOp22
 70
     0
102
RTVSPropertyOp23
 70
     0
102
RTVSPropertyOp24
 70
     0
102
RTVSPropertyOp25
 70
     0
102
RTVSPropertyOp26
 70
     0
102
RTVSPropertyOp27
 70
     0
102
RTVSPropertyOp28
 70
     0
102
RTVSPropertyOp29
 70
     0
102
RTVSPropertyOp30
 70
     0
102
RTVSPropertyOp31
 70
     0
102
RTVSPropertyOp32
 70
     0
102
RTVSPropertyOp33
 70
     0
102
RTVSPropertyOp34
 70
     0
102
RTVSPropertyOp35
 70
     0
102
RTVSPropertyOp36
 70
     0
102
RTVSPropertyOp37
 70
     0
102
RTVSPropertyOp38
 70
     0
102
RTVSPropertyOp39
 70
     0
102
RTVSPropertyOp40
 70
     0
102
RTVSPropertyOp41
 70
     0
102
RTVSPropertyOp42
 70
     0
102
RTVSPropertyOp43
 70
     0
102
RTVSPropertyOp44
 70
     0
102
RTVSPropertyOp45
 70
     0
102
RTVSPropertyOp46
 70
     0
102
RTVSPropertyOp47
 70
     0
102
RTVSPropertyOp48
 70
     0
102
RTVSPropertyOp49
 70
     0
102
RTVSPropertyOp50
 70
     0
102
RTVSPropertyOp51
 70
     0
102
RTVSPropertyOp52
 70
     0
102
RTVSPropertyOp53
 70
     0
102
RTVSPropertyOp54
 70
     0
102
RTVSPropertyOp55
 70
     0
102
RTVSPropertyOp56
 70
     0
102
RTVSPropertyOp57
 70
     0
102
RTVSPost2010Prop28
280
     0
102
RTVSPost2010PropOp28
 70
     0
102
RTVSPost2010Prop29
280
     1
102
RTVSPost2010PropOp29
 70
     0
102
RTVSPost2010Prop30
280
     1
102
RTVSPost2010PropOp30
 70
     0
102
RTVSPost2010Prop31
280
     0
102
RTVSPost2010PropOp31
 70
     0
102
RTVSPost2010Prop32
280
     0
102
RTVSPost2010PropOp32
 70
     0
102
RTVSPost2010Prop33
280
     0
102
RTVSPost2010PropOp33
 70
     0
102
RTVSPost2010Prop34
280
     0
102
RTVSPost2010PropOp34
 70
     0
102
RTVSPost2010Prop35
280
     0
102
RTVSPost2010PropOp35
 70
     0
102
RTVSPost2010Prop36
280
     0
102
RTVSPost2010PropOp36
 70
     0
102
RTVSPost2010Prop37
 90
       50
102
RTVSPost2010PropOp37
 70
     0
102
RTVSPost2010Prop38
140
0.0
102
RTVSPost2010PropOp38
 70
     0
102
RTVSPost2010Prop39
140
1.0
102
RTVSPost2010PropOp39
 70
     0
102
RTVSPost2010Prop40
 90
        0
102
RTVSPost2010PropOp40
 70
     0
102
RTVSPost2010Prop41ColorIndex
 90
       18
102
RTVSPost2010Prop41ColorRGB
 90
        0
102
RTVSPost2010PropOp41
 70
     0
102
RTVSPost2010Prop42
 90
       50
102
RTVSPost2010PropOp42
 70
     0
102
RTVSPost2010Prop43
 90
        3
102
RTVSPost2010PropOp43
 70
     0
102
RTVSPost2010Prop44ColorIndex
 90
        5
102
RTVSPost2010Prop44ColorRGB
 90
      255
102
RTVSPost2010PropOp44
 70
     0
102
RTVSPost2010Prop45
280
     0
102
RTVSPost2010PropOp45
 70
     0
102
RTVSPost2010Prop46
 90
       50
102
RTVSPost2010PropOp46
 70
     0
102
RTVSPost2010Prop47
 90
       50
102
RTVSPost2010PropOp47
 70
     0
102
RTVSPost2010Prop48
 90
       50
102
RTVSPost2010PropOp48
 70
     0
102
RTVSPost2010Prop49
280
     0
102
RTVSPost2010PropOp49
 70
     0
102
RTVSPost2010Prop50
 90
       50
102
RTVSPost2010PropOp50
 70
     0
102
RTVSPost2010Prop51ColorIndex
 90
      256
102
RTVSPost2010Prop51ColorRGB
 90
-16777216
102
RTVSPost2010PropOp51
 70
     0
102
RTVSPost2010Prop52
140
1.0
102
RTVSPost2010PropOp52
 70
     0
102
RTVSPost2010Prop53
 90
        2
102
RTVSPost2010PropOp53
 70
     0
102
RTVSPost2010Prop54
  1
strokes_ogs.tif
102
RTVSPost2010PropOp54
 70
     0
102
RTVSPost2010Prop55
280
     0
102
RTVSPost2010PropOp55
 70
     0
102
RTVSPost2010Prop56
140
1.0
102
RTVSPost2010PropOp56
 70
     0
102
RTVSPost2010Prop57
140
1.0
102
RTVSPost2010PropOp57
 70
     0
  0
XRECORD
  5
38B
102
{ACAD_REACTORS
330
38A
102
}
330
38A
100
AcDbXrecord
280
     1
102
RTVSPropertyOp0
 70
     1
102
RTVSPropertyOp1
 70
     1
102
RTVSPropertyOp2
 70
     1
102
RTVSPropertyOp3
 70
     1
102
RTVSPropertyOp4
 70
     1
102
RTVSPropertyOp5
 70
     1
102
RTVSPropertyOp6
 70
     1
102
RTVSPropertyOp7
 70
     1
102
RTVSPropertyOp8
 70
     1
102
RTVSPropertyOp9
 70
     1
102
RTVSPropertyOp10
 70
     1
102
RTVSPropertyOp11
 70
     1
102
RTVSPropertyOp12
 70
     1
102
RTVSPropertyOp13
 70
     1
102
RTVSPropertyOp14
 70
     1
102
RTVSPropertyOp15
 70
     1
102
RTVSPropertyOp16
 70
     1
102
RTVSPropertyOp17
 70
     1
102
RTVSPropertyOp18
 70
     1
102
RTVSPropertyOp19
 70
     1
102
RTVSPropertyOp20
 70
     1
102
RTVSPropertyOp21
 70
     1
102
RTVSPropertyOp22
 70
     1
102
RTVSPropertyOp23
 70
     1
102
RTVSPropertyOp24
 70
     1
102
RTVSPropertyOp25
 70
     1
102
RTVSPropertyOp26
 70
     1
102
RTVSPropertyOp27
 70
     1
102
RTVSPropertyOp28
 70
     1
102
RTVSPropertyOp29
 70
     1
102
RTVSPropertyOp30
 70
     1
102
RTVSPropertyOp31
 70
     1
102
RTVSPropertyOp32
 70
     1
102
RTVSPropertyOp33
 70
     1
102
RTVSPropertyOp34
 70
     1
102
RTVSPropertyOp35
 70
     1
102
RTVSPropertyOp36
 70
     1
102
RTVSPropertyOp37
 70
     1
102
RTVSPropertyOp38
 70
     1
102
RTVSPropertyOp39
 70
     1
102
RTVSPropertyOp40
 70
     1
102
RTVSPropertyOp41
 70
     1
102
RTVSPropertyOp42
 70
     1
102
RTVSPropertyOp43
 70
     1
102
RTVSPropertyOp44
 70
     1
102
RTVSPropertyOp45
 70
     1
102
RTVSPropertyOp46
 70
     1
102
RTVSPropertyOp47
 70
     1
102
RTVSPropertyOp48
 70
     1
102
RTVSPropertyOp49
 70
     1
102
RTVSPropertyOp50
 70
     1
102
RTVSPropertyOp51
 70
     0
102
RTVSPropertyOp52
 70
     0
102
RTVSPropertyOp53
 70
     1
102
RTVSPropertyOp54
 70
     1
102
RTVSPropertyOp55
 70
     1
102
RTVSPropertyOp56
 70
     1
102
RTVSPropertyOp57
 70
     1
102
RTVSPost2010Prop28
280
     0
102
RTVSPost2010PropOp28
 70
     1
102
RTVSPost2010Prop29
280
     1
102
RTVSPost2010PropOp29
 70
     1
102
RTVSPost2010Prop30
280
     1
102
RTVSPost2010PropOp30
 70
     1
102
RTVSPost2010Prop31
280
     0
102
RTVSPost2010PropOp31
 70
     1
102
RTVSPost2010Prop32
280
     0
102
RTVSPost2010PropOp32
 70
     1
102
RTVSPost2010Prop33
280
     0
102
RTVSPost2010PropOp33
 70
     1
102
RTVSPost2010Prop34
280
     0
102
RTVSPost2010PropOp34
 70
     1
102
RTVSPost2010Prop35
280
     0
102
RTVSPost2010PropOp35
 70
     1
102
RTVSPost2010Prop36
280
     0
102
RTVSPost2010PropOp36
 70
     1
102
RTVSPost2010Prop37
 90
       50
102
RTVSPost2010PropOp37
 70
     1
102
RTVSPost2010Prop38
140
0.0
102
RTVSPost2010PropOp38
 70
     1
102
RTVSPost2010Prop39
140
1.0
102
RTVSPost2010PropOp39
 70
     1
102
RTVSPost2010Prop40
 90
        0
102
RTVSPost2010PropOp40
 70
     1
102
RTVSPost2010Prop41ColorIndex
 90
       18
102
RTVSPost2010Prop41ColorRGB
 90
        0
102
RTVSPost2010PropOp41
 70
     1
102
RTVSPost2010Prop42
 90
       50
102
RTVSPost2010PropOp42
 70
     1
102
RTVSPost2010Prop43
 90
        3
102
RTVSPost2010PropOp43
 70
     1
102
RTVSPost2010Prop44ColorIndex
 90
        5
102
RTVSPost2010Prop44ColorRGB
 90
      255
102
RTVSPost2010PropOp44
 70
     1
102
RTVSPost2010Prop45
280
     0
102
RTVSPost2010PropOp45
 70
     1
102
RTVSPost2010Prop46
 90
       50
102
RTVSPost2010PropOp46
 70
     1
102
RTVSPost2010Prop47
 90
       50
102
RTVSPost2010PropOp47
 70
     1
102
RTVSPost2010Prop48
 90
       50
102
RTVSPost2010PropOp48
 70
     1
102
RTVSPost2010Prop49
280
     0
102
RTVSPost2010PropOp49
 70
     1
102
RTVSPost2010Prop50
 90
       50
102
RTVSPost2010PropOp50
 70
     1
102
RTVSPost2010Prop51ColorIndex
 90
      256
102
RTVSPost2010Prop51ColorRGB
 90
-16777216
102
RTVSPost2010PropOp51
 70
     0
102
RTVSPost2010Prop52
140
1.0
102
RTVSPost2010PropOp52
 70
     0
102
RTVSPost2010Prop53
 90
        2
102
RTVSPost2010PropOp53
 70
     1
102
RTVSPost2010Prop54
  1
strokes_ogs.tif
102
RTVSPost2010PropOp54
 70
     1
102
RTVSPost2010Prop55
280
     0
102
RTVSPost2010PropOp55
 70
     1
102
RTVSPost2010Prop56
140
1.0
102
RTVSPost2010PropOp56
 70
     1
102
RTVSPost2010Prop57
140
1.0
102
RTVSPost2010PropOp57
 70
     1
  0
XRECORD
  5
36F
102
{ACAD_REACTORS
330
36E
102
}
330
36E
100
AcDbXrecord
280
     1
102
RTVSPropertyOp0
 70
     1
102
RTVSPropertyOp1
 70
     1
102
RTVSPropertyOp2
 70
     1
102
RTVSPropertyOp3
 70
     1
102
RTVSPropertyOp4
 70
     1
102
RTVSPropertyOp5
 70
     1
102
RTVSPropertyOp6
 70
     1
102
RTVSPropertyOp7
 70
     1
102
RTVSPropertyOp8
 70
     1
102
RTVSPropertyOp9
 70
     1
102
RTVSPropertyOp10
 70
     1
102
RTVSPropertyOp11
 70
     1
102
RTVSPropertyOp12
 70
     1
102
RTVSPropertyOp13
 70
     1
102
RTVSPropertyOp14
 70
     1
102
RTVSPropertyOp15
 70
     1
102
RTVSPropertyOp16
 70
     1
102
RTVSPropertyOp17
 70
     1
102
RTVSPropertyOp18
 70
     1
102
RTVSPropertyOp19
 70
     1
102
RTVSPropertyOp20
 70
     1
102
RTVSPropertyOp21
 70
     1
102
RTVSPropertyOp22
 70
     1
102
RTVSPropertyOp23
 70
     1
102
RTVSPropertyOp24
 70
     1
102
RTVSPropertyOp25
 70
     1
102
RTVSPropertyOp26
 70
     1
102
RTVSPropertyOp27
 70
     1
102
RTVSPropertyOp28
 70
     1
102
RTVSPropertyOp29
 70
     1
102
RTVSPropertyOp30
 70
     1
102
RTVSPropertyOp31
 70
     1
102
RTVSPropertyOp32
 70
     1
102
RTVSPropertyOp33
 70
     1
102
RTVSPropertyOp34
 70
     1
102
RTVSPropertyOp35
 70
     1
102
RTVSPropertyOp36
 70
     1
102
RTVSPropertyOp37
 70
     1
102
RTVSPropertyOp38
 70
     1
102
RTVSPropertyOp39
 70
     1
102
RTVSPropertyOp40
 70
     1
102
RTVSPropertyOp41
 70
     1
102
RTVSPropertyOp42
 70
     1
102
RTVSPropertyOp43
 70
     1
102
RTVSPropertyOp44
 70
     1
102
RTVSPropertyOp45
 70
     1
102
RTVSPropertyOp46
 70
     1
102
RTVSPropertyOp47
 70
     1
102
RTVSPropertyOp48
 70
     1
102
RTVSPropertyOp49
 70
     1
102
RTVSPropertyOp50
 70
     1
102
RTVSPropertyOp51
 70
     0
102
RTVSPropertyOp52
 70
     0
102
RTVSPropertyOp53
 70
     1
102
RTVSPropertyOp54
 70
     1
102
RTVSPropertyOp55
 70
     1
102
RTVSPropertyOp56
 70
     1
102
RTVSPropertyOp57
 70
     1
102
RTVSPost2010Prop28
280
     0
102
RTVSPost2010PropOp28
 70
     1
102
RTVSPost2010Prop29
280
     1
102
RTVSPost2010PropOp29
 70
     1
102
RTVSPost2010Prop30
280
     1
102
RTVSPost2010PropOp30
 70
     1
102
RTVSPost2010Prop31
280
     0
102
RTVSPost2010PropOp31
 70
     1
102
RTVSPost2010Prop32
280
     0
102
RTVSPost2010PropOp32
 70
     1
102
RTVSPost2010Prop33
280
     0
102
RTVSPost2010PropOp33
 70
     1
102
RTVSPost2010Prop34
280
     0
102
RTVSPost2010PropOp34
 70
     1
102
RTVSPost2010Prop35
280
     0
102
RTVSPost2010PropOp35
 70
     1
102
RTVSPost2010Prop36
280
     0
102
RTVSPost2010PropOp36
 70
     1
102
RTVSPost2010Prop37
 90
       50
102
RTVSPost2010PropOp37
 70
     1
102
RTVSPost2010Prop38
140
0.0
102
RTVSPost2010PropOp38
 70
     1
102
RTVSPost2010Prop39
140
1.0
102
RTVSPost2010PropOp39
 70
     1
102
RTVSPost2010Prop40
 90
        0
102
RTVSPost2010PropOp40
 70
     1
102
RTVSPost2010Prop41ColorIndex
 90
       18
102
RTVSPost2010Prop41ColorRGB
 90
        0
102
RTVSPost2010PropOp41
 70
     1
102
RTVSPost2010Prop42
 90
       50
102
RTVSPost2010PropOp42
 70
     1
102
RTVSPost2010Prop43
 90
        3
102
RTVSPost2010PropOp43
 70
     1
102
RTVSPost2010Prop44ColorIndex
 90
        5
102
RTVSPost2010Prop44ColorRGB
 90
      255
102
RTVSPost2010PropOp44
 70
     1
102
RTVSPost2010Prop45
280
     0
102
RTVSPost2010PropOp45
 70
     1
102
RTVSPost2010Prop46
 90
       50
102
RTVSPost2010PropOp46
 70
     1
102
RTVSPost2010Prop47
 90
       50
102
RTVSPost2010PropOp47
 70
     1
102
RTVSPost2010Prop48
 90
       50
102
RTVSPost2010PropOp48
 70
     1
102
RTVSPost2010Prop49
280
     0
102
RTVSPost2010PropOp49
 70
     1
102
RTVSPost2010Prop50
 90
       50
102
RTVSPost2010PropOp50
 70
     1
102
RTVSPost2010Prop51ColorIndex
 90
      256
102
RTVSPost2010Prop51ColorRGB
 90
-16777216
102
RTVSPost2010PropOp51
 70
     0
102
RTVSPost2010Prop52
140
1.0
102
RTVSPost2010PropOp52
 70
     0
102
RTVSPost2010Prop53
 90
        2
102
RTVSPost2010PropOp53
 70
     1
102
RTVSPost2010Prop54
  1
strokes_ogs.tif
102
RTVSPost2010PropOp54
 70
     1
102
RTVSPost2010Prop55
280
     0
102
RTVSPost2010PropOp55
 70
     1
102
RTVSPost2010Prop56
140
1.0
102
RTVSPost2010PropOp56
 70
     1
102
RTVSPost2010Prop57
140
1.0
102
RTVSPost2010PropOp57
 70
     1
  0
XRECORD
  5
371
102
{ACAD_REACTORS
330
370
102
}
330
370
100
AcDbXrecord
280
     1
102
RTVSPropertyOp0
 70
     1
102
RTVSPropertyOp1
 70
     1
102
RTVSPropertyOp2
 70
     1
102
RTVSPropertyOp3
 70
     1
102
RTVSPropertyOp4
 70
     1
102
RTVSPropertyOp5
 70
     1
102
RTVSPropertyOp6
 70
     1
102
RTVSPropertyOp7
 70
     1
102
RTVSPropertyOp8
 70
     1
102
RTVSPropertyOp9
 70
     1
102
RTVSPropertyOp10
 70
     1
102
RTVSPropertyOp11
 70
     1
102
RTVSPropertyOp12
 70
     1
102
RTVSPropertyOp13
 70
     1
102
RTVSPropertyOp14
 70
     1
102
RTVSPropertyOp15
 70
     1
102
RTVSPropertyOp16
 70
     1
102
RTVSPropertyOp17
 70
     1
102
RTVSPropertyOp18
 70
     1
102
RTVSPropertyOp19
 70
     1
102
RTVSPropertyOp20
 70
     1
102
RTVSPropertyOp21
 70
     1
102
RTVSPropertyOp22
 70
     1
102
RTVSPropertyOp23
 70
     1
102
RTVSPropertyOp24
 70
     1
102
RTVSPropertyOp25
 70
     1
102
RTVSPropertyOp26
 70
     1
102
RTVSPropertyOp27
 70
     1
102
RTVSPropertyOp28
 70
     1
102
RTVSPropertyOp29
 70
     1
102
RTVSPropertyOp30
 70
     1
102
RTVSPropertyOp31
 70
     1
102
RTVSPropertyOp32
 70
     1
102
RTVSPropertyOp33
 70
     1
102
RTVSPropertyOp34
 70
     1
102
RTVSPropertyOp35
 70
     1
102
RTVSPropertyOp36
 70
     1
102
RTVSPropertyOp37
 70
     1
102
RTVSPropertyOp38
 70
     1
102
RTVSPropertyOp39
 70
     1
102
RTVSPropertyOp40
 70
     1
102
RTVSPropertyOp41
 70
     1
102
RTVSPropertyOp42
 70
     1
102
RTVSPropertyOp43
 70
     1
102
RTVSPropertyOp44
 70
     1
102
RTVSPropertyOp45
 70
     1
102
RTVSPropertyOp46
 70
     1
102
RTVSPropertyOp47
 70
     1
102
RTVSPropertyOp48
 70
     1
102
RTVSPropertyOp49
 70
     1
102
RTVSPropertyOp50
 70
     1
102
RTVSPropertyOp51
 70
     0
102
RTVSPropertyOp52
 70
     0
102
RTVSPropertyOp53
 70
     1
102
RTVSPropertyOp54
 70
     1
102
RTVSPropertyOp55
 70
     1
102
RTVSPropertyOp56
 70
     1
102
RTVSPropertyOp57
 70
     1
102
RTVSPost2010Prop28
280
     0
102
RTVSPost2010PropOp28
 70
     1
102
RTVSPost2010Prop29
280
     1
102
RTVSPost2010PropOp29
 70
     1
102
RTVSPost2010Prop30
280
     1
102
RTVSPost2010PropOp30
 70
     1
102
RTVSPost2010Prop31
280
     0
102
RTVSPost2010PropOp31
 70
     1
102
RTVSPost2010Prop32
280
     0
102
RTVSPost2010PropOp32
 70
     1
102
RTVSPost2010Prop33
280
     0
102
RTVSPost2010PropOp33
 70
     1
102
RTVSPost2010Prop34
280
     0
102
RTVSPost2010PropOp34
 70
     1
102
RTVSPost2010Prop35
280
     0
102
RTVSPost2010PropOp35
 70
     1
102
RTVSPost2010Prop36
280
     0
102
RTVSPost2010PropOp36
 70
     1
102
RTVSPost2010Prop37
 90
       50
102
RTVSPost2010PropOp37
 70
     1
102
RTVSPost2010Prop38
140
0.0
102
RTVSPost2010PropOp38
 70
     1
102
RTVSPost2010Prop39
140
1.0
102
RTVSPost2010PropOp39
 70
     1
102
RTVSPost2010Prop40
 90
        0
102
RTVSPost2010PropOp40
 70
     1
102
RTVSPost2010Prop41ColorIndex
 90
       18
102
RTVSPost2010Prop41ColorRGB
 90
        0
102
RTVSPost2010PropOp41
 70
     1
102
RTVSPost2010Prop42
 90
       50
102
RTVSPost2010PropOp42
 70
     1
102
RTVSPost2010Prop43
 90
        3
102
RTVSPost2010PropOp43
 70
     1
102
RTVSPost2010Prop44ColorIndex
 90
        5
102
RTVSPost2010Prop44ColorRGB
 90
      255
102
RTVSPost2010PropOp44
 70
     1
102
RTVSPost2010Prop45
280
     0
102
RTVSPost2010PropOp45
 70
     1
102
RTVSPost2010Prop46
 90
       50
102
RTVSPost2010PropOp46
 70
     1
102
RTVSPost2010Prop47
 90
       50
102
RTVSPost2010PropOp47
 70
     1
102
RTVSPost2010Prop48
 90
       50
102
RTVSPost2010PropOp48
 70
     1
102
RTVSPost2010Prop49
280
     0
102
RTVSPost2010PropOp49
 70
     1
102
RTVSPost2010Prop50
 90
       50
102
RTVSPost2010PropOp50
 70
     1
102
RTVSPost2010Prop51ColorIndex
 90
      256
102
RTVSPost2010Prop51ColorRGB
 90
-16777216
102
RTVSPost2010PropOp51
 70
     0
102
RTVSPost2010Prop52
140
1.0
102
RTVSPost2010PropOp52
 70
     0
102
RTVSPost2010Prop53
 90
        2
102
RTVSPost2010PropOp53
 70
     1
102
RTVSPost2010Prop54
  1
strokes_ogs.tif
102
RTVSPost2010PropOp54
 70
     1
102
RTVSPost2010Prop55
280
     0
102
RTVSPost2010PropOp55
 70
     1
102
RTVSPost2010Prop56
140
1.0
102
RTVSPost2010PropOp56
 70
     1
102
RTVSPost2010Prop57
140
1.0
102
RTVSPost2010PropOp57
 70
     1
  0
XRECORD
  5
373
102
{ACAD_REACTORS
330
372
102
}
330
372
100
AcDbXrecord
280
     1
102
RTVSPropertyOp0
 70
     1
102
RTVSPropertyOp1
 70
     1
102
RTVSPropertyOp2
 70
     1
102
RTVSPropertyOp3
 70
     1
102
RTVSPropertyOp4
 70
     1
102
RTVSPropertyOp5
 70
     1
102
RTVSPropertyOp6
 70
     1
102
RTVSPropertyOp7
 70
     1
102
RTVSPropertyOp8
 70
     1
102
RTVSPropertyOp9
 70
     1
102
RTVSPropertyOp10
 70
     1
102
RTVSPropertyOp11
 70
     1
102
RTVSPropertyOp12
 70
     1
102
RTVSPropertyOp13
 70
     1
102
RTVSPropertyOp14
 70
     1
102
RTVSPropertyOp15
 70
     1
102
RTVSPropertyOp16
 70
     1
102
RTVSPropertyOp17
 70
     1
102
RTVSPropertyOp18
 70
     1
102
RTVSPropertyOp19
 70
     1
102
RTVSPropertyOp20
 70
     1
102
RTVSPropertyOp21
 70
     1
102
RTVSPropertyOp22
 70
     1
102
RTVSPropertyOp23
 70
     1
102
RTVSPropertyOp24
 70
     1
102
RTVSPropertyOp25
 70
     1
102
RTVSPropertyOp26
 70
     1
102
RTVSPropertyOp27
 70
     1
102
RTVSPropertyOp28
 70
     1
102
RTVSPropertyOp29
 70
     1
102
RTVSPropertyOp30
 70
     1
102
RTVSPropertyOp31
 70
     1
102
RTVSPropertyOp32
 70
     1
102
RTVSPropertyOp33
 70
     1
102
RTVSPropertyOp34
 70
     1
102
RTVSPropertyOp35
 70
     1
102
RTVSPropertyOp36
 70
     1
102
RTVSPropertyOp37
 70
     1
102
RTVSPropertyOp38
 70
     1
102
RTVSPropertyOp39
 70
     1
102
RTVSPropertyOp40
 70
     1
102
RTVSPropertyOp41
 70
     1
102
RTVSPropertyOp42
 70
     1
102
RTVSPropertyOp43
 70
     1
102
RTVSPropertyOp44
 70
     1
102
RTVSPropertyOp45
 70
     1
102
RTVSPropertyOp46
 70
     1
102
RTVSPropertyOp47
 70
     1
102
RTVSPropertyOp48
 70
     1
102
RTVSPropertyOp49
 70
     1
102
RTVSPropertyOp50
 70
     1
102
RTVSPropertyOp51
 70
     0
102
RTVSPropertyOp52
 70
     0
102
RTVSPropertyOp53
 70
     1
102
RTVSPropertyOp54
 70
     1
102
RTVSPropertyOp55
 70
     1
102
RTVSPropertyOp56
 70
     1
102
RTVSPropertyOp57
 70
     1
102
RTVSPost2010Prop28
280
     0
102
RTVSPost2010PropOp28
 70
     1
102
RTVSPost2010Prop29
280
     1
102
RTVSPost2010PropOp29
 70
     1
102
RTVSPost2010Prop30
280
     1
102
RTVSPost2010PropOp30
 70
     1
102
RTVSPost2010Prop31
280
     0
102
RTVSPost2010PropOp31
 70
     1
102
RTVSPost2010Prop32
280
     0
102
RTVSPost2010PropOp32
 70
     1
102
RTVSPost2010Prop33
280
     0
102
RTVSPost2010PropOp33
 70
     1
102
RTVSPost2010Prop34
280
     0
102
RTVSPost2010PropOp34
 70
     1
102
RTVSPost2010Prop35
280
     0
102
RTVSPost2010PropOp35
 70
     1
102
RTVSPost2010Prop36
280
     0
102
RTVSPost2010PropOp36
 70
     1
102
RTVSPost2010Prop37
 90
       50
102
RTVSPost2010PropOp37
 70
     1
102
RTVSPost2010Prop38
140
0.0
102
RTVSPost2010PropOp38
 70
     1
102
RTVSPost2010Prop39
140
1.0
102
RTVSPost2010PropOp39
 70
     1
102
RTVSPost2010Prop40
 90
        0
102
RTVSPost2010PropOp40
 70
     1
102
RTVSPost2010Prop41ColorIndex
 90
       18
102
RTVSPost2010Prop41ColorRGB
 90
        0
102
RTVSPost2010PropOp41
 70
     1
102
RTVSPost2010Prop42
 90
       50
102
RTVSPost2010PropOp42
 70
     1
102
RTVSPost2010Prop43
 90
        3
102
RTVSPost2010PropOp43
 70
     1
102
RTVSPost2010Prop44ColorIndex
 90
        5
102
RTVSPost2010Prop44ColorRGB
 90
      255
102
RTVSPost2010PropOp44
 70
     1
102
RTVSPost2010Prop45
280
     0
102
RTVSPost2010PropOp45
 70
     1
102
RTVSPost2010Prop46
 90
       50
102
RTVSPost2010PropOp46
 70
     1
102
RTVSPost2010Prop47
 90
       50
102
RTVSPost2010PropOp47
 70
     1
102
RTVSPost2010Prop48
 90
       50
102
RTVSPost2010PropOp48
 70
     1
102
RTVSPost2010Prop49
280
     0
102
RTVSPost2010PropOp49
 70
     1
102
RTVSPost2010Prop50
 90
       50
102
RTVSPost2010PropOp50
 70
     1
102
RTVSPost2010Prop51ColorIndex
 90
      256
102
RTVSPost2010Prop51ColorRGB
 90
-16777216
102
RTVSPost2010PropOp51
 70
     0
102
RTVSPost2010Prop52
140
1.0
102
RTVSPost2010PropOp52
 70
     0
102
RTVSPost2010Prop53
 90
        2
102
RTVSPost2010PropOp53
 70
     1
102
RTVSPost2010Prop54
  1
strokes_ogs.tif
102
RTVSPost2010PropOp54
 70
     1
102
RTVSPost2010Prop55
280
     0
102
RTVSPost2010PropOp55
 70
     1
102
RTVSPost2010Prop56
140
1.0
102
RTVSPost2010PropOp56
 70
     1
102
RTVSPost2010Prop57
140
1.0
102
RTVSPost2010PropOp57
 70
     1
  0
XRECORD
  5
375
102
{ACAD_REACTORS
330
374
102
}
330
374
100
AcDbXrecord
280
     1
102
RTVSPropertyOp0
 70
     1
102
RTVSPropertyOp1
 70
     1
102
RTVSPropertyOp2
 70
     1
102
RTVSPropertyOp3
 70
     1
102
RTVSPropertyOp4
 70
     1
102
RTVSPropertyOp5
 70
     1
102
RTVSPropertyOp6
 70
     1
102
RTVSPropertyOp7
 70
     1
102
RTVSPropertyOp8
 70
     1
102
RTVSPropertyOp9
 70
     1
102
RTVSPropertyOp10
 70
     1
102
RTVSPropertyOp11
 70
     1
102
RTVSPropertyOp12
 70
     1
102
RTVSPropertyOp13
 70
     1
102
RTVSPropertyOp14
 70
     1
102
RTVSPropertyOp15
 70
     1
102
RTVSPropertyOp16
 70
     1
102
RTVSPropertyOp17
 70
     1
102
RTVSPropertyOp18
 70
     1
102
RTVSPropertyOp19
 70
     1
102
RTVSPropertyOp20
 70
     1
102
RTVSPropertyOp21
 70
     1
102
RTVSPropertyOp22
 70
     1
102
RTVSPropertyOp23
 70
     1
102
RTVSPropertyOp24
 70
     1
102
RTVSPropertyOp25
 70
     1
102
RTVSPropertyOp26
 70
     1
102
RTVSPropertyOp27
 70
     1
102
RTVSPropertyOp28
 70
     1
102
RTVSPropertyOp29
 70
     1
102
RTVSPropertyOp30
 70
     1
102
RTVSPropertyOp31
 70
     1
102
RTVSPropertyOp32
 70
     1
102
RTVSPropertyOp33
 70
     1
102
RTVSPropertyOp34
 70
     1
102
RTVSPropertyOp35
 70
     1
102
RTVSPropertyOp36
 70
     1
102
RTVSPropertyOp37
 70
     1
102
RTVSPropertyOp38
 70
     1
102
RTVSPropertyOp39
 70
     1
102
RTVSPropertyOp40
 70
     1
102
RTVSPropertyOp41
 70
     1
102
RTVSPropertyOp42
 70
     1
102
RTVSPropertyOp43
 70
     1
102
RTVSPropertyOp44
 70
     1
102
RTVSPropertyOp45
 70
     1
102
RTVSPropertyOp46
 70
     1
102
RTVSPropertyOp47
 70
     1
102
RTVSPropertyOp48
 70
     1
102
RTVSPropertyOp49
 70
     1
102
RTVSPropertyOp50
 70
     1
102
RTVSPropertyOp51
 70
     0
102
RTVSPropertyOp52
 70
     0
102
RTVSPropertyOp53
 70
     1
102
RTVSPropertyOp54
 70
     1
102
RTVSPropertyOp55
 70
     1
102
RTVSPropertyOp56
 70
     1
102
RTVSPropertyOp57
 70
     1
102
RTVSPost2010Prop28
280
     0
102
RTVSPost2010PropOp28
 70
     1
102
RTVSPost2010Prop29
280
     1
102
RTVSPost2010PropOp29
 70
     1
102
RTVSPost2010Prop30
280
     1
102
RTVSPost2010PropOp30
 70
     1
102
RTVSPost2010Prop31
280
     0
102
RTVSPost2010PropOp31
 70
     1
102
RTVSPost2010Prop32
280
     0
102
RTVSPost2010PropOp32
 70
     1
102
RTVSPost2010Prop33
280
     0
102
RTVSPost2010PropOp33
 70
     1
102
RTVSPost2010Prop34
280
     0
102
RTVSPost2010PropOp34
 70
     1
102
RTVSPost2010Prop35
280
     0
102
RTVSPost2010PropOp35
 70
     1
102
RTVSPost2010Prop36
280
     0
102
RTVSPost2010PropOp36
 70
     1
102
RTVSPost2010Prop37
 90
       50
102
RTVSPost2010PropOp37
 70
     1
102
RTVSPost2010Prop38
140
0.0
102
RTVSPost2010PropOp38
 70
     1
102
RTVSPost2010Prop39
140
1.0
102
RTVSPost2010PropOp39
 70
     1
102
RTVSPost2010Prop40
 90
        0
102
RTVSPost2010PropOp40
 70
     1
102
RTVSPost2010Prop41ColorIndex
 90
       18
102
RTVSPost2010Prop41ColorRGB
 90
        0
102
RTVSPost2010PropOp41
 70
     1
102
RTVSPost2010Prop42
 90
       50
102
RTVSPost2010PropOp42
 70
     1
102
RTVSPost2010Prop43
 90
        3
102
RTVSPost2010PropOp43
 70
     1
102
RTVSPost2010Prop44ColorIndex
 90
        5
102
RTVSPost2010Prop44ColorRGB
 90
      255
102
RTVSPost2010PropOp44
 70
     1
102
RTVSPost2010Prop45
280
     0
102
RTVSPost2010PropOp45
 70
     1
102
RTVSPost2010Prop46
 90
       50
102
RTVSPost2010PropOp46
 70
     1
102
RTVSPost2010Prop47
 90
       50
102
RTVSPost2010PropOp47
 70
     1
102
RTVSPost2010Prop48
 90
       50
102
RTVSPost2010PropOp48
 70
     1
102
RTVSPost2010Prop49
280
     0
102
RTVSPost2010PropOp49
 70
     1
102
RTVSPost2010Prop50
 90
       50
102
RTVSPost2010PropOp50
 70
     1
102
RTVSPost2010Prop51ColorIndex
 90
      256
102
RTVSPost2010Prop51ColorRGB
 90
-16777216
102
RTVSPost2010PropOp51
 70
     0
102
RTVSPost2010Prop52
140
1.0
102
RTVSPost2010PropOp52
 70
     0
102
RTVSPost2010Prop53
 90
        2
102
RTVSPost2010PropOp53
 70
     1
102
RTVSPost2010Prop54
  1
strokes_ogs.tif
102
RTVSPost2010PropOp54
 70
     1
102
RTVSPost2010Prop55
280
     0
102
RTVSPost2010PropOp55
 70
     1
102
RTVSPost2010Prop56
140
1.0
102
RTVSPost2010PropOp56
 70
     1
102
RTVSPost2010Prop57
140
1.0
102
RTVSPost2010PropOp57
 70
     1
  0
XRECORD
  5
37B
102
{ACAD_REACTORS
330
37A
102
}
330
37A
100
AcDbXrecord
280
     1
102
RTVSPropertyOp0
 70
     1
102
RTVSPropertyOp1
 70
     1
102
RTVSPropertyOp2
 70
     1
102
RTVSPropertyOp3
 70
     1
102
RTVSPropertyOp4
 70
     1
102
RTVSPropertyOp5
 70
     1
102
RTVSPropertyOp6
 70
     1
102
RTVSPropertyOp7
 70
     1
102
RTVSPropertyOp8
 70
     1
102
RTVSPropertyOp9
 70
     1
102
RTVSPropertyOp10
 70
     1
102
RTVSPropertyOp11
 70
     1
102
RTVSPropertyOp12
 70
     1
102
RTVSPropertyOp13
 70
     1
102
RTVSPropertyOp14
 70
     1
102
RTVSPropertyOp15
 70
     1
102
RTVSPropertyOp16
 70
     1
102
RTVSPropertyOp17
 70
     1
102
RTVSPropertyOp18
 70
     1
102
RTVSPropertyOp19
 70
     1
102
RTVSPropertyOp20
 70
     1
102
RTVSPropertyOp21
 70
     1
102
RTVSPropertyOp22
 70
     1
102
RTVSPropertyOp23
 70
     1
102
RTVSPropertyOp24
 70
     1
102
RTVSPropertyOp25
 70
     1
102
RTVSPropertyOp26
 70
     1
102
RTVSPropertyOp27
 70
     1
102
RTVSPropertyOp28
 70
     1
102
RTVSPropertyOp29
 70
     1
102
RTVSPropertyOp30
 70
     1
102
RTVSPropertyOp31
 70
     1
102
RTVSPropertyOp32
 70
     1
102
RTVSPropertyOp33
 70
     1
102
RTVSPropertyOp34
 70
     1
102
RTVSPropertyOp35
 70
     1
102
RTVSPropertyOp36
 70
     1
102
RTVSPropertyOp37
 70
     1
102
RTVSPropertyOp38
 70
     1
102
RTVSPropertyOp39
 70
     1
102
RTVSPropertyOp40
 70
     1
102
RTVSPropertyOp41
 70
     1
102
RTVSPropertyOp42
 70
     1
102
RTVSPropertyOp43
 70
     1
102
RTVSPropertyOp44
 70
     1
102
RTVSPropertyOp45
 70
     1
102
RTVSPropertyOp46
 70
     1
102
RTVSPropertyOp47
 70
     1
102
RTVSPropertyOp48
 70
     1
102
RTVSPropertyOp49
 70
     1
102
RTVSPropertyOp50
 70
     1
102
RTVSPropertyOp51
 70
     0
102
RTVSPropertyOp52
 70
     0
102
RTVSPropertyOp53
 70
     1
102
RTVSPropertyOp54
 70
     1
102
RTVSPropertyOp55
 70
     1
102
RTVSPropertyOp56
 70
     1
102
RTVSPropertyOp57
 70
     1
102
RTVSPost2010Prop28
280
     0
102
RTVSPost2010PropOp28
 70
     1
102
RTVSPost2010Prop29
280
     1
102
RTVSPost2010PropOp29
 70
     1
102
RTVSPost2010Prop30
280
     1
102
RTVSPost2010PropOp30
 70
     1
102
RTVSPost2010Prop31
280
     0
102
RTVSPost2010PropOp31
 70
     1
102
RTVSPost2010Prop32
280
     0
102
RTVSPost2010PropOp32
 70
     1
102
RTVSPost2010Prop33
280
     0
102
RTVSPost2010PropOp33
 70
     1
102
RTVSPost2010Prop34
280
     0
102
RTVSPost2010PropOp34
 70
     1
102
RTVSPost2010Prop35
280
     0
102
RTVSPost2010PropOp35
 70
     1
102
RTVSPost2010Prop36
280
     0
102
RTVSPost2010PropOp36
 70
     1
102
RTVSPost2010Prop37
 90
       50
102
RTVSPost2010PropOp37
 70
     1
102
RTVSPost2010Prop38
140
0.0
102
RTVSPost2010PropOp38
 70
     1
102
RTVSPost2010Prop39
140
1.0
102
RTVSPost2010PropOp39
 70
     1
102
RTVSPost2010Prop40
 90
        0
102
RTVSPost2010PropOp40
 70
     1
102
RTVSPost2010Prop41ColorIndex
 90
       18
102
RTVSPost2010Prop41ColorRGB
 90
        0
102
RTVSPost2010PropOp41
 70
     1
102
RTVSPost2010Prop42
 90
       50
102
RTVSPost2010PropOp42
 70
     1
102
RTVSPost2010Prop43
 90
        3
102
RTVSPost2010PropOp43
 70
     1
102
RTVSPost2010Prop44ColorIndex
 90
        5
102
RTVSPost2010Prop44ColorRGB
 90
      255
102
RTVSPost2010PropOp44
 70
     1
102
RTVSPost2010Prop45
280
     0
102
RTVSPost2010PropOp45
 70
     1
102
RTVSPost2010Prop46
 90
       50
102
RTVSPost2010PropOp46
 70
     1
102
RTVSPost2010Prop47
 90
       50
102
RTVSPost2010PropOp47
 70
     1
102
RTVSPost2010Prop48
 90
       50
102
RTVSPost2010PropOp48
 70
     1
102
RTVSPost2010Prop49
280
     0
102
RTVSPost2010PropOp49
 70
     1
102
RTVSPost2010Prop50
 90
       50
102
RTVSPost2010PropOp50
 70
     1
102
RTVSPost2010Prop51ColorIndex
 90
      256
102
RTVSPost2010Prop51ColorRGB
 90
-16777216
102
RTVSPost2010PropOp51
 70
     0
102
RTVSPost2010Prop52
140
1.0
102
RTVSPost2010PropOp52
 70
     0
102
RTVSPost2010Prop53
 90
        2
102
RTVSPost2010PropOp53
 70
     1
102
RTVSPost2010Prop54
  1
strokes_ogs.tif
102
RTVSPost2010PropOp54
 70
     1
102
RTVSPost2010Prop55
280
     0
102
RTVSPost2010PropOp55
 70
     1
102
RTVSPost2010Prop56
140
1.0
102
RTVSPost2010PropOp56
 70
     1
102
RTVSPost2010Prop57
140
1.0
102
RTVSPost2010PropOp57
 70
     1
  0
XRECORD
  5
38F
102
{ACAD_REACTORS
330
38E
102
}
330
38E
100
AcDbXrecord
280
     1
102
RTVSPropertyOp0
 70
     0
102
RTVSPropertyOp1
 70
     0
102
RTVSPropertyOp2
 70
     0
102
RTVSPropertyOp3
 70
     0
102
RTVSPropertyOp4
 70
     0
102
RTVSPropertyOp5
 70
     0
102
RTVSPropertyOp6
 70
     0
102
RTVSPropertyOp7
 70
     0
102
RTVSPropertyOp8
 70
     0
102
RTVSPropertyOp9
 70
     0
102
RTVSPropertyOp10
 70
     0
102
RTVSPropertyOp11
 70
     0
102
RTVSPropertyOp12
 70
     0
102
RTVSPropertyOp13
 70
     0
102
RTVSPropertyOp14
 70
     2
102
RTVSPropertyOp15
 70
     0
102
RTVSPropertyOp16
 70
     0
102
RTVSPropertyOp17
 70
     0
102
RTVSPropertyOp18
 70
     0
102
RTVSPropertyOp19
 70
     0
102
RTVSPropertyOp20
 70
     0
102
RTVSPropertyOp21
 70
     0
102
RTVSPropertyOp22
 70
     0
102
RTVSPropertyOp23
 70
     0
102
RTVSPropertyOp24
 70
     0
102
RTVSPropertyOp25
 70
     0
102
RTVSPropertyOp26
 70
     0
102
RTVSPropertyOp27
 70
     0
102
RTVSPropertyOp28
 70
     0
102
RTVSPropertyOp29
 70
     0
102
RTVSPropertyOp30
 70
     0
102
RTVSPropertyOp31
 70
     0
102
RTVSPropertyOp32
 70
     0
102
RTVSPropertyOp33
 70
     0
102
RTVSPropertyOp34
 70
     0
102
RTVSPropertyOp35
 70
     0
102
RTVSPropertyOp36
 70
     0
102
RTVSPropertyOp37
 70
     0
102
RTVSPropertyOp38
 70
     0
102
RTVSPropertyOp39
 70
     0
102
RTVSPropertyOp40
 70
     0
102
RTVSPropertyOp41
 70
     0
102
RTVSPropertyOp42
 70
     0
102
RTVSPropertyOp43
 70
     0
102
RTVSPropertyOp44
 70
     0
102
RTVSPropertyOp45
 70
     0
102
RTVSPropertyOp46
 70
     0
102
RTVSPropertyOp47
 70
     0
102
RTVSPropertyOp48
 70
     0
102
RTVSPropertyOp49
 70
     0
102
RTVSPropertyOp50
 70
     0
102
RTVSPropertyOp51
 70
     0
102
RTVSPropertyOp52
 70
     0
102
RTVSPropertyOp53
 70
     0
102
RTVSPropertyOp54
 70
     0
102
RTVSPropertyOp55
 70
     0
102
RTVSPropertyOp56
 70
     0
102
RTVSPropertyOp57
 70
     0
102
RTVSPost2010Prop28
280
     0
102
RTVSPost2010PropOp28
 70
     0
102
RTVSPost2010Prop29
280
     1
102
RTVSPost2010PropOp29
 70
     0
102
RTVSPost2010Prop30
280
     1
102
RTVSPost2010PropOp30
 70
     0
102
RTVSPost2010Prop31
280
     0
102
RTVSPost2010PropOp31
 70
     0
102
RTVSPost2010Prop32
280
     0
102
RTVSPost2010PropOp32
 70
     0
102
RTVSPost2010Prop33
280
     0
102
RTVSPost2010PropOp33
 70
     0
102
RTVSPost2010Prop34
280
     0
102
RTVSPost2010PropOp34
 70
     0
102
RTVSPost2010Prop35
280
     0
102
RTVSPost2010PropOp35
 70
     0
102
RTVSPost2010Prop36
280
     0
102
RTVSPost2010PropOp36
 70
     0
102
RTVSPost2010Prop37
 90
       50
102
RTVSPost2010PropOp37
 70
     0
102
RTVSPost2010Prop38
140
0.0
102
RTVSPost2010PropOp38
 70
     0
102
RTVSPost2010Prop39
140
1.0
102
RTVSPost2010PropOp39
 70
     0
102
RTVSPost2010Prop40
 90
        0
102
RTVSPost2010PropOp40
 70
     0
102
RTVSPost2010Prop41ColorIndex
 90
       18
102
RTVSPost2010Prop41ColorRGB
 90
        0
102
RTVSPost2010PropOp41
 70
     0
102
RTVSPost2010Prop42
 90
       50
102
RTVSPost2010PropOp42
 70
     0
102
RTVSPost2010Prop43
 90
        3
102
RTVSPost2010PropOp43
 70
     0
102
RTVSPost2010Prop44ColorIndex
 90
        5
102
RTVSPost2010Prop44ColorRGB
 90
      255
102
RTVSPost2010PropOp44
 70
     0
102
RTVSPost2010Prop45
280
     0
102
RTVSPost2010PropOp45
 70
     0
102
RTVSPost2010Prop46
 90
       50
102
RTVSPost2010PropOp46
 70
     0
102
RTVSPost2010Prop47
 90
       50
102
RTVSPost2010PropOp47
 70
     0
102
RTVSPost2010Prop48
 90
       50
102
RTVSPost2010PropOp48
 70
     0
102
RTVSPost2010Prop49
280
     0
102
RTVSPost2010PropOp49
 70
     0
102
RTVSPost2010Prop50
 90
       50
102
RTVSPost2010PropOp50
 70
     0
102
RTVSPost2010Prop51ColorIndex
 90
      256
102
RTVSPost2010Prop51ColorRGB
 90
-16777216
102
RTVSPost2010PropOp51
 70
     0
102
RTVSPost2010Prop52
140
1.0
102
RTVSPost2010PropOp52
 70
     0
102
RTVSPost2010Prop53
 90
        2
102
RTVSPost2010PropOp53
 70
     0
102
RTVSPost2010Prop54
  1
strokes_ogs.tif
102
RTVSPost2010PropOp54
 70
     0
102
RTVSPost2010Prop55
280
     0
102
RTVSPost2010PropOp55
 70
     0
102
RTVSPost2010Prop56
140
1.0
102
RTVSPost2010PropOp56
 70
     0
102
RTVSPost2010Prop57
140
1.0
102
RTVSPost2010PropOp57
 70
     0
  0
XRECORD
  5
389
102
{ACAD_REACTORS
330
388
102
}
330
388
100
AcDbXrecord
280
     1
102
RTVSPropertyOp0
 70
     1
102
RTVSPropertyOp1
 70
     1
102
RTVSPropertyOp2
 70
     1
102
RTVSPropertyOp3
 70
     1
102
RTVSPropertyOp4
 70
     1
102
RTVSPropertyOp5
 70
     1
102
RTVSPropertyOp6
 70
     1
102
RTVSPropertyOp7
 70
     1
102
RTVSPropertyOp8
 70
     1
102
RTVSPropertyOp9
 70
     1
102
RTVSPropertyOp10
 70
     1
102
RTVSPropertyOp11
 70
     1
102
RTVSPropertyOp12
 70
     1
102
RTVSPropertyOp13
 70
     1
102
RTVSPropertyOp14
 70
     1
102
RTVSPropertyOp15
 70
     1
102
RTVSPropertyOp16
 70
     1
102
RTVSPropertyOp17
 70
     1
102
RTVSPropertyOp18
 70
     1
102
RTVSPropertyOp19
 70
     1
102
RTVSPropertyOp20
 70
     1
102
RTVSPropertyOp21
 70
     1
102
RTVSPropertyOp22
 70
     1
102
RTVSPropertyOp23
 70
     1
102
RTVSPropertyOp24
 70
     1
102
RTVSPropertyOp25
 70
     1
102
RTVSPropertyOp26
 70
     1
102
RTVSPropertyOp27
 70
     1
102
RTVSPropertyOp28
 70
     1
102
RTVSPropertyOp29
 70
     1
102
RTVSPropertyOp30
 70
     1
102
RTVSPropertyOp31
 70
     1
102
RTVSPropertyOp32
 70
     1
102
RTVSPropertyOp33
 70
     1
102
RTVSPropertyOp34
 70
     1
102
RTVSPropertyOp35
 70
     1
102
RTVSPropertyOp36
 70
     1
102
RTVSPropertyOp37
 70
     1
102
RTVSPropertyOp38
 70
     1
102
RTVSPropertyOp39
 70
     1
102
RTVSPropertyOp40
 70
     1
102
RTVSPropertyOp41
 70
     1
102
RTVSPropertyOp42
 70
     1
102
RTVSPropertyOp43
 70
     1
102
RTVSPropertyOp44
 70
     1
102
RTVSPropertyOp45
 70
     1
102
RTVSPropertyOp46
 70
     1
102
RTVSPropertyOp47
 70
     1
102
RTVSPropertyOp48
 70
     1
102
RTVSPropertyOp49
 70
     1
102
RTVSPropertyOp50
 70
     1
102
RTVSPropertyOp51
 70
     0
102
RTVSPropertyOp52
 70
     0
102
RTVSPropertyOp53
 70
     1
102
RTVSPropertyOp54
 70
     1
102
RTVSPropertyOp55
 70
     1
102
RTVSPropertyOp56
 70
     1
102
RTVSPropertyOp57
 70
     1
102
RTVSPost2010Prop28
280
     0
102
RTVSPost2010PropOp28
 70
     1
102
RTVSPost2010Prop29
280
     1
102
RTVSPost2010PropOp29
 70
     1
102
RTVSPost2010Prop30
280
     1
102
RTVSPost2010PropOp30
 70
     1
102
RTVSPost2010Prop31
280
     0
102
RTVSPost2010PropOp31
 70
     1
102
RTVSPost2010Prop32
280
     0
102
RTVSPost2010PropOp32
 70
     1
102
RTVSPost2010Prop33
280
     0
102
RTVSPost2010PropOp33
 70
     1
102
RTVSPost2010Prop34
280
     0
102
RTVSPost2010PropOp34
 70
     1
102
RTVSPost2010Prop35
280
     0
102
RTVSPost2010PropOp35
 70
     1
102
RTVSPost2010Prop36
280
     0
102
RTVSPost2010PropOp36
 70
     1
102
RTVSPost2010Prop37
 90
       50
102
RTVSPost2010PropOp37
 70
     1
102
RTVSPost2010Prop38
140
0.0
102
RTVSPost2010PropOp38
 70
     1
102
RTVSPost2010Prop39
140
1.0
102
RTVSPost2010PropOp39
 70
     1
102
RTVSPost2010Prop40
 90
        0
102
RTVSPost2010PropOp40
 70
     1
102
RTVSPost2010Prop41ColorIndex
 90
       18
102
RTVSPost2010Prop41ColorRGB
 90
        0
102
RTVSPost2010PropOp41
 70
     1
102
RTVSPost2010Prop42
 90
       50
102
RTVSPost2010PropOp42
 70
     1
102
RTVSPost2010Prop43
 90
        3
102
RTVSPost2010PropOp43
 70
     1
102
RTVSPost2010Prop44ColorIndex
 90
        5
102
RTVSPost2010Prop44ColorRGB
 90
      255
102
RTVSPost2010PropOp44
 70
     1
102
RTVSPost2010Prop45
280
     0
102
RTVSPost2010PropOp45
 70
     1
102
RTVSPost2010Prop46
 90
       50
102
RTVSPost2010PropOp46
 70
     1
102
RTVSPost2010Prop47
 90
       50
102
RTVSPost2010PropOp47
 70
     1
102
RTVSPost2010Prop48
 90
       50
102
RTVSPost2010PropOp48
 70
     1
102
RTVSPost2010Prop49
280
     0
102
RTVSPost2010PropOp49
 70
     1
102
RTVSPost2010Prop50
 90
       50
102
RTVSPost2010PropOp50
 70
     1
102
RTVSPost2010Prop51ColorIndex
 90
      256
102
RTVSPost2010Prop51ColorRGB
 90
-16777216
102
RTVSPost2010PropOp51
 70
     0
102
RTVSPost2010Prop52
140
1.0
102
RTVSPost2010PropOp52
 70
     0
102
RTVSPost2010Prop53
 90
        2
102
RTVSPost2010PropOp53
 70
     1
102
RTVSPost2010Prop54
  1
strokes_ogs.tif
102
RTVSPost2010PropOp54
 70
     1
102
RTVSPost2010Prop55
280
     0
102
RTVSPost2010PropOp55
 70
     1
102
RTVSPost2010Prop56
140
1.0
102
RTVSPost2010PropOp56
 70
     1
102
RTVSPost2010Prop57
140
1.0
102
RTVSPost2010PropOp57
 70
     1
  0
XRECORD
  5
391
102
{ACAD_REACTORS
330
390
102
}
330
390
100
AcDbXrecord
280
     1
102
RTVSPropertyOp0
 70
     0
102
RTVSPropertyOp1
 70
     0
102
RTVSPropertyOp2
 70
     0
102
RTVSPropertyOp3
 70
     0
102
RTVSPropertyOp4
 70
     0
102
RTVSPropertyOp5
 70
     0
102
RTVSPropertyOp6
 70
     0
102
RTVSPropertyOp7
 70
     0
102
RTVSPropertyOp8
 70
     0
102
RTVSPropertyOp9
 70
     0
102
RTVSPropertyOp10
 70
     0
102
RTVSPropertyOp11
 70
     0
102
RTVSPropertyOp12
 70
     0
102
RTVSPropertyOp13
 70
     0
102
RTVSPropertyOp14
 70
     2
102
RTVSPropertyOp15
 70
     0
102
RTVSPropertyOp16
 70
     0
102
RTVSPropertyOp17
 70
     0
102
RTVSPropertyOp18
 70
     0
102
RTVSPropertyOp19
 70
     0
102
RTVSPropertyOp20
 70
     0
102
RTVSPropertyOp21
 70
     0
102
RTVSPropertyOp22
 70
     0
102
RTVSPropertyOp23
 70
     0
102
RTVSPropertyOp24
 70
     0
102
RTVSPropertyOp25
 70
     0
102
RTVSPropertyOp26
 70
     0
102
RTVSPropertyOp27
 70
     0
102
RTVSPropertyOp28
 70
     0
102
RTVSPropertyOp29
 70
     0
102
RTVSPropertyOp30
 70
     0
102
RTVSPropertyOp31
 70
     0
102
RTVSPropertyOp32
 70
     0
102
RTVSPropertyOp33
 70
     0
102
RTVSPropertyOp34
 70
     0
102
RTVSPropertyOp35
 70
     0
102
RTVSPropertyOp36
 70
     0
102
RTVSPropertyOp37
 70
     0
102
RTVSPropertyOp38
 70
     0
102
RTVSPropertyOp39
 70
     0
102
RTVSPropertyOp40
 70
     0
102
RTVSPropertyOp41
 70
     0
102
RTVSPropertyOp42
 70
     0
102
RTVSPropertyOp43
 70
     0
102
RTVSPropertyOp44
 70
     0
102
RTVSPropertyOp45
 70
     0
102
RTVSPropertyOp46
 70
     0
102
RTVSPropertyOp47
 70
     0
102
RTVSPropertyOp48
 70
     0
102
RTVSPropertyOp49
 70
     0
102
RTVSPropertyOp50
 70
     0
102
RTVSPropertyOp51
 70
     0
102
RTVSPropertyOp52
 70
     0
102
RTVSPropertyOp53
 70
     0
102
RTVSPropertyOp54
 70
     0
102
RTVSPropertyOp55
 70
     0
102
RTVSPropertyOp56
 70
     0
102
RTVSPropertyOp57
 70
     0
102
RTVSPost2010Prop28
280
     0
102
RTVSPost2010PropOp28
 70
     0
102
RTVSPost2010Prop29
280
     1
102
RTVSPost2010PropOp29
 70
     0
102
RTVSPost2010Prop30
280
     1
102
RTVSPost2010PropOp30
 70
     0
102
RTVSPost2010Prop31
280
     0
102
RTVSPost2010PropOp31
 70
     0
102
RTVSPost2010Prop32
280
     0
102
RTVSPost2010PropOp32
 70
     0
102
RTVSPost2010Prop33
280
     0
102
RTVSPost2010PropOp33
 70
     0
102
RTVSPost2010Prop34
280
     0
102
RTVSPost2010PropOp34
 70
     0
102
RTVSPost2010Prop35
280
     0
102
RTVSPost2010PropOp35
 70
     0
102
RTVSPost2010Prop36
280
     0
102
RTVSPost2010PropOp36
 70
     0
102
RTVSPost2010Prop37
 90
       50
102
RTVSPost2010PropOp37
 70
     0
102
RTVSPost2010Prop38
140
0.0
102
RTVSPost2010PropOp38
 70
     0
102
RTVSPost2010Prop39
140
1.0
102
RTVSPost2010PropOp39
 70
     0
102
RTVSPost2010Prop40
 90
        0
102
RTVSPost2010PropOp40
 70
     0
102
RTVSPost2010Prop41ColorIndex
 90
       18
102
RTVSPost2010Prop41ColorRGB
 90
        0
102
RTVSPost2010PropOp41
 70
     0
102
RTVSPost2010Prop42
 90
       50
102
RTVSPost2010PropOp42
 70
     0
102
RTVSPost2010Prop43
 90
        3
102
RTVSPost2010PropOp43
 70
     0
102
RTVSPost2010Prop44ColorIndex
 90
        5
102
RTVSPost2010Prop44ColorRGB
 90
      255
102
RTVSPost2010PropOp44
 70
     0
102
RTVSPost2010Prop45
280
     0
102
RTVSPost2010PropOp45
 70
     0
102
RTVSPost2010Prop46
 90
       50
102
RTVSPost2010PropOp46
 70
     0
102
RTVSPost2010Prop47
 90
       50
102
RTVSPost2010PropOp47
 70
     0
102
RTVSPost2010Prop48
 90
       50
102
RTVSPost2010PropOp48
 70
     0
102
RTVSPost2010Prop49
280
     0
102
RTVSPost2010PropOp49
 70
     0
102
RTVSPost2010Prop50
 90
       50
102
RTVSPost2010PropOp50
 70
     0
102
RTVSPost2010Prop51ColorIndex
 90
      256
102
RTVSPost2010Prop51ColorRGB
 90
-16777216
102
RTVSPost2010PropOp51
 70
     0
102
RTVSPost2010Prop52
140
1.0
102
RTVSPost2010PropOp52
 70
     0
102
RTVSPost2010Prop53
 90
        2
102
RTVSPost2010PropOp53
 70
     0
102
RTVSPost2010Prop54
  1
strokes_ogs.tif
102
RTVSPost2010PropOp54
 70
     0
102
RTVSPost2010Prop55
280
     0
102
RTVSPost2010PropOp55
 70
     0
102
RTVSPost2010Prop56
140
1.0
102
RTVSPost2010PropOp56
 70
     0
102
RTVSPost2010Prop57
140
1.0
102
RTVSPost2010PropOp57
 70
     0
  0
XRECORD
  5
37F
102
{ACAD_REACTORS
330
37E
102
}
330
37E
100
AcDbXrecord
280
     1
102
RTVSPropertyOp0
 70
     1
102
RTVSPropertyOp1
 70
     1
102
RTVSPropertyOp2
 70
     1
102
RTVSPropertyOp3
 70
     1
102
RTVSPropertyOp4
 70
     1
102
RTVSPropertyOp5
 70
     1
102
RTVSPropertyOp6
 70
     1
102
RTVSPropertyOp7
 70
     1
102
RTVSPropertyOp8
 70
     1
102
RTVSPropertyOp9
 70
     1
102
RTVSPropertyOp10
 70
     1
102
RTVSPropertyOp11
 70
     1
102
RTVSPropertyOp12
 70
     1
102
RTVSPropertyOp13
 70
     1
102
RTVSPropertyOp14
 70
     1
102
RTVSPropertyOp15
 70
     1
102
RTVSPropertyOp16
 70
     1
102
RTVSPropertyOp17
 70
     1
102
RTVSPropertyOp18
 70
     1
102
RTVSPropertyOp19
 70
     1
102
RTVSPropertyOp20
 70
     1
102
RTVSPropertyOp21
 70
     1
102
RTVSPropertyOp22
 70
     1
102
RTVSPropertyOp23
 70
     1
102
RTVSPropertyOp24
 70
     1
102
RTVSPropertyOp25
 70
     1
102
RTVSPropertyOp26
 70
     1
102
RTVSPropertyOp27
 70
     1
102
RTVSPropertyOp28
 70
     1
102
RTVSPropertyOp29
 70
     1
102
RTVSPropertyOp30
 70
     1
102
RTVSPropertyOp31
 70
     1
102
RTVSPropertyOp32
 70
     1
102
RTVSPropertyOp33
 70
     1
102
RTVSPropertyOp34
 70
     1
102
RTVSPropertyOp35
 70
     1
102
RTVSPropertyOp36
 70
     1
102
RTVSPropertyOp37
 70
     1
102
RTVSPropertyOp38
 70
     1
102
RTVSPropertyOp39
 70
     1
102
RTVSPropertyOp40
 70
     1
102
RTVSPropertyOp41
 70
     1
102
RTVSPropertyOp42
 70
     1
102
RTVSPropertyOp43
 70
     1
102
RTVSPropertyOp44
 70
     1
102
RTVSPropertyOp45
 70
     1
102
RTVSPropertyOp46
 70
     1
102
RTVSPropertyOp47
 70
     1
102
RTVSPropertyOp48
 70
     1
102
RTVSPropertyOp49
 70
     1
102
RTVSPropertyOp50
 70
     1
102
RTVSPropertyOp51
 70
     0
102
RTVSPropertyOp52
 70
     0
102
RTVSPropertyOp53
 70
     1
102
RTVSPropertyOp54
 70
     1
102
RTVSPropertyOp55
 70
     1
102
RTVSPropertyOp56
 70
     1
102
RTVSPropertyOp57
 70
     1
102
RTVSPost2010Prop28
280
     0
102
RTVSPost2010PropOp28
 70
     1
102
RTVSPost2010Prop29
280
     1
102
RTVSPost2010PropOp29
 70
     1
102
RTVSPost2010Prop30
280
     1
102
RTVSPost2010PropOp30
 70
     1
102
RTVSPost2010Prop31
280
     0
102
RTVSPost2010PropOp31
 70
     1
102
RTVSPost2010Prop32
280
     0
102
RTVSPost2010PropOp32
 70
     1
102
RTVSPost2010Prop33
280
     0
102
RTVSPost2010PropOp33
 70
     1
102
RTVSPost2010Prop34
280
     0
102
RTVSPost2010PropOp34
 70
     1
102
RTVSPost2010Prop35
280
     0
102
RTVSPost2010PropOp35
 70
     1
102
RTVSPost2010Prop36
280
     0
102
RTVSPost2010PropOp36
 70
     1
102
RTVSPost2010Prop37
 90
       50
102
RTVSPost2010PropOp37
 70
     1
102
RTVSPost2010Prop38
140
0.0
102
RTVSPost2010PropOp38
 70
     1
102
RTVSPost2010Prop39
140
1.0
102
RTVSPost2010PropOp39
 70
     1
102
RTVSPost2010Prop40
 90
        0
102
RTVSPost2010PropOp40
 70
     1
102
RTVSPost2010Prop41ColorIndex
 90
       18
102
RTVSPost2010Prop41ColorRGB
 90
        0
102
RTVSPost2010PropOp41
 70
     1
102
RTVSPost2010Prop42
 90
       50
102
RTVSPost2010PropOp42
 70
     1
102
RTVSPost2010Prop43
 90
        3
102
RTVSPost2010PropOp43
 70
     1
102
RTVSPost2010Prop44ColorIndex
 90
        5
102
RTVSPost2010Prop44ColorRGB
 90
      255
102
RTVSPost2010PropOp44
 70
     1
102
RTVSPost2010Prop45
280
     0
102
RTVSPost2010PropOp45
 70
     1
102
RTVSPost2010Prop46
 90
       50
102
RTVSPost2010PropOp46
 70
     1
102
RTVSPost2010Prop47
 90
       50
102
RTVSPost2010PropOp47
 70
     1
102
RTVSPost2010Prop48
 90
       50
102
RTVSPost2010PropOp48
 70
     1
102
RTVSPost2010Prop49
280
     0
102
RTVSPost2010PropOp49
 70
     1
102
RTVSPost2010Prop50
 90
       50
102
RTVSPost2010PropOp50
 70
     1
102
RTVSPost2010Prop51ColorIndex
 90
      256
102
RTVSPost2010Prop51ColorRGB
 90
-16777216
102
RTVSPost2010PropOp51
 70
     0
102
RTVSPost2010Prop52
140
1.0
102
RTVSPost2010PropOp52
 70
     0
102
RTVSPost2010Prop53
 90
        2
102
RTVSPost2010PropOp53
 70
     1
102
RTVSPost2010Prop54
  1
strokes_ogs.tif
102
RTVSPost2010PropOp54
 70
     1
102
RTVSPost2010Prop55
280
     0
102
RTVSPost2010PropOp55
 70
     1
102
RTVSPost2010Prop56
140
1.0
102
RTVSPost2010PropOp56
 70
     1
102
RTVSPost2010Prop57
140
1.0
102
RTVSPost2010PropOp57
 70
     1
  0
XRECORD
  5
39D
102
{ACAD_REACTORS
330
39C
102
}
330
39C
100
AcDbXrecord
280
     1
102
RTVSPropertyOp0
 70
     1
102
RTVSPropertyOp1
 70
     1
102
RTVSPropertyOp2
 70
     1
102
RTVSPropertyOp3
 70
     1
102
RTVSPropertyOp4
 70
     1
102
RTVSPropertyOp5
 70
     1
102
RTVSPropertyOp6
 70
     1
102
RTVSPropertyOp7
 70
     1
102
RTVSPropertyOp8
 70
     1
102
RTVSPropertyOp9
 70
     1
102
RTVSPropertyOp10
 70
     1
102
RTVSPropertyOp11
 70
     1
102
RTVSPropertyOp12
 70
     1
102
RTVSPropertyOp13
 70
     1
102
RTVSPropertyOp14
 70
     1
102
RTVSPropertyOp15
 70
     1
102
RTVSPropertyOp16
 70
     1
102
RTVSPropertyOp17
 70
     1
102
RTVSPropertyOp18
 70
     1
102
RTVSPropertyOp19
 70
     1
102
RTVSPropertyOp20
 70
     1
102
RTVSPropertyOp21
 70
     1
102
RTVSPropertyOp22
 70
     1
102
RTVSPropertyOp23
 70
     1
102
RTVSPropertyOp24
 70
     1
102
RTVSPropertyOp25
 70
     1
102
RTVSPropertyOp26
 70
     1
102
RTVSPropertyOp27
 70
     1
102
RTVSPropertyOp28
 70
     1
102
RTVSPropertyOp29
 70
     1
102
RTVSPropertyOp30
 70
     1
102
RTVSPropertyOp31
 70
     1
102
RTVSPropertyOp32
 70
     1
102
RTVSPropertyOp33
 70
     1
102
RTVSPropertyOp34
 70
     1
102
RTVSPropertyOp35
 70
     1
102
RTVSPropertyOp36
 70
     1
102
RTVSPropertyOp37
 70
     1
102
RTVSPropertyOp38
 70
     1
102
RTVSPropertyOp39
 70
     1
102
RTVSPropertyOp40
 70
     1
102
RTVSPropertyOp41
 70
     1
102
RTVSPropertyOp42
 70
     1
102
RTVSPropertyOp43
 70
     1
102
RTVSPropertyOp44
 70
     1
102
RTVSPropertyOp45
 70
     1
102
RTVSPropertyOp46
 70
     1
102
RTVSPropertyOp47
 70
     1
102
RTVSPropertyOp48
 70
     1
102
RTVSPropertyOp49
 70
     1
102
RTVSPropertyOp50
 70
     1
102
RTVSPropertyOp51
 70
     0
102
RTVSPropertyOp52
 70
     0
102
RTVSPropertyOp53
 70
     1
102
RTVSPropertyOp54
 70
     1
102
RTVSPropertyOp55
 70
     1
102
RTVSPropertyOp56
 70
     1
102
RTVSPropertyOp57
 70
     1
102
RTVSPost2010Prop28
280
     0
102
RTVSPost2010PropOp28
 70
     1
102
RTVSPost2010Prop29
280
     1
102
RTVSPost2010PropOp29
 70
     1
102
RTVSPost2010Prop30
280
     1
102
RTVSPost2010PropOp30
 70
     1
102
RTVSPost2010Prop31
280
     0
102
RTVSPost2010PropOp31
 70
     1
102
RTVSPost2010Prop32
280
     0
102
RTVSPost2010PropOp32
 70
     1
102
RTVSPost2010Prop33
280
     0
102
RTVSPost2010PropOp33
 70
     1
102
RTVSPost2010Prop34
280
     0
102
RTVSPost2010PropOp34
 70
     1
102
RTVSPost2010Prop35
280
     0
102
RTVSPost2010PropOp35
 70
     1
102
RTVSPost2010Prop36
280
     0
102
RTVSPost2010PropOp36
 70
     1
102
RTVSPost2010Prop37
 90
       50
102
RTVSPost2010PropOp37
 70
     1
102
RTVSPost2010Prop38
140
0.0
102
RTVSPost2010PropOp38
 70
     1
102
RTVSPost2010Prop39
140
1.0
102
RTVSPost2010PropOp39
 70
     1
102
RTVSPost2010Prop40
 90
        0
102
RTVSPost2010PropOp40
 70
     1
102
RTVSPost2010Prop41ColorIndex
 90
       18
102
RTVSPost2010Prop41ColorRGB
 90
        0
102
RTVSPost2010PropOp41
 70
     1
102
RTVSPost2010Prop42
 90
       50
102
RTVSPost2010PropOp42
 70
     1
102
RTVSPost2010Prop43
 90
        3
102
RTVSPost2010PropOp43
 70
     1
102
RTVSPost2010Prop44ColorIndex
 90
        5
102
RTVSPost2010Prop44ColorRGB
 90
      255
102
RTVSPost2010PropOp44
 70
     1
102
RTVSPost2010Prop45
280
     0
102
RTVSPost2010PropOp45
 70
     1
102
RTVSPost2010Prop46
 90
       50
102
RTVSPost2010PropOp46
 70
     1
102
RTVSPost2010Prop47
 90
       50
102
RTVSPost2010PropOp47
 70
     1
102
RTVSPost2010Prop48
 90
       50
102
RTVSPost2010PropOp48
 70
     1
102
RTVSPost2010Prop49
280
     0
102
RTVSPost2010PropOp49
 70
     1
102
RTVSPost2010Prop50
 90
       50
102
RTVSPost2010PropOp50
 70
     1
102
RTVSPost2010Prop51ColorIndex
 90
      256
102
RTVSPost2010Prop51ColorRGB
 90
-16777216
102
RTVSPost2010PropOp51
 70
     0
102
RTVSPost2010Prop52
140
1.0
102
RTVSPost2010PropOp52
 70
     0
102
RTVSPost2010Prop53
 90
        2
102
RTVSPost2010PropOp53
 70
     1
102
RTVSPost2010Prop54
  1
strokes_ogs.tif
102
RTVSPost2010PropOp54
 70
     1
102
RTVSPost2010Prop55
280
     0
102
RTVSPost2010PropOp55
 70
     1
102
RTVSPost2010Prop56
140
1.0
102
RTVSPost2010PropOp56
 70
     1
102
RTVSPost2010Prop57
140
1.0
102
RTVSPost2010PropOp57
 70
     1
  0
XRECORD
  5
39B
102
{ACAD_REACTORS
330
39A
102
}
330
39A
100
AcDbXrecord
280
     1
102
RTVSPropertyOp0
 70
     1
102
RTVSPropertyOp1
 70
     1
102
RTVSPropertyOp2
 70
     1
102
RTVSPropertyOp3
 70
     1
102
RTVSPropertyOp4
 70
     1
102
RTVSPropertyOp5
 70
     1
102
RTVSPropertyOp6
 70
     1
102
RTVSPropertyOp7
 70
     1
102
RTVSPropertyOp8
 70
     1
102
RTVSPropertyOp9
 70
     1
102
RTVSPropertyOp10
 70
     1
102
RTVSPropertyOp11
 70
     1
102
RTVSPropertyOp12
 70
     1
102
RTVSPropertyOp13
 70
     1
102
RTVSPropertyOp14
 70
     1
102
RTVSPropertyOp15
 70
     1
102
RTVSPropertyOp16
 70
     1
102
RTVSPropertyOp17
 70
     1
102
RTVSPropertyOp18
 70
     1
102
RTVSPropertyOp19
 70
     1
102
RTVSPropertyOp20
 70
     1
102
RTVSPropertyOp21
 70
     1
102
RTVSPropertyOp22
 70
     1
102
RTVSPropertyOp23
 70
     1
102
RTVSPropertyOp24
 70
     1
102
RTVSPropertyOp25
 70
     1
102
RTVSPropertyOp26
 70
     1
102
RTVSPropertyOp27
 70
     1
102
RTVSPropertyOp28
 70
     1
102
RTVSPropertyOp29
 70
     1
102
RTVSPropertyOp30
 70
     1
102
RTVSPropertyOp31
 70
     1
102
RTVSPropertyOp32
 70
     1
102
RTVSPropertyOp33
 70
     1
102
RTVSPropertyOp34
 70
     1
102
RTVSPropertyOp35
 70
     1
102
RTVSPropertyOp36
 70
     1
102
RTVSPropertyOp37
 70
     1
102
RTVSPropertyOp38
 70
     1
102
RTVSPropertyOp39
 70
     1
102
RTVSPropertyOp40
 70
     1
102
RTVSPropertyOp41
 70
     1
102
RTVSPropertyOp42
 70
     1
102
RTVSPropertyOp43
 70
     1
102
RTVSPropertyOp44
 70
     1
102
RTVSPropertyOp45
 70
     1
102
RTVSPropertyOp46
 70
     1
102
RTVSPropertyOp47
 70
     1
102
RTVSPropertyOp48
 70
     1
102
RTVSPropertyOp49
 70
     1
102
RTVSPropertyOp50
 70
     1
102
RTVSPropertyOp51
 70
     0
102
RTVSPropertyOp52
 70
     0
102
RTVSPropertyOp53
 70
     1
102
RTVSPropertyOp54
 70
     1
102
RTVSPropertyOp55
 70
     1
102
RTVSPropertyOp56
 70
     1
102
RTVSPropertyOp57
 70
     1
102
RTVSPost2010Prop28
280
     0
102
RTVSPost2010PropOp28
 70
     1
102
RTVSPost2010Prop29
280
     1
102
RTVSPost2010PropOp29
 70
     1
102
RTVSPost2010Prop30
280
     1
102
RTVSPost2010PropOp30
 70
     1
102
RTVSPost2010Prop31
280
     0
102
RTVSPost2010PropOp31
 70
     1
102
RTVSPost2010Prop32
280
     0
102
RTVSPost2010PropOp32
 70
     1
102
RTVSPost2010Prop33
280
     0
102
RTVSPost2010PropOp33
 70
     1
102
RTVSPost2010Prop34
280
     0
102
RTVSPost2010PropOp34
 70
     1
102
RTVSPost2010Prop35
280
     0
102
RTVSPost2010PropOp35
 70
     1
102
RTVSPost2010Prop36
280
     0
102
RTVSPost2010PropOp36
 70
     1
102
RTVSPost2010Prop37
 90
       50
102
RTVSPost2010PropOp37
 70
     1
102
RTVSPost2010Prop38
140
0.0
102
RTVSPost2010PropOp38
 70
     1
102
RTVSPost2010Prop39
140
1.0
102
RTVSPost2010PropOp39
 70
     1
102
RTVSPost2010Prop40
 90
        0
102
RTVSPost2010PropOp40
 70
     1
102
RTVSPost2010Prop41ColorIndex
 90
       18
102
RTVSPost2010Prop41ColorRGB
 90
        0
102
RTVSPost2010PropOp41
 70
     1
102
RTVSPost2010Prop42
 90
       50
102
RTVSPost2010PropOp42
 70
     1
102
RTVSPost2010Prop43
 90
        3
102
RTVSPost2010PropOp43
 70
     1
102
RTVSPost2010Prop44ColorIndex
 90
        5
102
RTVSPost2010Prop44ColorRGB
 90
      255
102
RTVSPost2010PropOp44
 70
     1
102
RTVSPost2010Prop45
280
     0
102
RTVSPost2010PropOp45
 70
     1
102
RTVSPost2010Prop46
 90
       50
102
RTVSPost2010PropOp46
 70
     1
102
RTVSPost2010Prop47
 90
       50
102
RTVSPost2010PropOp47
 70
     1
102
RTVSPost2010Prop48
 90
       50
102
RTVSPost2010PropOp48
 70
     1
102
RTVSPost2010Prop49
280
     0
102
RTVSPost2010PropOp49
 70
     1
102
RTVSPost2010Prop50
 90
       50
102
RTVSPost2010PropOp50
 70
     1
102
RTVSPost2010Prop51ColorIndex
 90
      256
102
RTVSPost2010Prop51ColorRGB
 90
-16777216
102
RTVSPost2010PropOp51
 70
     0
102
RTVSPost2010Prop52
140
1.0
102
RTVSPost2010PropOp52
 70
     0
102
RTVSPost2010Prop53
 90
        2
102
RTVSPost2010PropOp53
 70
     1
102
RTVSPost2010Prop54
  1
strokes_ogs.tif
102
RTVSPost2010PropOp54
 70
     1
102
RTVSPost2010Prop55
280
     0
102
RTVSPost2010PropOp55
 70
     1
102
RTVSPost2010Prop56
140
1.0
102
RTVSPost2010PropOp56
 70
     1
102
RTVSPost2010Prop57
140
1.0
102
RTVSPost2010PropOp57
 70
     1
  0
XRECORD
  5
395
102
{ACAD_REACTORS
330
394
102
}
330
394
100
AcDbXrecord
280
     1
102
RTVSPropertyOp0
 70
     1
102
RTVSPropertyOp1
 70
     1
102
RTVSPropertyOp2
 70
     1
102
RTVSPropertyOp3
 70
     1
102
RTVSPropertyOp4
 70
     1
102
RTVSPropertyOp5
 70
     1
102
RTVSPropertyOp6
 70
     1
102
RTVSPropertyOp7
 70
     1
102
RTVSPropertyOp8
 70
     1
102
RTVSPropertyOp9
 70
     1
102
RTVSPropertyOp10
 70
     1
102
RTVSPropertyOp11
 70
     1
102
RTVSPropertyOp12
 70
     1
102
RTVSPropertyOp13
 70
     1
102
RTVSPropertyOp14
 70
     1
102
RTVSPropertyOp15
 70
     1
102
RTVSPropertyOp16
 70
     1
102
RTVSPropertyOp17
 70
     1
102
RTVSPropertyOp18
 70
     1
102
RTVSPropertyOp19
 70
     1
102
RTVSPropertyOp20
 70
     1
102
RTVSPropertyOp21
 70
     1
102
RTVSPropertyOp22
 70
     1
102
RTVSPropertyOp23
 70
     1
102
RTVSPropertyOp24
 70
     1
102
RTVSPropertyOp25
 70
     1
102
RTVSPropertyOp26
 70
     1
102
RTVSPropertyOp27
 70
     1
102
RTVSPropertyOp28
 70
     1
102
RTVSPropertyOp29
 70
     1
102
RTVSPropertyOp30
 70
     1
102
RTVSPropertyOp31
 70
     1
102
RTVSPropertyOp32
 70
     1
102
RTVSPropertyOp33
 70
     1
102
RTVSPropertyOp34
 70
     1
102
RTVSPropertyOp35
 70
     1
102
RTVSPropertyOp36
 70
     1
102
RTVSPropertyOp37
 70
     1
102
RTVSPropertyOp38
 70
     1
102
RTVSPropertyOp39
 70
     1
102
RTVSPropertyOp40
 70
     1
102
RTVSPropertyOp41
 70
     1
102
RTVSPropertyOp42
 70
     1
102
RTVSPropertyOp43
 70
     1
102
RTVSPropertyOp44
 70
     1
102
RTVSPropertyOp45
 70
     1
102
RTVSPropertyOp46
 70
     1
102
RTVSPropertyOp47
 70
     1
102
RTVSPropertyOp48
 70
     1
102
RTVSPropertyOp49
 70
     1
102
RTVSPropertyOp50
 70
     1
102
RTVSPropertyOp51
 70
     0
102
RTVSPropertyOp52
 70
     0
102
RTVSPropertyOp53
 70
     1
102
RTVSPropertyOp54
 70
     1
102
RTVSPropertyOp55
 70
     1
102
RTVSPropertyOp56
 70
     1
102
RTVSPropertyOp57
 70
     1
102
RTVSPost2010Prop28
280
     0
102
RTVSPost2010PropOp28
 70
     1
102
RTVSPost2010Prop29
280
     1
102
RTVSPost2010PropOp29
 70
     1
102
RTVSPost2010Prop30
280
     1
102
RTVSPost2010PropOp30
 70
     1
102
RTVSPost2010Prop31
280
     0
102
RTVSPost2010PropOp31
 70
     1
102
RTVSPost2010Prop32
280
     0
102
RTVSPost2010PropOp32
 70
     1
102
RTVSPost2010Prop33
280
     0
102
RTVSPost2010PropOp33
 70
     1
102
RTVSPost2010Prop34
280
     0
102
RTVSPost2010PropOp34
 70
     1
102
RTVSPost2010Prop35
280
     0
102
RTVSPost2010PropOp35
 70
     1
102
RTVSPost2010Prop36
280
     0
102
RTVSPost2010PropOp36
 70
     1
102
RTVSPost2010Prop37
 90
       50
102
RTVSPost2010PropOp37
 70
     1
102
RTVSPost2010Prop38
140
0.0
102
RTVSPost2010PropOp38
 70
     1
102
RTVSPost2010Prop39
140
1.0
102
RTVSPost2010PropOp39
 70
     1
102
RTVSPost2010Prop40
 90
        0
102
RTVSPost2010PropOp40
 70
     1
102
RTVSPost2010Prop41ColorIndex
 90
       18
102
RTVSPost2010Prop41ColorRGB
 90
        0
102
RTVSPost2010PropOp41
 70
     1
102
RTVSPost2010Prop42
 90
       50
102
RTVSPost2010PropOp42
 70
     1
102
RTVSPost2010Prop43
 90
        3
102
RTVSPost2010PropOp43
 70
     1
102
RTVSPost2010Prop44ColorIndex
 90
        5
102
RTVSPost2010Prop44ColorRGB
 90
      255
102
RTVSPost2010PropOp44
 70
     1
102
RTVSPost2010Prop45
280
     0
102
RTVSPost2010PropOp45
 70
     1
102
RTVSPost2010Prop46
 90
       50
102
RTVSPost2010PropOp46
 70
     1
102
RTVSPost2010Prop47
 90
       50
102
RTVSPost2010PropOp47
 70
     1
102
RTVSPost2010Prop48
 90
       50
102
RTVSPost2010PropOp48
 70
     1
102
RTVSPost2010Prop49
280
     0
102
RTVSPost2010PropOp49
 70
     1
102
RTVSPost2010Prop50
 90
       50
102
RTVSPost2010PropOp50
 70
     1
102
RTVSPost2010Prop51ColorIndex
 90
      256
102
RTVSPost2010Prop51ColorRGB
 90
-16777216
102
RTVSPost2010PropOp51
 70
     0
102
RTVSPost2010Prop52
140
1.0
102
RTVSPost2010PropOp52
 70
     0
102
RTVSPost2010Prop53
 90
        2
102
RTVSPost2010PropOp53
 70
     1
102
RTVSPost2010Prop54
  1
strokes_ogs.tif
102
RTVSPost2010PropOp54
 70
     1
102
RTVSPost2010Prop55
280
     0
102
RTVSPost2010PropOp55
 70
     1
102
RTVSPost2010Prop56
140
1.0
102
RTVSPost2010PropOp56
 70
     1
102
RTVSPost2010Prop57
140
1.0
102
RTVSPost2010PropOp57
 70
     1
  0
XRECORD
  5
397
102
{ACAD_REACTORS
330
396
102
}
330
396
100
AcDbXrecord
280
     1
102
RTVSPropertyOp0
 70
     1
102
RTVSPropertyOp1
 70
     1
102
RTVSPropertyOp2
 70
     1
102
RTVSPropertyOp3
 70
     1
102
RTVSPropertyOp4
 70
     1
102
RTVSPropertyOp5
 70
     1
102
RTVSPropertyOp6
 70
     1
102
RTVSPropertyOp7
 70
     1
102
RTVSPropertyOp8
 70
     1
102
RTVSPropertyOp9
 70
     1
102
RTVSPropertyOp10
 70
     1
102
RTVSPropertyOp11
 70
     1
102
RTVSPropertyOp12
 70
     1
102
RTVSPropertyOp13
 70
     1
102
RTVSPropertyOp14
 70
     1
102
RTVSPropertyOp15
 70
     1
102
RTVSPropertyOp16
 70
     1
102
RTVSPropertyOp17
 70
     1
102
RTVSPropertyOp18
 70
     1
102
RTVSPropertyOp19
 70
     1
102
RTVSPropertyOp20
 70
     1
102
RTVSPropertyOp21
 70
     1
102
RTVSPropertyOp22
 70
     1
102
RTVSPropertyOp23
 70
     1
102
RTVSPropertyOp24
 70
     1
102
RTVSPropertyOp25
 70
     1
102
RTVSPropertyOp26
 70
     1
102
RTVSPropertyOp27
 70
     1
102
RTVSPropertyOp28
 70
     1
102
RTVSPropertyOp29
 70
     1
102
RTVSPropertyOp30
 70
     1
102
RTVSPropertyOp31
 70
     1
102
RTVSPropertyOp32
 70
     1
102
RTVSPropertyOp33
 70
     1
102
RTVSPropertyOp34
 70
     1
102
RTVSPropertyOp35
 70
     1
102
RTVSPropertyOp36
 70
     1
102
RTVSPropertyOp37
 70
     1
102
RTVSPropertyOp38
 70
     1
102
RTVSPropertyOp39
 70
     1
102
RTVSPropertyOp40
 70
     1
102
RTVSPropertyOp41
 70
     1
102
RTVSPropertyOp42
 70
     1
102
RTVSPropertyOp43
 70
     1
102
RTVSPropertyOp44
 70
     1
102
RTVSPropertyOp45
 70
     1
102
RTVSPropertyOp46
 70
     1
102
RTVSPropertyOp47
 70
     1
102
RTVSPropertyOp48
 70
     1
102
RTVSPropertyOp49
 70
     1
102
RTVSPropertyOp50
 70
     1
102
RTVSPropertyOp51
 70
     0
102
RTVSPropertyOp52
 70
     0
102
RTVSPropertyOp53
 70
     1
102
RTVSPropertyOp54
 70
     1
102
RTVSPropertyOp55
 70
     1
102
RTVSPropertyOp56
 70
     1
102
RTVSPropertyOp57
 70
     1
102
RTVSPost2010Prop28
280
     0
102
RTVSPost2010PropOp28
 70
     1
102
RTVSPost2010Prop29
280
     1
102
RTVSPost2010PropOp29
 70
     1
102
RTVSPost2010Prop30
280
     1
102
RTVSPost2010PropOp30
 70
     1
102
RTVSPost2010Prop31
280
     0
102
RTVSPost2010PropOp31
 70
     1
102
RTVSPost2010Prop32
280
     0
102
RTVSPost2010PropOp32
 70
     1
102
RTVSPost2010Prop33
280
     0
102
RTVSPost2010PropOp33
 70
     1
102
RTVSPost2010Prop34
280
     0
102
RTVSPost2010PropOp34
 70
     1
102
RTVSPost2010Prop35
280
     0
102
RTVSPost2010PropOp35
 70
     1
102
RTVSPost2010Prop36
280
     0
102
RTVSPost2010PropOp36
 70
     1
102
RTVSPost2010Prop37
 90
       50
102
RTVSPost2010PropOp37
 70
     1
102
RTVSPost2010Prop38
140
0.0
102
RTVSPost2010PropOp38
 70
     1
102
RTVSPost2010Prop39
140
1.0
102
RTVSPost2010PropOp39
 70
     1
102
RTVSPost2010Prop40
 90
        0
102
RTVSPost2010PropOp40
 70
     1
102
RTVSPost2010Prop41ColorIndex
 90
       18
102
RTVSPost2010Prop41ColorRGB
 90
        0
102
RTVSPost2010PropOp41
 70
     1
102
RTVSPost2010Prop42
 90
       50
102
RTVSPost2010PropOp42
 70
     1
102
RTVSPost2010Prop43
 90
        3
102
RTVSPost2010PropOp43
 70
     1
102
RTVSPost2010Prop44ColorIndex
 90
        5
102
RTVSPost2010Prop44ColorRGB
 90
      255
102
RTVSPost2010PropOp44
 70
     1
102
RTVSPost2010Prop45
280
     0
102
RTVSPost2010PropOp45
 70
     1
102
RTVSPost2010Prop46
 90
       50
102
RTVSPost2010PropOp46
 70
     1
102
RTVSPost2010Prop47
 90
       50
102
RTVSPost2010PropOp47
 70
     1
102
RTVSPost2010Prop48
 90
       50
102
RTVSPost2010PropOp48
 70
     1
102
RTVSPost2010Prop49
280
     0
102
RTVSPost2010PropOp49
 70
     1
102
RTVSPost2010Prop50
 90
       50
102
RTVSPost2010PropOp50
 70
     1
102
RTVSPost2010Prop51ColorIndex
 90
      256
102
RTVSPost2010Prop51ColorRGB
 90
-16777216
102
RTVSPost2010PropOp51
 70
     0
102
RTVSPost2010Prop52
140
1.0
102
RTVSPost2010PropOp52
 70
     0
102
RTVSPost2010Prop53
 90
        2
102
RTVSPost2010PropOp53
 70
     1
102
RTVSPost2010Prop54
  1
strokes_ogs.tif
102
RTVSPost2010PropOp54
 70
     1
102
RTVSPost2010Prop55
280
     0
102
RTVSPost2010PropOp55
 70
     1
102
RTVSPost2010Prop56
140
1.0
102
RTVSPost2010PropOp56
 70
     1
102
RTVSPost2010Prop57
140
1.0
102
RTVSPost2010PropOp57
 70
     1
  0
XRECORD
  5
387
102
{ACAD_REACTORS
330
386
102
}
330
386
100
AcDbXrecord
280
     1
102
RTVSPropertyOp0
 70
     1
102
RTVSPropertyOp1
 70
     1
102
RTVSPropertyOp2
 70
     1
102
RTVSPropertyOp3
 70
     1
102
RTVSPropertyOp4
 70
     1
102
RTVSPropertyOp5
 70
     1
102
RTVSPropertyOp6
 70
     1
102
RTVSPropertyOp7
 70
     1
102
RTVSPropertyOp8
 70
     1
102
RTVSPropertyOp9
 70
     1
102
RTVSPropertyOp10
 70
     1
102
RTVSPropertyOp11
 70
     1
102
RTVSPropertyOp12
 70
     1
102
RTVSPropertyOp13
 70
     1
102
RTVSPropertyOp14
 70
     1
102
RTVSPropertyOp15
 70
     1
102
RTVSPropertyOp16
 70
     1
102
RTVSPropertyOp17
 70
     1
102
RTVSPropertyOp18
 70
     1
102
RTVSPropertyOp19
 70
     1
102
RTVSPropertyOp20
 70
     1
102
RTVSPropertyOp21
 70
     1
102
RTVSPropertyOp22
 70
     1
102
RTVSPropertyOp23
 70
     1
102
RTVSPropertyOp24
 70
     1
102
RTVSPropertyOp25
 70
     1
102
RTVSPropertyOp26
 70
     1
102
RTVSPropertyOp27
 70
     1
102
RTVSPropertyOp28
 70
     1
102
RTVSPropertyOp29
 70
     1
102
RTVSPropertyOp30
 70
     1
102
RTVSPropertyOp31
 70
     1
102
RTVSPropertyOp32
 70
     1
102
RTVSPropertyOp33
 70
     1
102
RTVSPropertyOp34
 70
     1
102
RTVSPropertyOp35
 70
     1
102
RTVSPropertyOp36
 70
     1
102
RTVSPropertyOp37
 70
     1
102
RTVSPropertyOp38
 70
     1
102
RTVSPropertyOp39
 70
     1
102
RTVSPropertyOp40
 70
     1
102
RTVSPropertyOp41
 70
     1
102
RTVSPropertyOp42
 70
     1
102
RTVSPropertyOp43
 70
     1
102
RTVSPropertyOp44
 70
     1
102
RTVSPropertyOp45
 70
     1
102
RTVSPropertyOp46
 70
     1
102
RTVSPropertyOp47
 70
     1
102
RTVSPropertyOp48
 70
     1
102
RTVSPropertyOp49
 70
     1
102
RTVSPropertyOp50
 70
     1
102
RTVSPropertyOp51
 70
     0
102
RTVSPropertyOp52
 70
     0
102
RTVSPropertyOp53
 70
     1
102
RTVSPropertyOp54
 70
     1
102
RTVSPropertyOp55
 70
     1
102
RTVSPropertyOp56
 70
     1
102
RTVSPropertyOp57
 70
     1
102
RTVSPost2010Prop28
280
     0
102
RTVSPost2010PropOp28
 70
     1
102
RTVSPost2010Prop29
280
     1
102
RTVSPost2010PropOp29
 70
     1
102
RTVSPost2010Prop30
280
     1
102
RTVSPost2010PropOp30
 70
     1
102
RTVSPost2010Prop31
280
     0
102
RTVSPost2010PropOp31
 70
     1
102
RTVSPost2010Prop32
280
     0
102
RTVSPost2010PropOp32
 70
     1
102
RTVSPost2010Prop33
280
     0
102
RTVSPost2010PropOp33
 70
     1
102
RTVSPost2010Prop34
280
     0
102
RTVSPost2010PropOp34
 70
     1
102
RTVSPost2010Prop35
280
     0
102
RTVSPost2010PropOp35
 70
     1
102
RTVSPost2010Prop36
280
     0
102
RTVSPost2010PropOp36
 70
     1
102
RTVSPost2010Prop37
 90
       50
102
RTVSPost2010PropOp37
 70
     1
102
RTVSPost2010Prop38
140
0.0
102
RTVSPost2010PropOp38
 70
     1
102
RTVSPost2010Prop39
140
1.0
102
RTVSPost2010PropOp39
 70
     1
102
RTVSPost2010Prop40
 90
        0
102
RTVSPost2010PropOp40
 70
     1
102
RTVSPost2010Prop41ColorIndex
 90
       18
102
RTVSPost2010Prop41ColorRGB
 90
        0
102
RTVSPost2010PropOp41
 70
     1
102
RTVSPost2010Prop42
 90
       50
102
RTVSPost2010PropOp42
 70
     1
102
RTVSPost2010Prop43
 90
        3
102
RTVSPost2010PropOp43
 70
     1
102
RTVSPost2010Prop44ColorIndex
 90
        5
102
RTVSPost2010Prop44ColorRGB
 90
      255
102
RTVSPost2010PropOp44
 70
     1
102
RTVSPost2010Prop45
280
     0
102
RTVSPost2010PropOp45
 70
     1
102
RTVSPost2010Prop46
 90
       50
102
RTVSPost2010PropOp46
 70
     1
102
RTVSPost2010Prop47
 90
       50
102
RTVSPost2010PropOp47
 70
     1
102
RTVSPost2010Prop48
 90
       50
102
RTVSPost2010PropOp48
 70
     1
102
RTVSPost2010Prop49
280
     0
102
RTVSPost2010PropOp49
 70
     1
102
RTVSPost2010Prop50
 90
       50
102
RTVSPost2010PropOp50
 70
     1
102
RTVSPost2010Prop51ColorIndex
 90
      256
102
RTVSPost2010Prop51ColorRGB
 90
-16777216
102
RTVSPost2010PropOp51
 70
     0
102
RTVSPost2010Prop52
140
1.0
102
RTVSPost2010PropOp52
 70
     0
102
RTVSPost2010Prop53
 90
        2
102
RTVSPost2010PropOp53
 70
     1
102
RTVSPost2010Prop54
  1
strokes_ogs.tif
102
RTVSPost2010PropOp54
 70
     1
102
RTVSPost2010Prop55
280
     0
102
RTVSPost2010PropOp55
 70
     1
102
RTVSPost2010Prop56
140
1.0
102
RTVSPost2010PropOp56
 70
     1
102
RTVSPost2010Prop57
140
1.0
102
RTVSPost2010PropOp57
 70
     1
  0
XRECORD
  5
379
102
{ACAD_REACTORS
330
378
102
}
330
378
100
AcDbXrecord
280
     1
102
RTVSPropertyOp0
 70
     1
102
RTVSPropertyOp1
 70
     1
102
RTVSPropertyOp2
 70
     1
102
RTVSPropertyOp3
 70
     1
102
RTVSPropertyOp4
 70
     1
102
RTVSPropertyOp5
 70
     1
102
RTVSPropertyOp6
 70
     1
102
RTVSPropertyOp7
 70
     1
102
RTVSPropertyOp8
 70
     1
102
RTVSPropertyOp9
 70
     1
102
RTVSPropertyOp10
 70
     1
102
RTVSPropertyOp11
 70
     1
102
RTVSPropertyOp12
 70
     1
102
RTVSPropertyOp13
 70
     1
102
RTVSPropertyOp14
 70
     1
102
RTVSPropertyOp15
 70
     1
102
RTVSPropertyOp16
 70
     1
102
RTVSPropertyOp17
 70
     1
102
RTVSPropertyOp18
 70
     1
102
RTVSPropertyOp19
 70
     1
102
RTVSPropertyOp20
 70
     1
102
RTVSPropertyOp21
 70
     1
102
RTVSPropertyOp22
 70
     1
102
RTVSPropertyOp23
 70
     1
102
RTVSPropertyOp24
 70
     1
102
RTVSPropertyOp25
 70
     1
102
RTVSPropertyOp26
 70
     1
102
RTVSPropertyOp27
 70
     1
102
RTVSPropertyOp28
 70
     1
102
RTVSPropertyOp29
 70
     1
102
RTVSPropertyOp30
 70
     1
102
RTVSPropertyOp31
 70
     1
102
RTVSPropertyOp32
 70
     1
102
RTVSPropertyOp33
 70
     1
102
RTVSPropertyOp34
 70
     1
102
RTVSPropertyOp35
 70
     1
102
RTVSPropertyOp36
 70
     1
102
RTVSPropertyOp37
 70
     1
102
RTVSPropertyOp38
 70
     1
102
RTVSPropertyOp39
 70
     1
102
RTVSPropertyOp40
 70
     1
102
RTVSPropertyOp41
 70
     1
102
RTVSPropertyOp42
 70
     1
102
RTVSPropertyOp43
 70
     1
102
RTVSPropertyOp44
 70
     1
102
RTVSPropertyOp45
 70
     1
102
RTVSPropertyOp46
 70
     1
102
RTVSPropertyOp47
 70
     1
102
RTVSPropertyOp48
 70
     1
102
RTVSPropertyOp49
 70
     1
102
RTVSPropertyOp50
 70
     1
102
RTVSPropertyOp51
 70
     0
102
RTVSPropertyOp52
 70
     0
102
RTVSPropertyOp53
 70
     1
102
RTVSPropertyOp54
 70
     1
102
RTVSPropertyOp55
 70
     1
102
RTVSPropertyOp56
 70
     1
102
RTVSPropertyOp57
 70
     1
102
RTVSPost2010Prop28
280
     0
102
RTVSPost2010PropOp28
 70
     1
102
RTVSPost2010Prop29
280
     1
102
RTVSPost2010PropOp29
 70
     1
102
RTVSPost2010Prop30
280
     1
102
RTVSPost2010PropOp30
 70
     1
102
RTVSPost2010Prop31
280
     0
102
RTVSPost2010PropOp31
 70
     1
102
RTVSPost2010Prop32
280
     0
102
RTVSPost2010PropOp32
 70
     1
102
RTVSPost2010Prop33
280
     0
102
RTVSPost2010PropOp33
 70
     1
102
RTVSPost2010Prop34
280
     0
102
RTVSPost2010PropOp34
 70
     1
102
RTVSPost2010Prop35
280
     0
102
RTVSPost2010PropOp35
 70
     1
102
RTVSPost2010Prop36
280
     0
102
RTVSPost2010PropOp36
 70
     1
102
RTVSPost2010Prop37
 90
       50
102
RTVSPost2010PropOp37
 70
     1
102
RTVSPost2010Prop38
140
0.0
102
RTVSPost2010PropOp38
 70
     1
102
RTVSPost2010Prop39
140
1.0
102
RTVSPost2010PropOp39
 70
     1
102
RTVSPost2010Prop40
 90
        0
102
RTVSPost2010PropOp40
 70
     1
102
RTVSPost2010Prop41ColorIndex
 90
       18
102
RTVSPost2010Prop41ColorRGB
 90
        0
102
RTVSPost2010PropOp41
 70
     1
102
RTVSPost2010Prop42
 90
       50
102
RTVSPost2010PropOp42
 70
     1
102
RTVSPost2010Prop43
 90
        3
102
RTVSPost2010PropOp43
 70
     1
102
RTVSPost2010Prop44ColorIndex
 90
        5
102
RTVSPost2010Prop44ColorRGB
 90
      255
102
RTVSPost2010PropOp44
 70
     1
102
RTVSPost2010Prop45
280
     0
102
RTVSPost2010PropOp45
 70
     1
102
RTVSPost2010Prop46
 90
       50
102
RTVSPost2010PropOp46
 70
     1
102
RTVSPost2010Prop47
 90
       50
102
RTVSPost2010PropOp47
 70
     1
102
RTVSPost2010Prop48
 90
       50
102
RTVSPost2010PropOp48
 70
     1
102
RTVSPost2010Prop49
280
     0
102
RTVSPost2010PropOp49
 70
     1
102
RTVSPost2010Prop50
 90
       50
102
RTVSPost2010PropOp50
 70
     1
102
RTVSPost2010Prop51ColorIndex
 90
      256
102
RTVSPost2010Prop51ColorRGB
 90
-16777216
102
RTVSPost2010PropOp51
 70
     0
102
RTVSPost2010Prop52
140
1.0
102
RTVSPost2010PropOp52
 70
     0
102
RTVSPost2010Prop53
 90
        2
102
RTVSPost2010PropOp53
 70
     1
102
RTVSPost2010Prop54
  1
strokes_ogs.tif
102
RTVSPost2010PropOp54
 70
     1
102
RTVSPost2010Prop55
280
     0
102
RTVSPost2010PropOp55
 70
     1
102
RTVSPost2010Prop56
140
1.0
102
RTVSPost2010PropOp56
 70
     1
102
RTVSPost2010Prop57
140
1.0
102
RTVSPost2010PropOp57
 70
     1
  0
XRECORD
  5
399
102
{ACAD_REACTORS
330
398
102
}
330
398
100
AcDbXrecord
280
     1
102
RTVSPropertyOp0
 70
     1
102
RTVSPropertyOp1
 70
     1
102
RTVSPropertyOp2
 70
     1
102
RTVSPropertyOp3
 70
     1
102
RTVSPropertyOp4
 70
     1
102
RTVSPropertyOp5
 70
     1
102
RTVSPropertyOp6
 70
     1
102
RTVSPropertyOp7
 70
     1
102
RTVSPropertyOp8
 70
     1
102
RTVSPropertyOp9
 70
     1
102
RTVSPropertyOp10
 70
     1
102
RTVSPropertyOp11
 70
     1
102
RTVSPropertyOp12
 70
     1
102
RTVSPropertyOp13
 70
     1
102
RTVSPropertyOp14
 70
     1
102
RTVSPropertyOp15
 70
     1
102
RTVSPropertyOp16
 70
     1
102
RTVSPropertyOp17
 70
     1
102
RTVSPropertyOp18
 70
     1
102
RTVSPropertyOp19
 70
     1
102
RTVSPropertyOp20
 70
     1
102
RTVSPropertyOp21
 70
     1
102
RTVSPropertyOp22
 70
     1
102
RTVSPropertyOp23
 70
     1
102
RTVSPropertyOp24
 70
     1
102
RTVSPropertyOp25
 70
     1
102
RTVSPropertyOp26
 70
     1
102
RTVSPropertyOp27
 70
     1
102
RTVSPropertyOp28
 70
     1
102
RTVSPropertyOp29
 70
     1
102
RTVSPropertyOp30
 70
     1
102
RTVSPropertyOp31
 70
     1
102
RTVSPropertyOp32
 70
     1
102
RTVSPropertyOp33
 70
     1
102
RTVSPropertyOp34
 70
     1
102
RTVSPropertyOp35
 70
     1
102
RTVSPropertyOp36
 70
     1
102
RTVSPropertyOp37
 70
     1
102
RTVSPropertyOp38
 70
     1
102
RTVSPropertyOp39
 70
     1
102
RTVSPropertyOp40
 70
     1
102
RTVSPropertyOp41
 70
     1
102
RTVSPropertyOp42
 70
     1
102
RTVSPropertyOp43
 70
     1
102
RTVSPropertyOp44
 70
     1
102
RTVSPropertyOp45
 70
     1
102
RTVSPropertyOp46
 70
     1
102
RTVSPropertyOp47
 70
     1
102
RTVSPropertyOp48
 70
     1
102
RTVSPropertyOp49
 70
     1
102
RTVSPropertyOp50
 70
     1
102
RTVSPropertyOp51
 70
     0
102
RTVSPropertyOp52
 70
     0
102
RTVSPropertyOp53
 70
     1
102
RTVSPropertyOp54
 70
     1
102
RTVSPropertyOp55
 70
     1
102
RTVSPropertyOp56
 70
     1
102
RTVSPropertyOp57
 70
     1
102
RTVSPost2010Prop28
280
     0
102
RTVSPost2010PropOp28
 70
     1
102
RTVSPost2010Prop29
280
     1
102
RTVSPost2010PropOp29
 70
     1
102
RTVSPost2010Prop30
280
     1
102
RTVSPost2010PropOp30
 70
     1
102
RTVSPost2010Prop31
280
     0
102
RTVSPost2010PropOp31
 70
     1
102
RTVSPost2010Prop32
280
     0
102
RTVSPost2010PropOp32
 70
     1
102
RTVSPost2010Prop33
280
     0
102
RTVSPost2010PropOp33
 70
     1
102
RTVSPost2010Prop34
280
     0
102
RTVSPost2010PropOp34
 70
     1
102
RTVSPost2010Prop35
280
     0
102
RTVSPost2010PropOp35
 70
     1
102
RTVSPost2010Prop36
280
     0
102
RTVSPost2010PropOp36
 70
     1
102
RTVSPost2010Prop37
 90
       50
102
RTVSPost2010PropOp37
 70
     1
102
RTVSPost2010Prop38
140
0.0
102
RTVSPost2010PropOp38
 70
     1
102
RTVSPost2010Prop39
140
1.0
102
RTVSPost2010PropOp39
 70
     1
102
RTVSPost2010Prop40
 90
        0
102
RTVSPost2010PropOp40
 70
     1
102
RTVSPost2010Prop41ColorIndex
 90
       18
102
RTVSPost2010Prop41ColorRGB
 90
        0
102
RTVSPost2010PropOp41
 70
     1
102
RTVSPost2010Prop42
 90
       50
102
RTVSPost2010PropOp42
 70
     1
102
RTVSPost2010Prop43
 90
        3
102
RTVSPost2010PropOp43
 70
     1
102
RTVSPost2010Prop44ColorIndex
 90
        5
102
RTVSPost2010Prop44ColorRGB
 90
      255
102
RTVSPost2010PropOp44
 70
     1
102
RTVSPost2010Prop45
280
     0
102
RTVSPost2010PropOp45
 70
     1
102
RTVSPost2010Prop46
 90
       50
102
RTVSPost2010PropOp46
 70
     1
102
RTVSPost2010Prop47
 90
       50
102
RTVSPost2010PropOp47
 70
     1
102
RTVSPost2010Prop48
 90
       50
102
RTVSPost2010PropOp48
 70
     1
102
RTVSPost2010Prop49
280
     0
102
RTVSPost2010PropOp49
 70
     1
102
RTVSPost2010Prop50
 90
       50
102
RTVSPost2010PropOp50
 70
     1
102
RTVSPost2010Prop51ColorIndex
 90
      256
102
RTVSPost2010Prop51ColorRGB
 90
-16777216
102
RTVSPost2010PropOp51
 70
     0
102
RTVSPost2010Prop52
140
1.0
102
RTVSPost2010PropOp52
 70
     0
102
RTVSPost2010Prop53
 90
        2
102
RTVSPost2010PropOp53
 70
     1
102
RTVSPost2010Prop54
  1
strokes_ogs.tif
102
RTVSPost2010PropOp54
 70
     1
102
RTVSPost2010Prop55
280
     0
102
RTVSPost2010PropOp55
 70
     1
102
RTVSPost2010Prop56
140
1.0
102
RTVSPost2010PropOp56
 70
     1
102
RTVSPost2010Prop57
140
1.0
102
RTVSPost2010PropOp57
 70
     1
  0
ENDSEC
  0
EOF
